  0
SECTION
  2
HEADER
  9
$ACADVER
  1
AC1014
  9
$ACADMAINTVER
 70
     9
  9
$DWGCODEPAGE
  3
ANSI_1250
  9
$INSBASE
 10
0.0
 20
0.0
 30
0.0
  9
$EXTMIN
 10
-49.0565
 20
-36.3253
 30
0.0
  9
$EXTMAX
 10
49.0565
 20
36.3253
 30
0.0
  9
$LIMMIN
 10
0.0
 20
0.0
  9
$LIMMAX
 10
12.0
 20
9.0
  9
$ORTHOMODE
 70
     0
  9
$REGENMODE
 70
     1
  9
$FILLMODE
 70
     1
  9
$QTEXTMODE
 70
     0
  9
$MIRRTEXT
 70
     1
  9
$DRAGMODE
 70
     2
  9
$LTSCALE
 40
1.0
  9
$OSMODE
 70
    37
  9
$ATTMODE
 70
     1
  9
$TEXTSIZE
 40
0.2
  9
$TRACEWID
 40
0.05
  9
$TEXTSTYLE
  7
STANDARD
  9
$CLAYER
  8
0
  9
$CELTYPE
  6
BYLAYER
  9
$CECOLOR
 62
   256
  9
$CELTSCALE
 40
1.0
  9
$DELOBJ
 70
     1
  9
$DISPSILH
 70
     0
  9
$DIMSCALE
 40
1.0
  9
$DIMASZ
 40
0.18
  9
$DIMEXO
 40
0.0625
  9
$DIMDLI
 40
0.38
  9
$DIMRND
 40
0.0
  9
$DIMDLE
 40
0.0
  9
$DIMEXE
 40
0.18
  9
$DIMTP
 40
0.0
  9
$DIMTM
 40
0.0
  9
$DIMTXT
 40
0.18
  9
$DIMCEN
 40
0.09
  9
$DIMTSZ
 40
0.0
  9
$DIMTOL
 70
     0
  9
$DIMLIM
 70
     0
  9
$DIMTIH
 70
     1
  9
$DIMTOH
 70
     1
  9
$DIMSE1
 70
     0
  9
$DIMSE2
 70
     0
  9
$DIMTAD
 70
     0
  9
$DIMZIN
 70
     0
  9
$DIMBLK
  1

  9
$DIMASO
 70
     1
  9
$DIMSHO
 70
     1
  9
$DIMPOST
  1

  9
$DIMAPOST
  1

  9
$DIMALT
 70
     0
  9
$DIMALTD
 70
     2
  9
$DIMALTF
 40
25.4
  9
$DIMLFAC
 40
1.0
  9
$DIMTOFL
 70
     0
  9
$DIMTVP
 40
0.0
  9
$DIMTIX
 70
     0
  9
$DIMSOXD
 70
     0
  9
$DIMSAH
 70
     0
  9
$DIMBLK1
  1

  9
$DIMBLK2
  1

  9
$DIMSTYLE
  2
STANDARD
  9
$DIMCLRD
 70
     0
  9
$DIMCLRE
 70
     0
  9
$DIMCLRT
 70
     0
  9
$DIMTFAC
 40
1.0
  9
$DIMGAP
 40
0.09
  9
$DIMJUST
 70
     0
  9
$DIMSD1
 70
     0
  9
$DIMSD2
 70
     0
  9
$DIMTOLJ
 70
     1
  9
$DIMTZIN
 70
     0
  9
$DIMALTZ
 70
     0
  9
$DIMALTTZ
 70
     0
  9
$DIMFIT
 70
     3
  9
$DIMUPT
 70
     0
  9
$DIMUNIT
 70
     2
  9
$DIMDEC
 70
     4
  9
$DIMTDEC
 70
     4
  9
$DIMALTU
 70
     2
  9
$DIMALTTD
 70
     2
  9
$DIMTXSTY
  7
STANDARD
  9
$DIMAUNIT
 70
     0
  9
$LUNITS
 70
     2
  9
$LUPREC
 70
     4
  9
$SKETCHINC
 40
0.1
  9
$FILLETRAD
 40
0.5
  9
$AUNITS
 70
     0
  9
$AUPREC
 70
     0
  9
$MENU
  1
.
  9
$ELEVATION
 40
0.0
  9
$PELEVATION
 40
0.0
  9
$THICKNESS
 40
0.0
  9
$LIMCHECK
 70
     0
  9
$CHAMFERA
 40
0.5
  9
$CHAMFERB
 40
0.5
  9
$CHAMFERC
 40
1.0
  9
$CHAMFERD
 40
0.0
  9
$SKPOLY
 70
     0
  9
$TDCREATE
 40
2456272.419991308
  9
$TDUPDATE
 40
2456272.41999132
  9
$TDINDWG
 40
0.0000000116
  9
$TDUSRTIMER
 40
0.0000000116
  9
$USRTIMER
 70
     1
  9
$ANGBASE
 50
0.0
  9
$ANGDIR
 70
     0
  9
$PDMODE
 70
     0
  9
$PDSIZE
 40
0.0
  9
$PLINEWID
 40
0.0
  9
$COORDS
 70
     1
  9
$SPLFRAME
 70
     0
  9
$SPLINETYPE
 70
     6
  9
$SPLINESEGS
 70
     8
  9
$ATTDIA
 70
     0
  9
$ATTREQ
 70
     1
  9
$HANDLING
 70
     1
  9
$HANDSEED
  5
259
  9
$SURFTAB1
 70
     6
  9
$SURFTAB2
 70
     6
  9
$SURFTYPE
 70
     6
  9
$SURFU
 70
     6
  9
$SURFV
 70
     6
  9
$UCSNAME
  2

  9
$UCSORG
 10
0.0
 20
0.0
 30
0.0
  9
$UCSXDIR
 10
1.0
 20
0.0
 30
0.0
  9
$UCSYDIR
 10
0.0
 20
1.0
 30
0.0
  9
$PUCSNAME
  2

  9
$PUCSORG
 10
0.0
 20
0.0
 30
0.0
  9
$PUCSXDIR
 10
1.0
 20
0.0
 30
0.0
  9
$PUCSYDIR
 10
0.0
 20
1.0
 30
0.0
  9
$USERI1
 70
     0
  9
$USERI2
 70
     0
  9
$USERI3
 70
     0
  9
$USERI4
 70
     0
  9
$USERI5
 70
     0
  9
$USERR1
 40
0.0
  9
$USERR2
 40
0.0
  9
$USERR3
 40
0.0
  9
$USERR4
 40
0.0
  9
$USERR5
 40
0.0
  9
$WORLDVIEW
 70
     1
  9
$SHADEDGE
 70
     3
  9
$SHADEDIF
 70
    70
  9
$TILEMODE
 70
     1
  9
$MAXACTVP
 70
    64
  9
$PINSBASE
 10
0.0
 20
0.0
 30
0.0
  9
$PLIMCHECK
 70
     0
  9
$PEXTMIN
 10
1.000000000000000E+20
 20
1.000000000000000E+20
 30
1.000000000000000E+20
  9
$PEXTMAX
 10
-1.000000000000000E+20
 20
-1.000000000000000E+20
 30
-1.000000000000000E+20
  9
$PLIMMIN
 10
0.0
 20
0.0
  9
$PLIMMAX
 10
12.0
 20
9.0
  9
$UNITMODE
 70
     0
  9
$VISRETAIN
 70
     1
  9
$PLINEGEN
 70
     0
  9
$PSLTSCALE
 70
     1
  9
$TREEDEPTH
 70
  3020
  9
$PICKSTYLE
 70
     1
  9
$CMLSTYLE
  2
STANDARD
  9
$CMLJUST
 70
     0
  9
$CMLSCALE
 40
1.0
  9
$PROXYGRAPHICS
 70
     1
  9
$MEASUREMENT
 70
     0
  0
ENDSEC
  0
SECTION
  2
CLASSES
  0
CLASS
  1
ACDBDICTIONARYWDFLT
  2
AcDbDictionaryWithDefault
  3
ObjectDBX Classes
 90
        0
280
     0
281
     0
  0
CLASS
  1
VISUALSTYLE
  2
AcDbVisualStyle
  3
ObjectDBX Classes
 90
     4095
280
     0
281
     0
  0
CLASS
  1
MATERIAL
  2
AcDbMaterial
  3
ObjectDBX Classes
 90
     1153
280
     0
281
     0
  0
CLASS
  1
DICTIONARYVAR
  2
AcDbDictionaryVar
  3
ObjectDBX Classes
 90
        0
280
     0
281
     0
  0
CLASS
  1
XRECORD
  2
AcDbXrecord
  3
AutoCAD 2000
 90
        0
280
     0
281
     0
  0
CLASS
  1
LWPOLYLINE
  2
AcDbPolyline
  3
AutoCAD 2000
 90
        0
280
     0
281
     1
  0
CLASS
  1
HATCH
  2
AcDbHatch
  3
AutoCAD 2000
 90
        0
280
     0
281
     1
  0
CLASS
  1
ACDBPLACEHOLDER
  2
AcDbPlaceHolder
  3
ObjectDBX Classes
 90
        0
280
     0
281
     0
  0
CLASS
  1
LAYOUT
  2
AcDbLayout
  3
ObjectDBX Classes
 90
        0
280
     0
281
     0
  0
ENDSEC
  0
SECTION
  2
TABLES
  0
TABLE
  2
VPORT
  5
8
330
0
100
AcDbSymbolTable
 70
     1
  0
VPORT
  5
29
330
8
100
AcDbSymbolTableRecord
100
AcDbViewportTableRecord
  2
*ACTIVE
 70
     0
 10
0.0
 20
0.0
 11
1.0
 21
1.0
 12
10.42990654205607
 22
4.5
 13
0.0
 23
0.0
 14
0.5
 24
0.5
 15
0.5
 25
0.5
 16
0.0
 26
0.0
 36
1.0
 17
0.0
 27
0.0
 37
0.0
 40
9.0
 41
1.972972972850329
 42
50.0
 43
0.0
 44
0.0
 50
0.0
 51
0.0
 71
     0
 72
   100
 73
     1
 74
     3
 75
     0
 76
     0
 77
     0
 78
     0
  0
ENDTAB
  0
TABLE
  2
LTYPE
  5
5
330
0
100
AcDbSymbolTable
 70
     4
  0
LTYPE
  5
14
330
5
100
AcDbSymbolTableRecord
100
AcDbLinetypeTableRecord
  2
BYBLOCK
 70
     0
  3

 72
    65
 73
     0
 40
0.0
  0
LTYPE
  5
15
330
5
100
AcDbSymbolTableRecord
100
AcDbLinetypeTableRecord
  2
BYLAYER
 70
     0
  3

 72
    65
 73
     0
 40
0.0
  0
LTYPE
  5
16
330
5
100
AcDbSymbolTableRecord
100
AcDbLinetypeTableRecord
  2
CONTINUOUS
 70
     0
  3
Solid line
 72
    65
 73
     0
 40
0.0
  0
LTYPE
  5
42
330
5
100
AcDbSymbolTableRecord
100
AcDbLinetypeTableRecord
  2
NEW_LINE1
 70
     0
  3

 72
    65
 73
     4
 40
1.2
 49
0.5
 74
     4
 75
     0
340
0
 46
1.0
 50
0.0
 44
0.0
 45
0.0
 49
-0.3
 74
     4
 75
     0
340
0
 46
1.0
 50
0.0
 44
0.0
 45
0.0
 49
0.1
 74
     4
 75
     0
340
0
 46
1.0
 50
0.0
 44
0.0
 45
0.0
 49
-0.3
 74
     4
 75
     0
340
0
 46
1.0
 50
0.0
 44
0.0
 45
0.0
  0
LTYPE
  5
44
330
5
100
AcDbSymbolTableRecord
100
AcDbLinetypeTableRecord
  2
NEW_LINE2
 70
     0
  3

 72
    65
 73
     4
 40
1.2
 49
0.5
 74
     4
 75
     0
340
0
 46
1.0
 50
0.0
 44
0.0
 45
0.0
 49
-0.3
 74
     4
 75
     0
340
0
 46
1.0
 50
0.0
 44
0.0
 45
0.0
 49
0.1
 74
     4
 75
     0
340
0
 46
1.0
 50
0.0
 44
0.0
 45
0.0
 49
-0.3
 74
     4
 75
     0
340
0
 46
1.0
 50
0.0
 44
0.0
 45
0.0
  0
LTYPE
  5
46
330
5
100
AcDbSymbolTableRecord
100
AcDbLinetypeTableRecord
  2
NEW_LINE3
 70
     0
  3

 72
    65
 73
     4
 40
1.2
 49
0.5
 74
     4
 75
     0
340
0
 46
1.0
 50
0.0
 44
0.0
 45
0.0
 49
-0.3
 74
     4
 75
     0
340
0
 46
1.0
 50
0.0
 44
0.0
 45
0.0
 49
0.1
 74
     4
 75
     0
340
0
 46
1.0
 50
0.0
 44
0.0
 45
0.0
 49
-0.3
 74
     4
 75
     0
340
0
 46
1.0
 50
0.0
 44
0.0
 45
0.0
  0
ENDTAB
  0
TABLE
  2
LAYER
  5
2
330
0
100
AcDbSymbolTable
 70
     2
  0
LAYER
  5
10
330
2
100
AcDbSymbolTableRecord
100
AcDbLayerTableRecord
  2
0
 70
     0
 62
     7
  6
CONTINUOUS
  0
LAYER
  5
40
330
2
100
AcDbSymbolTableRecord
100
AcDbLayerTableRecord
  2
DEFAULT_2
 70
     0
 62
     7
  6
CONTINUOUS
  0
ENDTAB
  0
TABLE
  2
STYLE
  5
3
330
0
100
AcDbSymbolTable
 70
     1
  0
STYLE
  5
11
330
3
100
AcDbSymbolTableRecord
100
AcDbTextStyleTableRecord
  2
STANDARD
 70
     0
 40
0.0
 41
1.0
 50
0.0
 71
     0
 42
0.2
  3
txt
  4

  0
ENDTAB
  0
TABLE
  2
VIEW
  5
6
330
0
100
AcDbSymbolTable
 70
     0
  0
ENDTAB
  0
TABLE
  2
UCS
  5
7
330
0
100
AcDbSymbolTable
 70
     0
  0
ENDTAB
  0
TABLE
  2
APPID
  5
9
330
0
100
AcDbSymbolTable
 70
     2
  0
APPID
  5
12
330
9
100
AcDbSymbolTableRecord
100
AcDbRegAppTableRecord
  2
ACAD
 70
     0
  0
APPID
  5
3F
330
9
100
AcDbSymbolTableRecord
100
AcDbRegAppTableRecord
  2
ODA
 70
     0
  0
ENDTAB
  0
TABLE
  2
DIMSTYLE
  5
A
330
0
100
AcDbSymbolTable
 70
     1
  0
DIMSTYLE
105
27
330
A
100
AcDbSymbolTableRecord
100
AcDbDimStyleTableRecord
  2
STANDARD
 70
     0
  3

  4

  5

  6

  7

 40
1.0
 41
0.18
 42
0.0625
 43
0.38
 44
0.18
 45
0.0
 46
0.0
 47
0.0
 48
0.0
140
0.18
141
0.09
142
0.0
143
25.4
144
1.0
145
0.0
146
1.0
147
0.09
 71
     0
 72
     0
 73
     1
 74
     1
 75
     0
 76
     0
 77
     0
 78
     0
170
     0
171
     2
172
     0
173
     0
174
     0
175
     0
176
     0
177
     0
178
     0
270
     2
271
     4
272
     4
273
     2
274
     2
340
11
275
     0
280
     0
281
     0
282
     0
283
     1
284
     0
285
     0
286
     0
287
     3
288
     0
  0
ENDTAB
  0
TABLE
  2
BLOCK_RECORD
  5
1
330
0
100
AcDbSymbolTable
 70
     1
  0
BLOCK_RECORD
  5
1F
330
1
100
AcDbSymbolTableRecord
100
AcDbBlockTableRecord
  2
*MODEL_SPACE
  0
BLOCK_RECORD
  5
1B
330
1
100
AcDbSymbolTableRecord
100
AcDbBlockTableRecord
  2
*PAPER_SPACE
  0
ENDTAB
  0
ENDSEC
  0
SECTION
  2
BLOCKS
  0
BLOCK
  5
20
330
1F
100
AcDbEntity
  8
0
100
AcDbBlockBegin
  2
*MODEL_SPACE
 70
     0
 10
0.0
 20
0.0
 30
0.0
  3
*MODEL_SPACE
  1

  0
ENDBLK
  5
21
330
1F
100
AcDbEntity
  8
0
100
AcDbBlockEnd
  0
BLOCK
  5
1C
330
1B
100
AcDbEntity
 67
     1
  8
0
100
AcDbBlockBegin
  2
*PAPER_SPACE
 70
     0
 10
0.0
 20
0.0
 30
0.0
  3
*PAPER_SPACE
  1

  0
ENDBLK
  5
1D
330
1B
100
AcDbEntity
 67
     1
  8
0
100
AcDbBlockEnd
  0
ENDSEC
  0
SECTION
  2
ENTITIES
  0
SPLINE
  5
41
330
1F
100
AcDbEntity
  8
DEFAULT_2
  6
NEW_LINE1
 62
   250
100
AcDbSpline
210
0.0
220
0.0
230
1.0
 70
    24
 71
     3
 72
     8
 73
     4
 74
     0
 42
0.0000000001
 43
0.0000000001
 40
0.0
 40
0.0
 40
0.0
 40
0.0
 40
1.0
 40
1.0
 40
1.0
 40
1.0
 10
-13.1153
 20
-5.7777
 30
0.0
 10
-13.1153
 20
-5.7777
 30
0.0
 10
49.0565
 20
-5.7777
 30
0.0
 10
49.0565
 20
-5.7777
 30
0.0
  0
SPLINE
  5
43
330
1F
100
AcDbEntity
  8
DEFAULT_2
  6
NEW_LINE2
 62
   250
100
AcDbSpline
210
0.0
220
0.0
230
1.0
 70
    24
 71
     3
 72
     8
 73
     4
 74
     0
 42
0.0000000001
 43
0.0000000001
 40
0.0
 40
0.0
 40
0.0
 40
0.0
 40
1.0
 40
1.0
 40
1.0
 40
1.0
 10
17.6445
 20
-36.3253
 30
0.0
 10
17.6445
 20
-36.3253
 30
0.0
 10
17.6445
 20
25.4733
 30
0.0
 10
17.6445
 20
25.4733
 30
0.0
  0
SPLINE
  5
45
330
1F
100
AcDbEntity
  8
DEFAULT_2
  6
NEW_LINE3
 62
   250
100
AcDbSpline
210
0.0
220
0.0
230
1.0
 70
    24
 71
     3
 72
     8
 73
     4
 74
     0
 42
0.0000000001
 43
0.0000000001
 40
0.0
 40
0.0
 40
0.0
 40
0.0
 40
1.0
 40
1.0
 40
1.0
 40
1.0
 10
-21.7067
 20
-5.7775
 30
0.0
 10
-21.7067
 20
-5.7775
 30
0.0
 10
-41.493
 20
-5.7775
 30
0.0
 10
-41.493
 20
-5.7775
 30
0.0
  0
SPLINE
  5
47
330
1F
100
AcDbEntity
  8
DEFAULT_2
 62
   250
100
AcDbSpline
210
0.0
220
0.0
230
1.0
 70
    24
 71
     3
 72
     8
 73
     4
 74
     0
 42
0.0000000001
 43
0.0000000001
 40
0.0
 40
0.0
 40
0.0
 40
0.0
 40
1.0
 40
1.0
 40
1.0
 40
1.0
 10
-25.4243
 20
33.2837
 30
0.0
 10
-25.4243
 20
33.2837
 30
0.0
 10
-38.2677
 20
33.2837
 30
0.0
 10
-38.2677
 20
33.2837
 30
0.0
  0
SPLINE
  5
48
330
1F
100
AcDbEntity
  8
DEFAULT_2
 62
   250
100
AcDbSpline
210
0.0
220
0.0
230
1.0
 70
    11
 71
     3
 72
    20
 73
    16
 74
     0
 42
0.0000000001
 43
0.0000000001
 40
0.0
 40
0.0
 40
0.0
 40
0.0
 40
0.2
 40
0.2
 40
0.2
 40
0.2
 40
0.4
 40
0.4
 40
0.4
 40
0.4
 40
0.6
 40
0.6
 40
0.6
 40
0.6
 40
1.0
 40
1.0
 40
1.0
 40
1.0
 10
-27.9067
 20
33.822
 30
0.0
 10
-27.9067
 20
33.822
 30
0.0
 10
-24.3522
 20
33.3203
 30
0.0
 10
-24.3522
 20
33.3203
 30
0.0
 10
-24.3522
 20
33.3203
 30
0.0
 10
-24.3522
 20
33.3203
 30
0.0
 10
-24.3522
 20
33.2089
 30
0.0
 10
-24.3522
 20
33.2089
 30
0.0
 10
-24.3522
 20
33.2089
 30
0.0
 10
-24.3522
 20
33.2089
 30
0.0
 10
-27.9067
 20
32.6739
 30
0.0
 10
-27.9067
 20
32.6739
 30
0.0
 10
-27.9067
 20
32.6739
 30
0.0
 10
-27.9067
 20
32.6739
 30
0.0
 10
-27.9067
 20
33.822
 30
0.0
 10
-27.9067
 20
33.822
 30
0.0
  0
SPLINE
  5
49
330
1F
100
AcDbEntity
  8
DEFAULT_2
 62
   250
100
AcDbSpline
210
0.0
220
0.0
230
1.0
 70
    11
 71
     3
 72
    20
 73
    16
 74
     0
 42
0.0000000001
 43
0.0000000001
 40
0.0
 40
0.0
 40
0.0
 40
0.0
 40
0.2
 40
0.2
 40
0.2
 40
0.2
 40
0.4
 40
0.4
 40
0.4
 40
0.4
 40
0.6
 40
0.6
 40
0.6
 40
0.6
 40
1.0
 40
1.0
 40
1.0
 40
1.0
 10
-34.7162
 20
32.7366
 30
0.0
 10
-34.7162
 20
32.7366
 30
0.0
 10
-38.2709
 20
33.2383
 30
0.0
 10
-38.2709
 20
33.2383
 30
0.0
 10
-38.2709
 20
33.2383
 30
0.0
 10
-38.2709
 20
33.2383
 30
0.0
 10
-38.2709
 20
33.3498
 30
0.0
 10
-38.2709
 20
33.3498
 30
0.0
 10
-38.2709
 20
33.3498
 30
0.0
 10
-38.2709
 20
33.3498
 30
0.0
 10
-34.7162
 20
33.8848
 30
0.0
 10
-34.7162
 20
33.8848
 30
0.0
 10
-34.7162
 20
33.8848
 30
0.0
 10
-34.7162
 20
33.8848
 30
0.0
 10
-34.7162
 20
32.7366
 30
0.0
 10
-34.7162
 20
32.7366
 30
0.0
  0
SPLINE
  5
4A
330
1F
100
AcDbEntity
  8
DEFAULT_2
 62
   250
100
AcDbSpline
210
0.0
220
0.0
230
1.0
 70
    11
 71
     3
 72
    92
 73
    88
 74
     0
 42
0.0000000001
 43
0.0000000001
 40
0.0
 40
0.0
 40
0.0
 40
0.0
 40
0.0434782608695652
 40
0.0434782608695652
 40
0.0434782608695652
 40
0.0434782608695652
 40
0.0869565217391304
 40
0.0869565217391304
 40
0.0869565217391304
 40
0.0869565217391304
 40
0.1304347826086956
 40
0.1304347826086956
 40
0.1304347826086956
 40
0.1304347826086956
 40
0.1739130434782609
 40
0.1739130434782609
 40
0.1739130434782609
 40
0.1739130434782609
 40
0.2173913043478261
 40
0.2173913043478261
 40
0.2173913043478261
 40
0.2173913043478261
 40
0.2608695652173913
 40
0.2608695652173913
 40
0.2608695652173913
 40
0.2608695652173913
 40
0.3043478260869565
 40
0.3043478260869565
 40
0.3043478260869565
 40
0.3043478260869565
 40
0.3478260869565217
 40
0.3478260869565217
 40
0.3478260869565217
 40
0.3478260869565217
 40
0.391304347826087
 40
0.391304347826087
 40
0.391304347826087
 40
0.391304347826087
 40
0.4347826086956522
 40
0.4347826086956522
 40
0.4347826086956522
 40
0.4347826086956522
 40
0.4782608695652174
 40
0.4782608695652174
 40
0.4782608695652174
 40
0.4782608695652174
 40
0.5217391304347826
 40
0.5217391304347826
 40
0.5217391304347826
 40
0.5217391304347826
 40
0.5652173913043478
 40
0.5652173913043478
 40
0.5652173913043478
 40
0.5652173913043478
 40
0.6086956521739131
 40
0.6086956521739131
 40
0.6086956521739131
 40
0.6086956521739131
 40
0.6521739130434783
 40
0.6521739130434783
 40
0.6521739130434783
 40
0.6521739130434783
 40
0.6956521739130435
 40
0.6956521739130435
 40
0.6956521739130435
 40
0.6956521739130435
 40
0.7391304347826086
 40
0.7391304347826086
 40
0.7391304347826086
 40
0.7391304347826086
 40
0.782608695652174
 40
0.782608695652174
 40
0.782608695652174
 40
0.782608695652174
 40
0.8260869565217391
 40
0.8260869565217391
 40
0.8260869565217391
 40
0.8260869565217391
 40
0.8695652173913043
 40
0.8695652173913043
 40
0.8695652173913043
 40
0.8695652173913043
 40
0.9130434782608695
 40
0.9130434782608695
 40
0.9130434782608695
 40
0.9130434782608695
 40
1.0
 40
1.0
 40
1.0
 40
1.0
 10
-31.2784
 20
34.2041
 30
0.0
 10
-31.2784
 20
34.2041
 30
0.0
 10
-31.2784
 20
33.9215
 30
0.0
 10
-31.2784
 20
33.9215
 30
0.0
 10
-31.2784
 20
33.9215
 30
0.0
 10
-31.2784
 20
33.9215
 30
0.0
 10
-32.8607
 20
33.9215
 30
0.0
 10
-32.8607
 20
33.9215
 30
0.0
 10
-32.8607
 20
33.9215
 30
0.0
 10
-32.8629
 20
33.9922
 30
0.0
 10
-32.8518
 20
34.0602
 30
0.0
 10
-32.8267
 20
34.1255
 30
0.0
 10
-32.8267
 20
34.1255
 30
0.0
 10
-32.7865
 20
34.2336
 30
0.0
 10
-32.7219
 20
34.3395
 30
0.0
 10
-32.6333
 20
34.4443
 30
0.0
 10
-32.6333
 20
34.4443
 30
0.0
 10
-32.5441
 20
34.5485
 30
0.0
 10
-32.4159
 20
34.6694
 30
0.0
 10
-32.2487
 20
34.8065
 30
0.0
 10
-32.2487
 20
34.8065
 30
0.0
 10
-31.9885
 20
35.02
 30
0.0
 10
-31.8123
 20
35.1889
 30
0.0
 10
-31.7209
 20
35.3137
 30
0.0
 10
-31.7209
 20
35.3137
 30
0.0
 10
-31.6296
 20
35.438
 30
0.0
 10
-31.5838
 20
35.5562
 30
0.0
 10
-31.5838
 20
35.6671
 30
0.0
 10
-31.5838
 20
35.6671
 30
0.0
 10
-31.5838
 20
35.7836
 30
0.0
 10
-31.6256
 20
35.8817
 30
0.0
 10
-31.7086
 20
35.9619
 30
0.0
 10
-31.7086
 20
35.9619
 30
0.0
 10
-31.7922
 20
36.0416
 30
0.0
 10
-31.9009
 20
36.0817
 30
0.0
 10
-32.0347
 20
36.0817
 30
0.0
 10
-32.0347
 20
36.0817
 30
0.0
 10
-32.1763
 20
36.0817
 30
0.0
 10
-32.2894
 20
36.0394
 30
0.0
 10
-32.3741
 20
35.9541
 30
0.0
 10
-32.3741
 20
35.9541
 30
0.0
 10
-32.4593
 20
35.8693
 30
0.0
 10
-32.5022
 20
35.7518
 30
0.0
 10
-32.5034
 20
35.6019
 30
0.0
 10
-32.5034
 20
35.6019
 30
0.0
 10
-32.5034
 20
35.6019
 30
0.0
 10
-32.8055
 20
35.6325
 30
0.0
 10
-32.8055
 20
35.6325
 30
0.0
 10
-32.8055
 20
35.6325
 30
0.0
 10
-32.7848
 20
35.8582
 30
0.0
 10
-32.7069
 20
36.0299
 30
0.0
 10
-32.5719
 20
36.148
 30
0.0
 10
-32.5719
 20
36.148
 30
0.0
 10
-32.4371
 20
36.2662
 30
0.0
 10
-32.2554
 20
36.3253
 30
0.0
 10
-32.028
 20
36.3253
 30
0.0
 10
-32.028
 20
36.3253
 30
0.0
 10
-31.7984
 20
36.3253
 30
0.0
 10
-31.6166
 20
36.2612
 30
0.0
 10
-31.4829
 20
36.1342
 30
0.0
 10
-31.4829
 20
36.1342
 30
0.0
 10
-31.3486
 20
36.0064
 30
0.0
 10
-31.2817
 20
35.8487
 30
0.0
 10
-31.2817
 20
35.6603
 30
0.0
 10
-31.2817
 20
35.6603
 30
0.0
 10
-31.2817
 20
35.5645
 30
0.0
 10
-31.3012
 20
35.4703
 30
0.0
 10
-31.3408
 20
35.3778
 30
0.0
 10
-31.3408
 20
35.3778
 30
0.0
 10
-31.3798
 20
35.2853
 30
0.0
 10
-31.4451
 20
35.1878
 30
0.0
 10
-31.5358
 20
35.0858
 30
0.0
 10
-31.5358
 20
35.0858
 30
0.0
 10
-31.6267
 20
34.9832
 30
0.0
 10
-31.7778
 20
34.8427
 30
0.0
 10
-31.9889
 20
34.6644
 30
0.0
 10
-31.9889
 20
34.6644
 30
0.0
 10
-32.1651
 20
34.5162
 30
0.0
 10
-32.2783
 20
34.4158
 30
0.0
 10
-32.3284
 20
34.3629
 30
0.0
 10
-32.3284
 20
34.3629
 30
0.0
 10
-32.3785
 20
34.3105
 30
0.0
 10
-32.4198
 20
34.2575
 30
0.0
 10
-32.4527
 20
34.2041
 30
0.0
 10
-32.4527
 20
34.2041
 30
0.0
 10
-32.4527
 20
34.2041
 30
0.0
 10
-31.2784
 20
34.2041
 30
0.0
 10
-31.2784
 20
34.2041
 30
0.0
  0
SPLINE
  5
4B
330
1F
100
AcDbEntity
  8
DEFAULT_2
 62
   250
100
AcDbSpline
210
0.0
220
0.0
230
1.0
 70
    11
 71
     3
 72
    52
 73
    48
 74
     0
 42
0.0000000001
 43
0.0000000001
 40
0.0
 40
0.0
 40
0.0
 40
0.0
 40
0.0769230769230769
 40
0.0769230769230769
 40
0.0769230769230769
 40
0.0769230769230769
 40
0.1538461538461539
 40
0.1538461538461539
 40
0.1538461538461539
 40
0.1538461538461539
 40
0.2307692307692308
 40
0.2307692307692308
 40
0.2307692307692308
 40
0.2307692307692308
 40
0.3076923076923077
 40
0.3076923076923077
 40
0.3076923076923077
 40
0.3076923076923077
 40
0.3846153846153846
 40
0.3846153846153846
 40
0.3846153846153846
 40
0.3846153846153846
 40
0.4615384615384616
 40
0.4615384615384616
 40
0.4615384615384616
 40
0.4615384615384616
 40
0.5384615384615384
 40
0.5384615384615384
 40
0.5384615384615384
 40
0.5384615384615384
 40
0.6153846153846154
 40
0.6153846153846154
 40
0.6153846153846154
 40
0.6153846153846154
 40
0.6923076923076923
 40
0.6923076923076923
 40
0.6923076923076923
 40
0.6923076923076923
 40
0.7692307692307693
 40
0.7692307692307693
 40
0.7692307692307693
 40
0.7692307692307693
 40
0.8461538461538461
 40
0.8461538461538461
 40
0.8461538461538461
 40
0.8461538461538461
 40
1.0
 40
1.0
 40
1.0
 40
1.0
 10
-30.9635
 20
35.1019
 30
0.0
 10
-30.9635
 20
35.3851
 30
0.0
 10
-30.9345
 20
35.6131
 30
0.0
 10
-30.876
 20
35.7852
 30
0.0
 10
-30.876
 20
35.7852
 30
0.0
 10
-30.818
 20
35.958
 30
0.0
 10
-30.731
 20
36.0912
 30
0.0
 10
-30.6162
 20
36.1849
 30
0.0
 10
-30.6162
 20
36.1849
 30
0.0
 10
-30.5014
 20
36.2785
 30
0.0
 10
-30.3571
 20
36.3253
 30
0.0
 10
-30.1833
 20
36.3253
 30
0.0
 10
-30.1833
 20
36.3253
 30
0.0
 10
-30.0545
 20
36.3253
 30
0.0
 10
-29.9419
 20
36.2991
 30
0.0
 10
-29.845
 20
36.2472
 30
0.0
 10
-29.845
 20
36.2472
 30
0.0
 10
-29.7479
 20
36.196
 30
0.0
 10
-29.6682
 20
36.1213
 30
0.0
 10
-29.6047
 20
36.0237
 30
0.0
 10
-29.6047
 20
36.0237
 30
0.0
 10
-29.5418
 20
35.9262
 30
0.0
 10
-29.4921
 20
35.8075
 30
0.0
 10
-29.4564
 20
35.6677
 30
0.0
 10
-29.4564
 20
35.6677
 30
0.0
 10
-29.4202
 20
35.5277
 30
0.0
 10
-29.4024
 20
35.3393
 30
0.0
 10
-29.4024
 20
35.1019
 30
0.0
 10
-29.4024
 20
35.1019
 30
0.0
 10
-29.4024
 20
34.8211
 30
0.0
 10
-29.4313
 20
34.5947
 30
0.0
 10
-29.4888
 20
34.422
 30
0.0
 10
-29.4888
 20
34.422
 30
0.0
 10
-29.5467
 20
34.2492
 30
0.0
 10
-29.6331
 20
34.116
 30
0.0
 10
-29.7479
 20
34.0218
 30
0.0
 10
-29.7479
 20
34.0218
 30
0.0
 10
-29.8627
 20
33.9276
 30
0.0
 10
-30.0077
 20
33.8808
 30
0.0
 10
-30.1833
 20
33.8808
 30
0.0
 10
-30.1833
 20
33.8808
 30
0.0
 10
-30.414
 20
33.8808
 30
0.0
 10
-30.5951
 20
33.9633
 30
0.0
 10
-30.7267
 20
34.1288
 30
0.0
 10
-30.7267
 20
34.1288
 30
0.0
 10
-30.8844
 20
34.3278
 30
0.0
 10
-30.9635
 20
34.6527
 30
0.0
 10
-30.9635
 20
35.1019
 30
0.0
  0
SPLINE
  5
4C
330
1F
100
AcDbEntity
  8
DEFAULT_2
 62
   250
100
AcDbSpline
210
0.0
220
0.0
230
1.0
 70
    11
 71
     3
 72
    36
 73
    32
 74
     0
 42
0.0000000001
 43
0.0000000001
 40
0.0
 40
0.0
 40
0.0
 40
0.0
 40
0.1111111111111111
 40
0.1111111111111111
 40
0.1111111111111111
 40
0.1111111111111111
 40
0.2222222222222222
 40
0.2222222222222222
 40
0.2222222222222222
 40
0.2222222222222222
 40
0.3333333333333333
 40
0.3333333333333333
 40
0.3333333333333333
 40
0.3333333333333333
 40
0.4444444444444444
 40
0.4444444444444444
 40
0.4444444444444444
 40
0.4444444444444444
 40
0.5555555555555556
 40
0.5555555555555556
 40
0.5555555555555556
 40
0.5555555555555556
 40
0.6666666666666666
 40
0.6666666666666666
 40
0.6666666666666666
 40
0.6666666666666666
 40
0.7777777777777778
 40
0.7777777777777778
 40
0.7777777777777778
 40
0.7777777777777778
 40
1.0
 40
1.0
 40
1.0
 40
1.0
 10
-30.6614
 20
35.1019
 30
0.0
 10
-30.6614
 20
34.709
 30
0.0
 10
-30.6152
 20
34.4476
 30
0.0
 10
-30.5232
 20
34.3172
 30
0.0
 10
-30.5232
 20
34.3172
 30
0.0
 10
-30.4313
 20
34.1874
 30
0.0
 10
-30.3181
 20
34.1221
 30
0.0
 10
-30.1833
 20
34.1221
 30
0.0
 10
-30.1833
 20
34.1221
 30
0.0
 10
-30.0478
 20
34.1221
 30
0.0
 10
-29.9347
 20
34.1879
 30
0.0
 10
-29.8427
 20
34.3183
 30
0.0
 10
-29.8427
 20
34.3183
 30
0.0
 10
-29.7508
 20
34.4488
 30
0.0
 10
-29.7044
 20
34.7102
 30
0.0
 10
-29.7044
 20
35.1019
 30
0.0
 10
-29.7044
 20
35.1019
 30
0.0
 10
-29.7044
 20
35.496
 30
0.0
 10
-29.7508
 20
35.758
 30
0.0
 10
-29.8427
 20
35.8872
 30
0.0
 10
-29.8427
 20
35.8872
 30
0.0
 10
-29.9347
 20
36.0171
 30
0.0
 10
-30.0489
 20
36.0817
 30
0.0
 10
-30.186
 20
36.0817
 30
0.0
 10
-30.186
 20
36.0817
 30
0.0
 10
-30.3214
 20
36.0817
 30
0.0
 10
-30.429
 20
36.0243
 30
0.0
 10
-30.5098
 20
35.9101
 30
0.0
 10
-30.5098
 20
35.9101
 30
0.0
 10
-30.6107
 20
35.7646
 30
0.0
 10
-30.6614
 20
35.4948
 30
0.0
 10
-30.6614
 20
35.1019
 30
0.0
  0
SPLINE
  5
4D
330
1F
100
AcDbEntity
  8
DEFAULT_2
 62
   250
100
AcDbSpline
210
0.0
220
0.0
230
1.0
 70
    24
 71
     3
 72
     8
 73
     4
 74
     0
 42
0.0000000001
 43
0.0000000001
 40
0.0
 40
0.0
 40
0.0
 40
0.0
 40
1.0
 40
1.0
 40
1.0
 40
1.0
 10
-38.3341
 20
21.1042
 30
0.0
 10
-38.3341
 20
21.1042
 30
0.0
 10
-38.3341
 20
33.9266
 30
0.0
 10
-38.3341
 20
33.9266
 30
0.0
  0
SPLINE
  5
4E
330
1F
100
AcDbEntity
  8
DEFAULT_2
 62
   250
100
AcDbSpline
210
0.0
220
0.0
230
1.0
 70
    24
 71
     3
 72
     8
 73
     4
 74
     0
 42
0.0000000001
 43
0.0000000001
 40
0.0
 40
0.0
 40
0.0
 40
0.0
 40
1.0
 40
1.0
 40
1.0
 40
1.0
 10
-24.2328
 20
19.0113
 30
0.0
 10
-24.2328
 20
19.0113
 30
0.0
 10
-24.2328
 20
33.9038
 30
0.0
 10
-24.2328
 20
33.9038
 30
0.0
  0
SPLINE
  5
4F
330
1F
100
AcDbEntity
  8
DEFAULT_2
 62
   250
100
AcDbSpline
210
0.0
220
0.0
230
1.0
 70
    24
 71
     3
 72
     8
 73
     4
 74
     0
 42
0.0000000001
 43
0.0000000001
 40
0.0
 40
0.0
 40
0.0
 40
0.0
 40
1.0
 40
1.0
 40
1.0
 40
1.0
 10
-15.4303
 20
18.2526
 30
0.0
 10
-15.4303
 20
18.2526
 30
0.0
 10
-15.4303
 20
-28.9493
 30
0.0
 10
-15.4303
 20
-28.9493
 30
0.0
  0
SPLINE
  5
50
330
1F
100
AcDbEntity
  8
DEFAULT_2
 62
   250
100
AcDbSpline
210
0.0
220
0.0
230
1.0
 70
    11
 71
     3
 72
    20
 73
    16
 74
     0
 42
0.0000000001
 43
0.0000000001
 40
0.0
 40
0.0
 40
0.0
 40
0.0
 40
0.2
 40
0.2
 40
0.2
 40
0.2
 40
0.4
 40
0.4
 40
0.4
 40
0.4
 40
0.6
 40
0.6
 40
0.6
 40
0.6
 40
1.0
 40
1.0
 40
1.0
 40
1.0
 10
-15.9097
 20
15.0964
 30
0.0
 10
-15.9097
 20
15.0964
 30
0.0
 10
-15.408
 20
18.6508
 30
0.0
 10
-15.408
 20
18.6508
 30
0.0
 10
-15.408
 20
18.6508
 30
0.0
 10
-15.408
 20
18.6508
 30
0.0
 10
-15.2966
 20
18.6508
 30
0.0
 10
-15.2966
 20
18.6508
 30
0.0
 10
-15.2966
 20
18.6508
 30
0.0
 10
-15.2966
 20
18.6508
 30
0.0
 10
-14.7616
 20
15.0964
 30
0.0
 10
-14.7616
 20
15.0964
 30
0.0
 10
-14.7616
 20
15.0964
 30
0.0
 10
-14.7616
 20
15.0964
 30
0.0
 10
-15.9097
 20
15.0964
 30
0.0
 10
-15.9097
 20
15.0964
 30
0.0
  0
SPLINE
  5
51
330
1F
100
AcDbEntity
  8
DEFAULT_2
 62
   250
100
AcDbSpline
210
0.0
220
0.0
230
1.0
 70
    11
 71
     3
 72
    20
 73
    16
 74
     0
 42
0.0000000001
 43
0.0000000001
 40
0.0
 40
0.0
 40
0.0
 40
0.0
 40
0.2
 40
0.2
 40
0.2
 40
0.2
 40
0.4
 40
0.4
 40
0.4
 40
0.4
 40
0.6
 40
0.6
 40
0.6
 40
0.6
 40
1.0
 40
1.0
 40
1.0
 40
1.0
 10
-14.837
 20
-26.2372
 30
0.0
 10
-14.837
 20
-26.2372
 30
0.0
 10
-15.3387
 20
-29.7919
 30
0.0
 10
-15.3387
 20
-29.7919
 30
0.0
 10
-15.3387
 20
-29.7919
 30
0.0
 10
-15.3387
 20
-29.7919
 30
0.0
 10
-15.4502
 20
-29.7919
 30
0.0
 10
-15.4502
 20
-29.7919
 30
0.0
 10
-15.4502
 20
-29.7919
 30
0.0
 10
-15.4502
 20
-29.7919
 30
0.0
 10
-15.9852
 20
-26.2372
 30
0.0
 10
-15.9852
 20
-26.2372
 30
0.0
 10
-15.9852
 20
-26.2372
 30
0.0
 10
-15.9852
 20
-26.2372
 30
0.0
 10
-14.837
 20
-26.2372
 30
0.0
 10
-14.837
 20
-26.2372
 30
0.0
  0
SPLINE
  5
52
330
1F
100
AcDbEntity
  8
DEFAULT_2
 62
   250
100
AcDbSpline
210
0.0
220
0.0
230
1.0
 70
    11
 71
     3
 72
    84
 73
    80
 74
     0
 42
0.0000000001
 43
0.0000000001
 40
0.0
 40
0.0
 40
0.0
 40
0.0
 40
0.0476190476190476
 40
0.0476190476190476
 40
0.0476190476190476
 40
0.0476190476190476
 40
0.0952380952380952
 40
0.0952380952380952
 40
0.0952380952380952
 40
0.0952380952380952
 40
0.1428571428571428
 40
0.1428571428571428
 40
0.1428571428571428
 40
0.1428571428571428
 40
0.1904761904761905
 40
0.1904761904761905
 40
0.1904761904761905
 40
0.1904761904761905
 40
0.2380952380952381
 40
0.2380952380952381
 40
0.2380952380952381
 40
0.2380952380952381
 40
0.2857142857142857
 40
0.2857142857142857
 40
0.2857142857142857
 40
0.2857142857142857
 40
0.3333333333333333
 40
0.3333333333333333
 40
0.3333333333333333
 40
0.3333333333333333
 40
0.3809523809523809
 40
0.3809523809523809
 40
0.3809523809523809
 40
0.3809523809523809
 40
0.4285714285714285
 40
0.4285714285714285
 40
0.4285714285714285
 40
0.4285714285714285
 40
0.4761904761904762
 40
0.4761904761904762
 40
0.4761904761904762
 40
0.4761904761904762
 40
0.5238095238095238
 40
0.5238095238095238
 40
0.5238095238095238
 40
0.5238095238095238
 40
0.5714285714285714
 40
0.5714285714285714
 40
0.5714285714285714
 40
0.5714285714285714
 40
0.6190476190476191
 40
0.6190476190476191
 40
0.6190476190476191
 40
0.6190476190476191
 40
0.6666666666666666
 40
0.6666666666666666
 40
0.6666666666666666
 40
0.6666666666666666
 40
0.7142857142857143
 40
0.7142857142857143
 40
0.7142857142857143
 40
0.7142857142857143
 40
0.7619047619047619
 40
0.7619047619047619
 40
0.7619047619047619
 40
0.7619047619047619
 40
0.8095238095238095
 40
0.8095238095238095
 40
0.8095238095238095
 40
0.8095238095238095
 40
0.8571428571428571
 40
0.8571428571428571
 40
0.8571428571428571
 40
0.8571428571428571
 40
0.9047619047619048
 40
0.9047619047619048
 40
0.9047619047619048
 40
0.9047619047619048
 40
1.0
 40
1.0
 40
1.0
 40
1.0
 10
-18.1506
 20
-6.7586
 30
0.0
 10
-18.1506
 20
-6.7586
 30
0.0
 10
-18.4576
 20
-6.4844
 30
0.0
 10
-18.4576
 20
-6.4844
 30
0.0
 10
-18.4576
 20
-6.4844
 30
0.0
 10
-18.4576
 20
-6.4844
 30
0.0
 10
-18.3205
 20
-6.3228
 30
0.0
 10
-18.3205
 20
-6.3228
 30
0.0
 10
-18.3205
 20
-6.3228
 30
0.0
 10
-18.3205
 20
-6.3228
 30
0.0
 10
-17.9973
 20
-6.6097
 30
0.0
 10
-17.9973
 20
-6.6097
 30
0.0
 10
-17.9973
 20
-6.6097
 30
0.0
 10
-17.8579
 20
-6.5161
 30
0.0
 10
-17.7359
 20
-6.4532
 30
0.0
 10
-17.6317
 20
-6.4203
 30
0.0
 10
-17.6317
 20
-6.4203
 30
0.0
 10
-17.4945
 20
-6.3768
 30
0.0
 10
-17.3407
 20
-6.3551
 30
0.0
 10
-17.1713
 20
-6.3551
 30
0.0
 10
-17.1713
 20
-6.3551
 30
0.0
 10
-16.9261
 20
-6.3551
 30
0.0
 10
-16.7076
 20
-6.4046
 30
0.0
 10
-16.5165
 20
-6.5039
 30
0.0
 10
-16.5165
 20
-6.5039
 30
0.0
 10
-16.3247
 20
-6.6031
 30
0.0
 10
-16.1799
 20
-6.7419
 30
0.0
 10
-16.0817
 20
-6.9208
 30
0.0
 10
-16.0817
 20
-6.9208
 30
0.0
 10
-15.9842
 20
-7.1003
 30
0.0
 10
-15.9352
 20
-7.2902
 30
0.0
 10
-15.9352
 20
-7.4914
 30
0.0
 10
-15.9352
 20
-7.4914
 30
0.0
 10
-15.9352
 20
-7.6419
 30
0.0
 10
-15.9563
 20
-7.7779
 30
0.0
 10
-15.9987
 20
-7.9
 30
0.0
 10
-15.9987
 20
-7.9
 30
0.0
 10
-16.0315
 20
-7.9936
 30
0.0
 10
-16.094
 20
-8.1028
 30
0.0
 10
-16.1865
 20
-8.2283
 30
0.0
 10
-16.1865
 20
-8.2283
 30
0.0
 10
-16.1865
 20
-8.2283
 30
0.0
 10
-15.8794
 20
-8.5025
 30
0.0
 10
-15.8794
 20
-8.5025
 30
0.0
 10
-15.8794
 20
-8.5025
 30
0.0
 10
-15.8794
 20
-8.5025
 30
0.0
 10
-16.0165
 20
-8.6641
 30
0.0
 10
-16.0165
 20
-8.6641
 30
0.0
 10
-16.0165
 20
-8.6641
 30
0.0
 10
-16.0165
 20
-8.6641
 30
0.0
 10
-16.338
 20
-8.3765
 30
0.0
 10
-16.338
 20
-8.3765
 30
0.0
 10
-16.338
 20
-8.3765
 30
0.0
 10
-16.5003
 20
-8.4835
 30
0.0
 10
-16.639
 20
-8.5549
 30
0.0
 10
-16.7538
 20
-8.5905
 30
0.0
 10
-16.7538
 20
-8.5905
 30
0.0
 10
-16.8686
 20
-8.6262
 30
0.0
 10
-17.0069
 20
-8.6446
 30
0.0
 10
-17.1679
 20
-8.6446
 30
0.0
 10
-17.1679
 20
-8.6446
 30
0.0
 10
-17.4137
 20
-8.6446
 30
0.0
 10
-17.6328
 20
-8.5955
 30
0.0
 10
-17.8251
 20
-8.4975
 30
0.0
 10
-17.8251
 20
-8.4975
 30
0.0
 10
-18.0174
 20
-8.3994
 30
0.0
 10
-18.1628
 20
-8.2623
 30
0.0
 10
-18.262
 20
-8.0851
 30
0.0
 10
-18.262
 20
-8.0851
 30
0.0
 10
-18.3607
 20
-7.9084
 30
0.0
 10
-18.4103
 20
-7.7116
 30
0.0
 10
-18.4103
 20
-7.4949
 30
0.0
 10
-18.4103
 20
-7.4949
 30
0.0
 10
-18.4103
 20
-7.3488
 30
0.0
 10
-18.3914
 20
-7.2211
 30
0.0
 10
-18.3523
 20
-7.1119
 30
0.0
 10
-18.3523
 20
-7.1119
 30
0.0
 10
-18.3139
 20
-7.0027
 30
0.0
 10
-18.2464
 20
-6.8845
 30
0.0
 10
-18.1506
 20
-6.7586
 30
0.0
  0
SPLINE
  5
53
330
1F
100
AcDbEntity
  8
DEFAULT_2
 62
   250
100
AcDbSpline
210
0.0
220
0.0
230
1.0
 70
    11
 71
     3
 72
    32
 73
    28
 74
     0
 42
0.0000000001
 43
0.0000000001
 40
0.0
 40
0.0
 40
0.0
 40
0.0
 40
0.125
 40
0.125
 40
0.125
 40
0.125
 40
0.25
 40
0.25
 40
0.25
 40
0.25
 40
0.375
 40
0.375
 40
0.375
 40
0.375
 40
0.5
 40
0.5
 40
0.5
 40
0.5
 40
0.625
 40
0.625
 40
0.625
 40
0.625
 40
0.75
 40
0.75
 40
0.75
 40
0.75
 40
1.0
 40
1.0
 40
1.0
 40
1.0
 10
-17.9304
 20
-6.9542
 30
0.0
 10
-18.0107
 20
-7.0568
 30
0.0
 10
-18.0659
 20
-7.1465
 30
0.0
 10
-18.0954
 20
-7.2228
 30
0.0
 10
-18.0954
 20
-7.2228
 30
0.0
 10
-18.1244
 20
-7.2997
 30
0.0
 10
-18.1394
 20
-7.39
 30
0.0
 10
-18.1394
 20
-7.4932
 30
0.0
 10
-18.1394
 20
-7.4932
 30
0.0
 10
-18.1394
 20
-7.7317
 30
0.0
 10
-18.0586
 20
-7.9284
 30
0.0
 10
-17.897
 20
-8.0845
 30
0.0
 10
-17.897
 20
-8.0845
 30
0.0
 10
-17.7353
 20
-8.24
 30
0.0
 10
-17.494
 20
-8.318
 30
0.0
 10
-17.1725
 20
-8.318
 30
0.0
 10
-17.1725
 20
-8.318
 30
0.0
 10
-17.0465
 20
-8.318
 30
0.0
 10
-16.9344
 20
-8.3058
 30
0.0
 10
-16.8363
 20
-8.2818
 30
0.0
 10
-16.8363
 20
-8.2818
 30
0.0
 10
-16.7633
 20
-8.2645
 30
0.0
 10
-16.6736
 20
-8.2283
 30
0.0
 10
-16.5672
 20
-8.1725
 30
0.0
 10
-16.5672
 20
-8.1725
 30
0.0
 10
-16.5672
 20
-8.1725
 30
0.0
 10
-17.9304
 20
-6.9542
 30
0.0
 10
-17.9304
 20
-6.9542
 30
0.0
  0
SPLINE
  5
54
330
1F
100
AcDbEntity
  8
DEFAULT_2
 62
   250
100
AcDbSpline
210
0.0
220
0.0
230
1.0
 70
    11
 71
     3
 72
    28
 73
    24
 74
     0
 42
0.0000000001
 43
0.0000000001
 40
0.0
 40
0.0
 40
0.0
 40
0.0
 40
0.1428571428571428
 40
0.1428571428571428
 40
0.1428571428571428
 40
0.1428571428571428
 40
0.2857142857142857
 40
0.2857142857142857
 40
0.2857142857142857
 40
0.2857142857142857
 40
0.4285714285714285
 40
0.4285714285714285
 40
0.4285714285714285
 40
0.4285714285714285
 40
0.5714285714285714
 40
0.5714285714285714
 40
0.5714285714285714
 40
0.5714285714285714
 40
0.7142857142857143
 40
0.7142857142857143
 40
0.7142857142857143
 40
0.7142857142857143
 40
1.0
 40
1.0
 40
1.0
 40
1.0
 10
-17.7621
 20
-6.8204
 30
0.0
 10
-17.7621
 20
-6.8204
 30
0.0
 10
-16.4038
 20
-8.0338
 30
0.0
 10
-16.4038
 20
-8.0338
 30
0.0
 10
-16.4038
 20
-8.0338
 30
0.0
 10
-16.3353
 20
-7.9502
 30
0.0
 10
-16.2873
 20
-7.8727
 30
0.0
 10
-16.2601
 20
-7.8019
 30
0.0
 10
-16.2601
 20
-7.8019
 30
0.0
 10
-16.2238
 20
-7.7094
 30
0.0
 10
-16.206
 20
-7.6091
 30
0.0
 10
-16.206
 20
-7.5015
 30
0.0
 10
-16.206
 20
-7.5015
 30
0.0
 10
-16.206
 20
-7.264
 30
0.0
 10
-16.2896
 20
-7.0684
 30
0.0
 10
-16.4574
 20
-6.9135
 30
0.0
 10
-16.4574
 20
-6.9135
 30
0.0
 10
-16.6251
 20
-6.7592
 30
0.0
 10
-16.8603
 20
-6.6817
 30
0.0
 10
-17.163
 20
-6.6817
 30
0.0
 10
-17.163
 20
-6.6817
 30
0.0
 10
-17.3892
 20
-6.6817
 30
0.0
 10
-17.5893
 20
-6.7279
 30
0.0
 10
-17.7621
 20
-6.8204
 30
0.0
  0
SPLINE
  5
55
330
1F
100
AcDbEntity
  8
DEFAULT_2
 62
   250
100
AcDbSpline
210
0.0
220
0.0
230
1.0
 70
    11
 71
     3
 72
    48
 73
    44
 74
     0
 42
0.0000000001
 43
0.0000000001
 40
0.0
 40
0.0
 40
0.0
 40
0.0
 40
0.0833333333333333
 40
0.0833333333333333
 40
0.0833333333333333
 40
0.0833333333333333
 40
0.1666666666666667
 40
0.1666666666666667
 40
0.1666666666666667
 40
0.1666666666666667
 40
0.25
 40
0.25
 40
0.25
 40
0.25
 40
0.3333333333333333
 40
0.3333333333333333
 40
0.3333333333333333
 40
0.3333333333333333
 40
0.4166666666666667
 40
0.4166666666666667
 40
0.4166666666666667
 40
0.4166666666666667
 40
0.5
 40
0.5
 40
0.5
 40
0.5
 40
0.5833333333333334
 40
0.5833333333333334
 40
0.5833333333333334
 40
0.5833333333333334
 40
0.6666666666666666
 40
0.6666666666666666
 40
0.6666666666666666
 40
0.6666666666666666
 40
0.75
 40
0.75
 40
0.75
 40
0.75
 40
0.8333333333333334
 40
0.8333333333333334
 40
0.8333333333333334
 40
0.8333333333333334
 40
1.0
 40
1.0
 40
1.0
 40
1.0
 10
-18.0558
 20
-6.0402
 30
0.0
 10
-18.0558
 20
-6.0402
 30
0.0
 10
-18.3384
 20
-6.0402
 30
0.0
 10
-18.3384
 20
-6.0402
 30
0.0
 10
-18.3384
 20
-6.0402
 30
0.0
 10
-18.3384
 20
-6.0402
 30
0.0
 10
-18.3384
 20
-4.4908
 30
0.0
 10
-18.3384
 20
-4.4908
 30
0.0
 10
-18.3384
 20
-4.4908
 30
0.0
 10
-18.3384
 20
-4.4908
 30
0.0
 10
-18.1098
 20
-4.4908
 30
0.0
 10
-18.1098
 20
-4.4908
 30
0.0
 10
-18.1098
 20
-4.4908
 30
0.0
 10
-17.9477
 20
-4.6429
 30
0.0
 10
-17.732
 20
-4.794
 30
0.0
 10
-17.4633
 20
-4.9439
 30
0.0
 10
-17.4633
 20
-4.9439
 30
0.0
 10
-17.1947
 20
-5.0933
 30
0.0
 10
-16.9177
 20
-5.2092
 30
0.0
 10
-16.634
 20
-5.2906
 30
0.0
 10
-16.634
 20
-5.2906
 30
0.0
 10
-16.4334
 20
-5.3496
 30
0.0
 10
-16.2143
 20
-5.3869
 30
0.0
 10
-15.9758
 20
-5.4032
 30
0.0
 10
-15.9758
 20
-5.4032
 30
0.0
 10
-15.9758
 20
-5.4032
 30
0.0
 10
-15.9758
 20
-5.7052
 30
0.0
 10
-15.9758
 20
-5.7052
 30
0.0
 10
-15.9758
 20
-5.7052
 30
0.0
 10
-16.1642
 20
-5.7019
 30
0.0
 10
-16.3916
 20
-5.6651
 30
0.0
 10
-16.6586
 20
-5.5943
 30
0.0
 10
-16.6586
 20
-5.5943
 30
0.0
 10
-16.9249
 20
-5.5235
 30
0.0
 10
-17.1824
 20
-5.4221
 30
0.0
 10
-17.4299
 20
-5.29
 30
0.0
 10
-17.4299
 20
-5.29
 30
0.0
 10
-17.6773
 20
-5.1574
 30
0.0
 10
-17.8864
 20
-5.0169
 30
0.0
 10
-18.0558
 20
-4.8676
 30
0.0
 10
-18.0558
 20
-4.8676
 30
0.0
 10
-18.0558
 20
-4.8676
 30
0.0
 10
-18.0558
 20
-6.0402
 30
0.0
 10
-18.0558
 20
-6.0402
 30
0.0
  0
SPLINE
  5
56
330
1F
100
AcDbEntity
  8
DEFAULT_2
 62
   250
100
AcDbSpline
210
0.0
220
0.0
230
1.0
 70
    11
 71
     3
 72
    52
 73
    48
 74
     0
 42
0.0000000001
 43
0.0000000001
 40
0.0
 40
0.0
 40
0.0
 40
0.0
 40
0.0769230769230769
 40
0.0769230769230769
 40
0.0769230769230769
 40
0.0769230769230769
 40
0.1538461538461539
 40
0.1538461538461539
 40
0.1538461538461539
 40
0.1538461538461539
 40
0.2307692307692308
 40
0.2307692307692308
 40
0.2307692307692308
 40
0.2307692307692308
 40
0.3076923076923077
 40
0.3076923076923077
 40
0.3076923076923077
 40
0.3076923076923077
 40
0.3846153846153846
 40
0.3846153846153846
 40
0.3846153846153846
 40
0.3846153846153846
 40
0.4615384615384616
 40
0.4615384615384616
 40
0.4615384615384616
 40
0.4615384615384616
 40
0.5384615384615384
 40
0.5384615384615384
 40
0.5384615384615384
 40
0.5384615384615384
 40
0.6153846153846154
 40
0.6153846153846154
 40
0.6153846153846154
 40
0.6153846153846154
 40
0.6923076923076923
 40
0.6923076923076923
 40
0.6923076923076923
 40
0.6923076923076923
 40
0.7692307692307693
 40
0.7692307692307693
 40
0.7692307692307693
 40
0.7692307692307693
 40
0.8461538461538461
 40
0.8461538461538461
 40
0.8461538461538461
 40
0.8461538461538461
 40
1.0
 40
1.0
 40
1.0
 40
1.0
 10
-17.1562
 20
-4.1999
 30
0.0
 10
-17.4394
 20
-4.1999
 30
0.0
 10
-17.6674
 20
-4.1709
 30
0.0
 10
-17.8396
 20
-4.1123
 30
0.0
 10
-17.8396
 20
-4.1123
 30
0.0
 10
-18.0123
 20
-4.0544
 30
0.0
 10
-18.1455
 20
-3.9674
 30
0.0
 10
-18.2392
 20
-3.8526
 30
0.0
 10
-18.2392
 20
-3.8526
 30
0.0
 10
-18.3328
 20
-3.7378
 30
0.0
 10
-18.3796
 20
-3.5935
 30
0.0
 10
-18.3796
 20
-3.4196
 30
0.0
 10
-18.3796
 20
-3.4196
 30
0.0
 10
-18.3796
 20
-3.2908
 30
0.0
 10
-18.3534
 20
-3.1783
 30
0.0
 10
-18.3015
 20
-3.0813
 30
0.0
 10
-18.3015
 20
-3.0813
 30
0.0
 10
-18.2504
 20
-2.9843
 30
0.0
 10
-18.1756
 20
-2.9046
 30
0.0
 10
-18.0781
 20
-2.841
 30
0.0
 10
-18.0781
 20
-2.841
 30
0.0
 10
-17.9806
 20
-2.7781
 30
0.0
 10
-17.8618
 20
-2.7285
 30
0.0
 10
-17.722
 20
-2.6928
 30
0.0
 10
-17.722
 20
-2.6928
 30
0.0
 10
-17.5821
 20
-2.6566
 30
0.0
 10
-17.3937
 20
-2.6388
 30
0.0
 10
-17.1562
 20
-2.6388
 30
0.0
 10
-17.1562
 20
-2.6388
 30
0.0
 10
-16.8754
 20
-2.6388
 30
0.0
 10
-16.6491
 20
-2.6677
 30
0.0
 10
-16.4763
 20
-2.7252
 30
0.0
 10
-16.4763
 20
-2.7252
 30
0.0
 10
-16.3036
 20
-2.7831
 30
0.0
 10
-16.1704
 20
-2.8695
 30
0.0
 10
-16.0762
 20
-2.9843
 30
0.0
 10
-16.0762
 20
-2.9843
 30
0.0
 10
-15.982
 20
-3.0991
 30
0.0
 10
-15.9352
 20
-3.244
 30
0.0
 10
-15.9352
 20
-3.4196
 30
0.0
 10
-15.9352
 20
-3.4196
 30
0.0
 10
-15.9352
 20
-3.6503
 30
0.0
 10
-16.0176
 20
-3.8315
 30
0.0
 10
-16.1832
 20
-3.963
 30
0.0
 10
-16.1832
 20
-3.963
 30
0.0
 10
-16.3821
 20
-4.1207
 30
0.0
 10
-16.707
 20
-4.1999
 30
0.0
 10
-17.1562
 20
-4.1999
 30
0.0
  0
SPLINE
  5
57
330
1F
100
AcDbEntity
  8
DEFAULT_2
 62
   250
100
AcDbSpline
210
0.0
220
0.0
230
1.0
 70
    11
 71
     3
 72
    36
 73
    32
 74
     0
 42
0.0000000001
 43
0.0000000001
 40
0.0
 40
0.0
 40
0.0
 40
0.0
 40
0.1111111111111111
 40
0.1111111111111111
 40
0.1111111111111111
 40
0.1111111111111111
 40
0.2222222222222222
 40
0.2222222222222222
 40
0.2222222222222222
 40
0.2222222222222222
 40
0.3333333333333333
 40
0.3333333333333333
 40
0.3333333333333333
 40
0.3333333333333333
 40
0.4444444444444444
 40
0.4444444444444444
 40
0.4444444444444444
 40
0.4444444444444444
 40
0.5555555555555556
 40
0.5555555555555556
 40
0.5555555555555556
 40
0.5555555555555556
 40
0.6666666666666666
 40
0.6666666666666666
 40
0.6666666666666666
 40
0.6666666666666666
 40
0.7777777777777778
 40
0.7777777777777778
 40
0.7777777777777778
 40
0.7777777777777778
 40
1.0
 40
1.0
 40
1.0
 40
1.0
 10
-17.1562
 20
-3.8977
 30
0.0
 10
-16.7633
 20
-3.8977
 30
0.0
 10
-16.5019
 20
-3.8515
 30
0.0
 10
-16.3716
 20
-3.7596
 30
0.0
 10
-16.3716
 20
-3.7596
 30
0.0
 10
-16.2417
 20
-3.6676
 30
0.0
 10
-16.1764
 20
-3.5545
 30
0.0
 10
-16.1764
 20
-3.4196
 30
0.0
 10
-16.1764
 20
-3.4196
 30
0.0
 10
-16.1764
 20
-3.2842
 30
0.0
 10
-16.2422
 20
-3.171
 30
0.0
 10
-16.3726
 20
-3.0791
 30
0.0
 10
-16.3726
 20
-3.0791
 30
0.0
 10
-16.5031
 20
-2.9871
 30
0.0
 10
-16.7645
 20
-2.9408
 30
0.0
 10
-17.1562
 20
-2.9408
 30
0.0
 10
-17.1562
 20
-2.9408
 30
0.0
 10
-17.5503
 20
-2.9408
 30
0.0
 10
-17.8123
 20
-2.9871
 30
0.0
 10
-17.9416
 20
-3.0791
 30
0.0
 10
-17.9416
 20
-3.0791
 30
0.0
 10
-18.0714
 20
-3.171
 30
0.0
 10
-18.136
 20
-3.2853
 30
0.0
 10
-18.136
 20
-3.4224
 30
0.0
 10
-18.136
 20
-3.4224
 30
0.0
 10
-18.136
 20
-3.5578
 30
0.0
 10
-18.0787
 20
-3.6654
 30
0.0
 10
-17.9644
 20
-3.7462
 30
0.0
 10
-17.9644
 20
-3.7462
 30
0.0
 10
-17.8189
 20
-3.847
 30
0.0
 10
-17.5491
 20
-3.8977
 30
0.0
 10
-17.1562
 20
-3.8977
 30
0.0
  0
SPLINE
  5
58
330
1F
100
AcDbEntity
  8
DEFAULT_2
 62
   250
100
AcDbSpline
210
0.0
220
0.0
230
1.0
 70
    24
 71
     3
 72
     8
 73
     4
 74
     0
 42
0.0000000001
 43
0.0000000001
 40
0.0
 40
0.0
 40
0.0
 40
0.0
 40
1.0
 40
1.0
 40
1.0
 40
1.0
 10
-14.2501
 20
-29.9294
 30
0.0
 10
-14.2501
 20
-29.9294
 30
0.0
 10
-23.7962
 20
-29.9294
 30
0.0
 10
-23.7962
 20
-29.9294
 30
0.0
  0
SPLINE
  5
59
330
1F
100
AcDbEntity
  8
DEFAULT_2
 62
   250
100
AcDbSpline
210
0.0
220
0.0
230
1.0
 70
    24
 71
     3
 72
     8
 73
     4
 74
     0
 42
0.0000000001
 43
0.0000000001
 40
0.0
 40
0.0
 40
0.0
 40
0.0
 40
1.0
 40
1.0
 40
1.0
 40
1.0
 10
-14.5923
 20
18.7481
 30
0.0
 10
-14.5923
 20
18.7481
 30
0.0
 10
-23.8848
 20
18.7481
 30
0.0
 10
-23.8848
 20
18.7481
 30
0.0
  0
SPLINE
  5
5A
330
1F
100
AcDbEntity
  8
DEFAULT_2
 62
   250
100
AcDbSpline
210
0.0
220
0.0
230
1.0
 70
    24
 71
     3
 72
     8
 73
     4
 74
     0
 42
0.0000000001
 43
0.0000000001
 40
0.0
 40
0.0
 40
0.0
 40
0.0
 40
1.0
 40
1.0
 40
1.0
 40
1.0
 10
-45.9107
 20
23.1987
 30
0.0
 10
-45.9107
 20
23.1987
 30
0.0
 10
-45.9107
 20
-34.7122
 30
0.0
 10
-45.9107
 20
-34.7122
 30
0.0
  0
SPLINE
  5
5B
330
1F
100
AcDbEntity
  8
DEFAULT_2
 62
   250
100
AcDbSpline
210
0.0
220
0.0
230
1.0
 70
    11
 71
     3
 72
    20
 73
    16
 74
     0
 42
0.0000000001
 43
0.0000000001
 40
0.0
 40
0.0
 40
0.0
 40
0.0
 40
0.2
 40
0.2
 40
0.2
 40
0.2
 40
0.4
 40
0.4
 40
0.4
 40
0.4
 40
0.6
 40
0.6
 40
0.6
 40
0.6
 40
1.0
 40
1.0
 40
1.0
 40
1.0
 10
-46.4664
 20
20.2814
 30
0.0
 10
-46.4664
 20
20.2814
 30
0.0
 10
-45.9647
 20
23.8358
 30
0.0
 10
-45.9647
 20
23.8358
 30
0.0
 10
-45.9647
 20
23.8358
 30
0.0
 10
-45.9647
 20
23.8358
 30
0.0
 10
-45.8534
 20
23.8358
 30
0.0
 10
-45.8534
 20
23.8358
 30
0.0
 10
-45.8534
 20
23.8358
 30
0.0
 10
-45.8534
 20
23.8358
 30
0.0
 10
-45.3184
 20
20.2814
 30
0.0
 10
-45.3184
 20
20.2814
 30
0.0
 10
-45.3184
 20
20.2814
 30
0.0
 10
-45.3184
 20
20.2814
 30
0.0
 10
-46.4664
 20
20.2814
 30
0.0
 10
-46.4664
 20
20.2814
 30
0.0
  0
SPLINE
  5
5C
330
1F
100
AcDbEntity
  8
DEFAULT_2
 62
   250
100
AcDbSpline
210
0.0
220
0.0
230
1.0
 70
    11
 71
     3
 72
    20
 73
    16
 74
     0
 42
0.0000000001
 43
0.0000000001
 40
0.0
 40
0.0
 40
0.0
 40
0.0
 40
0.2
 40
0.2
 40
0.2
 40
0.2
 40
0.4
 40
0.4
 40
0.4
 40
0.4
 40
0.6
 40
0.6
 40
0.6
 40
0.6
 40
1.0
 40
1.0
 40
1.0
 40
1.0
 10
-45.3454
 20
-31.3512
 30
0.0
 10
-45.3454
 20
-31.3512
 30
0.0
 10
-45.8471
 20
-34.9059
 30
0.0
 10
-45.8471
 20
-34.9059
 30
0.0
 10
-45.8471
 20
-34.9059
 30
0.0
 10
-45.8471
 20
-34.9059
 30
0.0
 10
-45.9586
 20
-34.9059
 30
0.0
 10
-45.9586
 20
-34.9059
 30
0.0
 10
-45.9586
 20
-34.9059
 30
0.0
 10
-45.9586
 20
-34.9059
 30
0.0
 10
-46.4936
 20
-31.3512
 30
0.0
 10
-46.4936
 20
-31.3512
 30
0.0
 10
-46.4936
 20
-31.3512
 30
0.0
 10
-46.4936
 20
-31.3512
 30
0.0
 10
-45.3454
 20
-31.3512
 30
0.0
 10
-45.3454
 20
-31.3512
 30
0.0
  0
SPLINE
  5
5D
330
1F
100
AcDbEntity
  8
DEFAULT_2
 62
   250
100
AcDbSpline
210
0.0
220
0.0
230
1.0
 70
    24
 71
     3
 72
     8
 73
     4
 74
     0
 42
0.0000000001
 43
0.0000000001
 40
0.0
 40
0.0
 40
0.0
 40
0.0
 40
1.0
 40
1.0
 40
1.0
 40
1.0
 10
-35.4031
 20
-34.9925
 30
0.0
 10
-35.4031
 20
-34.9925
 30
0.0
 10
-46.6829
 20
-34.9925
 30
0.0
 10
-46.6829
 20
-34.9925
 30
0.0
  0
SPLINE
  5
5E
330
1F
100
AcDbEntity
  8
DEFAULT_2
 62
   250
100
AcDbSpline
210
0.0
220
0.0
230
1.0
 70
    24
 71
     3
 72
     8
 73
     4
 74
     0
 42
0.0000000001
 43
0.0000000001
 40
0.0
 40
0.0
 40
0.0
 40
0.0
 40
1.0
 40
1.0
 40
1.0
 40
1.0
 10
-35.1125
 20
24.0053
 30
0.0
 10
-35.1125
 20
24.0053
 30
0.0
 10
-46.7362
 20
24.0053
 30
0.0
 10
-46.7362
 20
24.0053
 30
0.0
  0
SPLINE
  5
5F
330
1F
100
AcDbEntity
  8
DEFAULT_2
 62
   250
100
AcDbSpline
210
0.0
220
0.0
230
1.0
 70
    11
 71
     3
 72
    84
 73
    80
 74
     0
 42
0.0000000001
 43
0.0000000001
 40
0.0
 40
0.0
 40
0.0
 40
0.0
 40
0.0476190476190476
 40
0.0476190476190476
 40
0.0476190476190476
 40
0.0476190476190476
 40
0.0952380952380952
 40
0.0952380952380952
 40
0.0952380952380952
 40
0.0952380952380952
 40
0.1428571428571428
 40
0.1428571428571428
 40
0.1428571428571428
 40
0.1428571428571428
 40
0.1904761904761905
 40
0.1904761904761905
 40
0.1904761904761905
 40
0.1904761904761905
 40
0.2380952380952381
 40
0.2380952380952381
 40
0.2380952380952381
 40
0.2380952380952381
 40
0.2857142857142857
 40
0.2857142857142857
 40
0.2857142857142857
 40
0.2857142857142857
 40
0.3333333333333333
 40
0.3333333333333333
 40
0.3333333333333333
 40
0.3333333333333333
 40
0.3809523809523809
 40
0.3809523809523809
 40
0.3809523809523809
 40
0.3809523809523809
 40
0.4285714285714285
 40
0.4285714285714285
 40
0.4285714285714285
 40
0.4285714285714285
 40
0.4761904761904762
 40
0.4761904761904762
 40
0.4761904761904762
 40
0.4761904761904762
 40
0.5238095238095238
 40
0.5238095238095238
 40
0.5238095238095238
 40
0.5238095238095238
 40
0.5714285714285714
 40
0.5714285714285714
 40
0.5714285714285714
 40
0.5714285714285714
 40
0.6190476190476191
 40
0.6190476190476191
 40
0.6190476190476191
 40
0.6190476190476191
 40
0.6666666666666666
 40
0.6666666666666666
 40
0.6666666666666666
 40
0.6666666666666666
 40
0.7142857142857143
 40
0.7142857142857143
 40
0.7142857142857143
 40
0.7142857142857143
 40
0.7619047619047619
 40
0.7619047619047619
 40
0.7619047619047619
 40
0.7619047619047619
 40
0.8095238095238095
 40
0.8095238095238095
 40
0.8095238095238095
 40
0.8095238095238095
 40
0.8571428571428571
 40
0.8571428571428571
 40
0.8571428571428571
 40
0.8571428571428571
 40
0.9047619047619048
 40
0.9047619047619048
 40
0.9047619047619048
 40
0.9047619047619048
 40
1.0
 40
1.0
 40
1.0
 40
1.0
 10
-48.7495
 20
-8.0982
 30
0.0
 10
-48.7495
 20
-8.0982
 30
0.0
 10
-49.0565
 20
-7.824
 30
0.0
 10
-49.0565
 20
-7.824
 30
0.0
 10
-49.0565
 20
-7.824
 30
0.0
 10
-49.0565
 20
-7.824
 30
0.0
 10
-48.9194
 20
-7.6624
 30
0.0
 10
-48.9194
 20
-7.6624
 30
0.0
 10
-48.9194
 20
-7.6624
 30
0.0
 10
-48.9194
 20
-7.6624
 30
0.0
 10
-48.5962
 20
-7.9494
 30
0.0
 10
-48.5962
 20
-7.9494
 30
0.0
 10
-48.5962
 20
-7.9494
 30
0.0
 10
-48.4568
 20
-7.8558
 30
0.0
 10
-48.3348
 20
-7.7929
 30
0.0
 10
-48.2306
 20
-7.7599
 30
0.0
 10
-48.2306
 20
-7.7599
 30
0.0
 10
-48.0934
 20
-7.7164
 30
0.0
 10
-47.9396
 20
-7.6948
 30
0.0
 10
-47.7702
 20
-7.6948
 30
0.0
 10
-47.7702
 20
-7.6948
 30
0.0
 10
-47.525
 20
-7.6948
 30
0.0
 10
-47.3065
 20
-7.7443
 30
0.0
 10
-47.1154
 20
-7.8436
 30
0.0
 10
-47.1154
 20
-7.8436
 30
0.0
 10
-46.9236
 20
-7.9428
 30
0.0
 10
-46.7788
 20
-8.0815
 30
0.0
 10
-46.6807
 20
-8.2604
 30
0.0
 10
-46.6807
 20
-8.2604
 30
0.0
 10
-46.5831
 20
-8.4399
 30
0.0
 10
-46.5341
 20
-8.6299
 30
0.0
 10
-46.5341
 20
-8.8311
 30
0.0
 10
-46.5341
 20
-8.8311
 30
0.0
 10
-46.5341
 20
-8.9816
 30
0.0
 10
-46.5552
 20
-9.1176
 30
0.0
 10
-46.5976
 20
-9.2396
 30
0.0
 10
-46.5976
 20
-9.2396
 30
0.0
 10
-46.6304
 20
-9.3332
 30
0.0
 10
-46.6929
 20
-9.4425
 30
0.0
 10
-46.7854
 20
-9.568
 30
0.0
 10
-46.7854
 20
-9.568
 30
0.0
 10
-46.7854
 20
-9.568
 30
0.0
 10
-46.4783
 20
-9.8422
 30
0.0
 10
-46.4783
 20
-9.8422
 30
0.0
 10
-46.4783
 20
-9.8422
 30
0.0
 10
-46.4783
 20
-9.8422
 30
0.0
 10
-46.6154
 20
-10.0038
 30
0.0
 10
-46.6154
 20
-10.0038
 30
0.0
 10
-46.6154
 20
-10.0038
 30
0.0
 10
-46.6154
 20
-10.0038
 30
0.0
 10
-46.9369
 20
-9.7162
 30
0.0
 10
-46.9369
 20
-9.7162
 30
0.0
 10
-46.9369
 20
-9.7162
 30
0.0
 10
-47.0992
 20
-9.8232
 30
0.0
 10
-47.2379
 20
-9.8945
 30
0.0
 10
-47.3527
 20
-9.9302
 30
0.0
 10
-47.3527
 20
-9.9302
 30
0.0
 10
-47.4675
 20
-9.9659
 30
0.0
 10
-47.6058
 20
-9.9842
 30
0.0
 10
-47.7669
 20
-9.9842
 30
0.0
 10
-47.7669
 20
-9.9842
 30
0.0
 10
-48.0126
 20
-9.9842
 30
0.0
 10
-48.2317
 20
-9.9352
 30
0.0
 10
-48.424
 20
-9.8372
 30
0.0
 10
-48.424
 20
-9.8372
 30
0.0
 10
-48.6163
 20
-9.7391
 30
0.0
 10
-48.7617
 20
-9.602
 30
0.0
 10
-48.8609
 20
-9.4247
 30
0.0
 10
-48.8609
 20
-9.4247
 30
0.0
 10
-48.9596
 20
-9.248
 30
0.0
 10
-49.0092
 20
-9.0512
 30
0.0
 10
-49.0092
 20
-8.8345
 30
0.0
 10
-49.0092
 20
-8.8345
 30
0.0
 10
-49.0092
 20
-8.6884
 30
0.0
 10
-48.9903
 20
-8.5608
 30
0.0
 10
-48.9512
 20
-8.4516
 30
0.0
 10
-48.9512
 20
-8.4516
 30
0.0
 10
-48.9128
 20
-8.3423
 30
0.0
 10
-48.8454
 20
-8.2242
 30
0.0
 10
-48.7495
 20
-8.0982
 30
0.0
  0
SPLINE
  5
60
330
1F
100
AcDbEntity
  8
DEFAULT_2
 62
   250
100
AcDbSpline
210
0.0
220
0.0
230
1.0
 70
    11
 71
     3
 72
    32
 73
    28
 74
     0
 42
0.0000000001
 43
0.0000000001
 40
0.0
 40
0.0
 40
0.0
 40
0.0
 40
0.125
 40
0.125
 40
0.125
 40
0.125
 40
0.25
 40
0.25
 40
0.25
 40
0.25
 40
0.375
 40
0.375
 40
0.375
 40
0.375
 40
0.5
 40
0.5
 40
0.5
 40
0.5
 40
0.625
 40
0.625
 40
0.625
 40
0.625
 40
0.75
 40
0.75
 40
0.75
 40
0.75
 40
1.0
 40
1.0
 40
1.0
 40
1.0
 10
-48.5293
 20
-8.2938
 30
0.0
 10
-48.6096
 20
-8.3965
 30
0.0
 10
-48.6648
 20
-8.4861
 30
0.0
 10
-48.6943
 20
-8.5625
 30
0.0
 10
-48.6943
 20
-8.5625
 30
0.0
 10
-48.7233
 20
-8.6394
 30
0.0
 10
-48.7384
 20
-8.7296
 30
0.0
 10
-48.7384
 20
-8.8329
 30
0.0
 10
-48.7384
 20
-8.8329
 30
0.0
 10
-48.7384
 20
-9.0714
 30
0.0
 10
-48.6575
 20
-9.2681
 30
0.0
 10
-48.4959
 20
-9.4241
 30
0.0
 10
-48.4959
 20
-9.4241
 30
0.0
 10
-48.3342
 20
-9.5797
 30
0.0
 10
-48.0929
 20
-9.6577
 30
0.0
 10
-47.7714
 20
-9.6577
 30
0.0
 10
-47.7714
 20
-9.6577
 30
0.0
 10
-47.6454
 20
-9.6577
 30
0.0
 10
-47.5333
 20
-9.6455
 30
0.0
 10
-47.4352
 20
-9.6214
 30
0.0
 10
-47.4352
 20
-9.6214
 30
0.0
 10
-47.3622
 20
-9.6041
 30
0.0
 10
-47.2725
 20
-9.568
 30
0.0
 10
-47.1661
 20
-9.5122
 30
0.0
 10
-47.1661
 20
-9.5122
 30
0.0
 10
-47.1661
 20
-9.5122
 30
0.0
 10
-48.5293
 20
-8.2938
 30
0.0
 10
-48.5293
 20
-8.2938
 30
0.0
  0
SPLINE
  5
61
330
1F
100
AcDbEntity
  8
DEFAULT_2
 62
   250
100
AcDbSpline
210
0.0
220
0.0
230
1.0
 70
    11
 71
     3
 72
    28
 73
    24
 74
     0
 42
0.0000000001
 43
0.0000000001
 40
0.0
 40
0.0
 40
0.0
 40
0.0
 40
0.1428571428571428
 40
0.1428571428571428
 40
0.1428571428571428
 40
0.1428571428571428
 40
0.2857142857142857
 40
0.2857142857142857
 40
0.2857142857142857
 40
0.2857142857142857
 40
0.4285714285714285
 40
0.4285714285714285
 40
0.4285714285714285
 40
0.4285714285714285
 40
0.5714285714285714
 40
0.5714285714285714
 40
0.5714285714285714
 40
0.5714285714285714
 40
0.7142857142857143
 40
0.7142857142857143
 40
0.7142857142857143
 40
0.7142857142857143
 40
1.0
 40
1.0
 40
1.0
 40
1.0
 10
-48.361
 20
-8.1601
 30
0.0
 10
-48.361
 20
-8.1601
 30
0.0
 10
-47.0027
 20
-9.3734
 30
0.0
 10
-47.0027
 20
-9.3734
 30
0.0
 10
-47.0027
 20
-9.3734
 30
0.0
 10
-46.9342
 20
-9.2899
 30
0.0
 10
-46.8862
 20
-9.2124
 30
0.0
 10
-46.859
 20
-9.1415
 30
0.0
 10
-46.859
 20
-9.1415
 30
0.0
 10
-46.8227
 20
-9.0491
 30
0.0
 10
-46.8049
 20
-8.9487
 30
0.0
 10
-46.8049
 20
-8.8411
 30
0.0
 10
-46.8049
 20
-8.8411
 30
0.0
 10
-46.8049
 20
-8.6037
 30
0.0
 10
-46.8885
 20
-8.4081
 30
0.0
 10
-47.0563
 20
-8.2532
 30
0.0
 10
-47.0563
 20
-8.2532
 30
0.0
 10
-47.224
 20
-8.0988
 30
0.0
 10
-47.4593
 20
-8.0213
 30
0.0
 10
-47.7619
 20
-8.0213
 30
0.0
 10
-47.7619
 20
-8.0213
 30
0.0
 10
-47.9881
 20
-8.0213
 30
0.0
 10
-48.1882
 20
-8.0675
 30
0.0
 10
-48.361
 20
-8.1601
 30
0.0
  0
SPLINE
  5
62
330
1F
100
AcDbEntity
  8
DEFAULT_2
 62
   250
100
AcDbSpline
210
0.0
220
0.0
230
1.0
 70
    11
 71
     3
 72
    68
 73
    64
 74
     0
 42
0.0000000001
 43
0.0000000001
 40
0.0
 40
0.0
 40
0.0
 40
0.0
 40
0.0588235294117647
 40
0.0588235294117647
 40
0.0588235294117647
 40
0.0588235294117647
 40
0.1176470588235294
 40
0.1176470588235294
 40
0.1176470588235294
 40
0.1176470588235294
 40
0.1764705882352941
 40
0.1764705882352941
 40
0.1764705882352941
 40
0.1764705882352941
 40
0.2352941176470588
 40
0.2352941176470588
 40
0.2352941176470588
 40
0.2352941176470588
 40
0.2941176470588235
 40
0.2941176470588235
 40
0.2941176470588235
 40
0.2941176470588235
 40
0.3529411764705883
 40
0.3529411764705883
 40
0.3529411764705883
 40
0.3529411764705883
 40
0.4117647058823529
 40
0.4117647058823529
 40
0.4117647058823529
 40
0.4117647058823529
 40
0.4705882352941176
 40
0.4705882352941176
 40
0.4705882352941176
 40
0.4705882352941176
 40
0.5294117647058824
 40
0.5294117647058824
 40
0.5294117647058824
 40
0.5294117647058824
 40
0.5882352941176471
 40
0.5882352941176471
 40
0.5882352941176471
 40
0.5882352941176471
 40
0.6470588235294118
 40
0.6470588235294118
 40
0.6470588235294118
 40
0.6470588235294118
 40
0.7058823529411765
 40
0.7058823529411765
 40
0.7058823529411765
 40
0.7058823529411765
 40
0.7647058823529411
 40
0.7647058823529411
 40
0.7647058823529411
 40
0.7647058823529411
 40
0.8235294117647058
 40
0.8235294117647058
 40
0.8235294117647058
 40
0.8235294117647058
 40
0.8823529411764706
 40
0.8823529411764706
 40
0.8823529411764706
 40
0.8823529411764706
 40
1.0
 40
1.0
 40
1.0
 40
1.0
 10
-47.8728
 20
-6.9467
 30
0.0
 10
-47.9173
 20
-7.0689
 30
0.0
 10
-47.9808
 20
-7.1592
 30
0.0
 10
-48.0639
 20
-7.2182
 30
0.0
 10
-48.0639
 20
-7.2182
 30
0.0
 10
-48.1464
 20
-7.2767
 30
0.0
 10
-48.2457
 20
-7.3062
 30
0.0
 10
-48.361
 20
-7.3062
 30
0.0
 10
-48.361
 20
-7.3062
 30
0.0
 10
-48.5354
 20
-7.3062
 30
0.0
 10
-48.6815
 20
-7.2438
 30
0.0
 10
-48.8002
 20
-7.1184
 30
0.0
 10
-48.8002
 20
-7.1184
 30
0.0
 10
-48.9189
 20
-6.9931
 30
0.0
 10
-48.9785
 20
-6.8269
 30
0.0
 10
-48.9785
 20
-6.6191
 30
0.0
 10
-48.9785
 20
-6.6191
 30
0.0
 10
-48.9785
 20
-6.4101
 30
0.0
 10
-48.9177
 20
-6.2417
 30
0.0
 10
-48.7963
 20
-6.1141
 30
0.0
 10
-48.7963
 20
-6.1141
 30
0.0
 10
-48.6747
 20
-5.9871
 30
0.0
 10
-48.5271
 20
-5.9234
 30
0.0
 10
-48.3527
 20
-5.9234
 30
0.0
 10
-48.3527
 20
-5.9234
 30
0.0
 10
-48.2418
 20
-5.9234
 30
0.0
 10
-48.1453
 20
-5.9525
 30
0.0
 10
-48.0628
 20
-6.0104
 30
0.0
 10
-48.0628
 20
-6.0104
 30
0.0
 10
-47.9808
 20
-6.069
 30
0.0
 10
-47.9173
 20
-6.157
 30
0.0
 10
-47.8728
 20
-6.2757
 30
0.0
 10
-47.8728
 20
-6.2757
 30
0.0
 10
-47.8248
 20
-6.1291
 30
0.0
 10
-47.7479
 20
-6.0172
 30
0.0
 10
-47.6409
 20
-5.9403
 30
0.0
 10
-47.6409
 20
-5.9403
 30
0.0
 10
-47.5345
 20
-5.8638
 30
0.0
 10
-47.4069
 20
-5.8255
 30
0.0
 10
-47.2591
 20
-5.8255
 30
0.0
 10
-47.2591
 20
-5.8255
 30
0.0
 10
-47.054
 20
-5.8255
 30
0.0
 10
-46.8823
 20
-5.8979
 30
0.0
 10
-46.7431
 20
-6.0422
 30
0.0
 10
-46.7431
 20
-6.0422
 30
0.0
 10
-46.6038
 20
-6.1871
 30
0.0
 10
-46.5341
 20
-6.3777
 30
0.0
 10
-46.5341
 20
-6.614
 30
0.0
 10
-46.5341
 20
-6.614
 30
0.0
 10
-46.5341
 20
-6.8504
 30
0.0
 10
-46.6038
 20
-7.0405
 30
0.0
 10
-46.7436
 20
-7.1854
 30
0.0
 10
-46.7436
 20
-7.1854
 30
0.0
 10
-46.8835
 20
-7.3303
 30
0.0
 10
-47.0579
 20
-7.4027
 30
0.0
 10
-47.2669
 20
-7.4027
 30
0.0
 10
-47.2669
 20
-7.4027
 30
0.0
 10
-47.4224
 20
-7.4027
 30
0.0
 10
-47.5529
 20
-7.3631
 30
0.0
 10
-47.6582
 20
-7.2839
 30
0.0
 10
-47.6582
 20
-7.2839
 30
0.0
 10
-47.7629
 20
-7.2054
 30
0.0
 10
-47.8349
 20
-7.0928
 30
0.0
 10
-47.8728
 20
-6.9467
 30
0.0
  0
SPLINE
  5
63
330
1F
100
AcDbEntity
  8
DEFAULT_2
 62
   250
100
AcDbSpline
210
0.0
220
0.0
230
1.0
 70
    11
 71
     3
 72
    36
 73
    32
 74
     0
 42
0.0000000001
 43
0.0000000001
 40
0.0
 40
0.0
 40
0.0
 40
0.0
 40
0.1111111111111111
 40
0.1111111111111111
 40
0.1111111111111111
 40
0.1111111111111111
 40
0.2222222222222222
 40
0.2222222222222222
 40
0.2222222222222222
 40
0.2222222222222222
 40
0.3333333333333333
 40
0.3333333333333333
 40
0.3333333333333333
 40
0.3333333333333333
 40
0.4444444444444444
 40
0.4444444444444444
 40
0.4444444444444444
 40
0.4444444444444444
 40
0.5555555555555556
 40
0.5555555555555556
 40
0.5555555555555556
 40
0.5555555555555556
 40
0.6666666666666666
 40
0.6666666666666666
 40
0.6666666666666666
 40
0.6666666666666666
 40
0.7777777777777778
 40
0.7777777777777778
 40
0.7777777777777778
 40
0.7777777777777778
 40
1.0
 40
1.0
 40
1.0
 40
1.0
 10
-48.371
 20
-7.0059
 30
0.0
 10
-48.2579
 20
-7.0059
 30
0.0
 10
-48.1653
 20
-6.9691
 30
0.0
 10
-48.0934
 20
-6.8966
 30
0.0
 10
-48.0934
 20
-6.8966
 30
0.0
 10
-48.0216
 20
-6.8236
 30
0.0
 10
-47.9853
 20
-6.7288
 30
0.0
 10
-47.9853
 20
-6.6123
 30
0.0
 10
-47.9853
 20
-6.6123
 30
0.0
 10
-47.9853
 20
-6.4992
 30
0.0
 10
-48.021
 20
-6.4062
 30
0.0
 10
-48.0923
 20
-6.3337
 30
0.0
 10
-48.0923
 20
-6.3337
 30
0.0
 10
-48.1637
 20
-6.2613
 30
0.0
 10
-48.2512
 20
-6.2256
 30
0.0
 10
-48.3543
 20
-6.2256
 30
0.0
 10
-48.3543
 20
-6.2256
 30
0.0
 10
-48.4624
 20
-6.2256
 30
0.0
 10
-48.5527
 20
-6.2623
 30
0.0
 10
-48.6263
 20
-6.3371
 30
0.0
 10
-48.6263
 20
-6.3371
 30
0.0
 10
-48.6998
 20
-6.4117
 30
0.0
 10
-48.7367
 20
-6.5043
 30
0.0
 10
-48.7367
 20
-6.6157
 30
0.0
 10
-48.7367
 20
-6.6157
 30
0.0
 10
-48.7367
 20
-6.7278
 30
0.0
 10
-48.7004
 20
-6.8208
 30
0.0
 10
-48.6291
 20
-6.8949
 30
0.0
 10
-48.6291
 20
-6.8949
 30
0.0
 10
-48.5572
 20
-6.9691
 30
0.0
 10
-48.4708
 20
-7.0059
 30
0.0
 10
-48.371
 20
-7.0059
 30
0.0
  0
SPLINE
  5
64
330
1F
100
AcDbEntity
  8
DEFAULT_2
 62
   250
100
AcDbSpline
210
0.0
220
0.0
230
1.0
 70
    11
 71
     3
 72
    40
 73
    36
 74
     0
 42
0.0000000001
 43
0.0000000001
 40
0.0
 40
0.0
 40
0.0
 40
0.0
 40
0.1
 40
0.1
 40
0.1
 40
0.1
 40
0.2
 40
0.2
 40
0.2
 40
0.2
 40
0.3
 40
0.3
 40
0.3
 40
0.3
 40
0.4
 40
0.4
 40
0.4
 40
0.4
 40
0.5
 40
0.5
 40
0.5
 40
0.5
 40
0.6
 40
0.6
 40
0.6
 40
0.6
 40
0.7
 40
0.7
 40
0.7
 40
0.7
 40
0.8
 40
0.8
 40
0.8
 40
0.8
 40
1.0
 40
1.0
 40
1.0
 40
1.0
 10
-47.2653
 20
-7.1006
 30
0.0
 10
-47.1816
 20
-7.1006
 30
0.0
 10
-47.1003
 20
-7.0805
 30
0.0
 10
-47.0223
 20
-7.0409
 30
0.0
 10
-47.0223
 20
-7.0409
 30
0.0
 10
-46.9437
 20
-7.0013
 30
0.0
 10
-46.8829
 20
-6.9423
 30
0.0
 10
-46.84
 20
-6.8638
 30
0.0
 10
-46.84
 20
-6.8638
 30
0.0
 10
-46.7971
 20
-6.7851
 30
0.0
 10
-46.7753
 20
-6.701
 30
0.0
 10
-46.7753
 20
-6.6107
 30
0.0
 10
-46.7753
 20
-6.6107
 30
0.0
 10
-46.7753
 20
-6.4703
 30
0.0
 10
-46.8205
 20
-6.3543
 30
0.0
 10
-46.9114
 20
-6.2629
 30
0.0
 10
-46.9114
 20
-6.2629
 30
0.0
 10
-47.0016
 20
-6.1716
 30
0.0
 10
-47.1165
 20
-6.1258
 30
0.0
 10
-47.2558
 20
-6.1258
 30
0.0
 10
-47.2558
 20
-6.1258
 30
0.0
 10
-47.3974
 20
-6.1258
 30
0.0
 10
-47.5144
 20
-6.1726
 30
0.0
 10
-47.6069
 20
-6.2668
 30
0.0
 10
-47.6069
 20
-6.2668
 30
0.0
 10
-47.6994
 20
-6.361
 30
0.0
 10
-47.7456
 20
-6.4792
 30
0.0
 10
-47.7456
 20
-6.6208
 30
0.0
 10
-47.7456
 20
-6.6208
 30
0.0
 10
-47.7456
 20
-6.7589
 30
0.0
 10
-47.7
 20
-6.8733
 30
0.0
 10
-47.6085
 20
-6.964
 30
0.0
 10
-47.6085
 20
-6.964
 30
0.0
 10
-47.5166
 20
-7.0549
 30
0.0
 10
-47.4024
 20
-7.1006
 30
0.0
 10
-47.2653
 20
-7.1006
 30
0.0
  0
SPLINE
  5
65
330
1F
100
AcDbEntity
  8
DEFAULT_2
 62
   250
100
AcDbSpline
210
0.0
220
0.0
230
1.0
 70
    11
 71
     3
 72
    92
 73
    88
 74
     0
 42
0.0000000001
 43
0.0000000001
 40
0.0
 40
0.0
 40
0.0
 40
0.0
 40
0.0434782608695652
 40
0.0434782608695652
 40
0.0434782608695652
 40
0.0434782608695652
 40
0.0869565217391304
 40
0.0869565217391304
 40
0.0869565217391304
 40
0.0869565217391304
 40
0.1304347826086956
 40
0.1304347826086956
 40
0.1304347826086956
 40
0.1304347826086956
 40
0.1739130434782609
 40
0.1739130434782609
 40
0.1739130434782609
 40
0.1739130434782609
 40
0.2173913043478261
 40
0.2173913043478261
 40
0.2173913043478261
 40
0.2173913043478261
 40
0.2608695652173913
 40
0.2608695652173913
 40
0.2608695652173913
 40
0.2608695652173913
 40
0.3043478260869565
 40
0.3043478260869565
 40
0.3043478260869565
 40
0.3043478260869565
 40
0.3478260869565217
 40
0.3478260869565217
 40
0.3478260869565217
 40
0.3478260869565217
 40
0.391304347826087
 40
0.391304347826087
 40
0.391304347826087
 40
0.391304347826087
 40
0.4347826086956522
 40
0.4347826086956522
 40
0.4347826086956522
 40
0.4347826086956522
 40
0.4782608695652174
 40
0.4782608695652174
 40
0.4782608695652174
 40
0.4782608695652174
 40
0.5217391304347826
 40
0.5217391304347826
 40
0.5217391304347826
 40
0.5217391304347826
 40
0.5652173913043478
 40
0.5652173913043478
 40
0.5652173913043478
 40
0.5652173913043478
 40
0.6086956521739131
 40
0.6086956521739131
 40
0.6086956521739131
 40
0.6086956521739131
 40
0.6521739130434783
 40
0.6521739130434783
 40
0.6521739130434783
 40
0.6521739130434783
 40
0.6956521739130435
 40
0.6956521739130435
 40
0.6956521739130435
 40
0.6956521739130435
 40
0.7391304347826086
 40
0.7391304347826086
 40
0.7391304347826086
 40
0.7391304347826086
 40
0.782608695652174
 40
0.782608695652174
 40
0.782608695652174
 40
0.782608695652174
 40
0.8260869565217391
 40
0.8260869565217391
 40
0.8260869565217391
 40
0.8260869565217391
 40
0.8695652173913043
 40
0.8695652173913043
 40
0.8695652173913043
 40
0.8695652173913043
 40
0.9130434782608695
 40
0.9130434782608695
 40
0.9130434782608695
 40
0.9130434782608695
 40
1.0
 40
1.0
 40
1.0
 40
1.0
 10
-46.8573
 20
-3.9945
 30
0.0
 10
-46.8573
 20
-3.9945
 30
0.0
 10
-46.5747
 20
-3.9945
 30
0.0
 10
-46.5747
 20
-3.9945
 30
0.0
 10
-46.5747
 20
-3.9945
 30
0.0
 10
-46.5747
 20
-3.9945
 30
0.0
 10
-46.5747
 20
-5.5769
 30
0.0
 10
-46.5747
 20
-5.5769
 30
0.0
 10
-46.5747
 20
-5.5769
 30
0.0
 10
-46.6455
 20
-5.5791
 30
0.0
 10
-46.7135
 20
-5.568
 30
0.0
 10
-46.7788
 20
-5.5429
 30
0.0
 10
-46.7788
 20
-5.5429
 30
0.0
 10
-46.8868
 20
-5.5027
 30
0.0
 10
-46.9928
 20
-5.4381
 30
0.0
 10
-47.0975
 20
-5.3495
 30
0.0
 10
-47.0975
 20
-5.3495
 30
0.0
 10
-47.2018
 20
-5.2603
 30
0.0
 10
-47.3226
 20
-5.132
 30
0.0
 10
-47.4597
 20
-4.9649
 30
0.0
 10
-47.4597
 20
-4.9649
 30
0.0
 10
-47.6732
 20
-4.7047
 30
0.0
 10
-47.8421
 20
-4.5285
 30
0.0
 10
-47.967
 20
-4.4371
 30
0.0
 10
-47.967
 20
-4.4371
 30
0.0
 10
-48.0913
 20
-4.3457
 30
0.0
 10
-48.2094
 20
-4.3
 30
0.0
 10
-48.3203
 20
-4.3
 30
0.0
 10
-48.3203
 20
-4.3
 30
0.0
 10
-48.4368
 20
-4.3
 30
0.0
 10
-48.5349
 20
-4.3418
 30
0.0
 10
-48.6151
 20
-4.4248
 30
0.0
 10
-48.6151
 20
-4.4248
 30
0.0
 10
-48.6949
 20
-4.5084
 30
0.0
 10
-48.7349
 20
-4.6171
 30
0.0
 10
-48.7349
 20
-4.7509
 30
0.0
 10
-48.7349
 20
-4.7509
 30
0.0
 10
-48.7349
 20
-4.8925
 30
0.0
 10
-48.6926
 20
-5.0056
 30
0.0
 10
-48.6073
 20
-5.0903
 30
0.0
 10
-48.6073
 20
-5.0903
 30
0.0
 10
-48.5226
 20
-5.1755
 30
0.0
 10
-48.405
 20
-5.2184
 30
0.0
 10
-48.2552
 20
-5.2196
 30
0.0
 10
-48.2552
 20
-5.2196
 30
0.0
 10
-48.2552
 20
-5.2196
 30
0.0
 10
-48.2857
 20
-5.5216
 30
0.0
 10
-48.2857
 20
-5.5216
 30
0.0
 10
-48.2857
 20
-5.5216
 30
0.0
 10
-48.5114
 20
-5.501
 30
0.0
 10
-48.6831
 20
-5.4231
 30
0.0
 10
-48.8013
 20
-5.2881
 30
0.0
 10
-48.8013
 20
-5.2881
 30
0.0
 10
-48.9194
 20
-5.1533
 30
0.0
 10
-48.9785
 20
-4.9716
 30
0.0
 10
-48.9785
 20
-4.7442
 30
0.0
 10
-48.9785
 20
-4.7442
 30
0.0
 10
-48.9785
 20
-4.5146
 30
0.0
 10
-48.9144
 20
-4.3328
 30
0.0
 10
-48.7874
 20
-4.1991
 30
0.0
 10
-48.7874
 20
-4.1991
 30
0.0
 10
-48.6597
 20
-4.0648
 30
0.0
 10
-48.502
 20
-3.9979
 30
0.0
 10
-48.3136
 20
-3.9979
 30
0.0
 10
-48.3136
 20
-3.9979
 30
0.0
 10
-48.2177
 20
-3.9979
 30
0.0
 10
-48.1235
 20
-4.0174
 30
0.0
 10
-48.0311
 20
-4.057
 30
0.0
 10
-48.0311
 20
-4.057
 30
0.0
 10
-47.9385
 20
-4.096
 30
0.0
 10
-47.841
 20
-4.1613
 30
0.0
 10
-47.739
 20
-4.252
 30
0.0
 10
-47.739
 20
-4.252
 30
0.0
 10
-47.6364
 20
-4.3429
 30
0.0
 10
-47.496
 20
-4.494
 30
0.0
 10
-47.3177
 20
-4.7051
 30
0.0
 10
-47.3177
 20
-4.7051
 30
0.0
 10
-47.1694
 20
-4.8813
 30
0.0
 10
-47.0691
 20
-4.9945
 30
0.0
 10
-47.0161
 20
-5.0446
 30
0.0
 10
-47.0161
 20
-5.0446
 30
0.0
 10
-46.9637
 20
-5.0947
 30
0.0
 10
-46.9108
 20
-5.136
 30
0.0
 10
-46.8573
 20
-5.1689
 30
0.0
 10
-46.8573
 20
-5.1689
 30
0.0
 10
-46.8573
 20
-5.1689
 30
0.0
 10
-46.8573
 20
-3.9945
 30
0.0
 10
-46.8573
 20
-3.9945
 30
0.0
  0
SPLINE
  5
66
330
1F
100
AcDbEntity
  8
DEFAULT_2
 62
   250
100
AcDbSpline
210
0.0
220
0.0
230
1.0
 70
    24
 71
     3
 72
     8
 73
     4
 74
     0
 42
0.0000000001
 43
0.0000000001
 40
0.0
 40
0.0
 40
0.0
 40
0.0
 40
1.0
 40
1.0
 40
1.0
 40
1.0
 10
-28.2775
 20
28.8967
 30
0.0
 10
-28.2775
 20
28.8967
 30
0.0
 10
-42.7358
 20
28.8967
 30
0.0
 10
-42.7358
 20
28.8967
 30
0.0
  0
SPLINE
  5
67
330
1F
100
AcDbEntity
  8
DEFAULT_2
 62
   250
100
AcDbSpline
210
0.0
220
0.0
230
1.0
 70
    11
 71
     3
 72
    20
 73
    16
 74
     0
 42
0.0000000001
 43
0.0000000001
 40
0.0
 40
0.0
 40
0.0
 40
0.0
 40
0.2
 40
0.2
 40
0.2
 40
0.2
 40
0.4
 40
0.4
 40
0.4
 40
0.4
 40
0.6
 40
0.6
 40
0.6
 40
0.6
 40
1.0
 40
1.0
 40
1.0
 40
1.0
 10
-41.9394
 20
29.4735
 30
0.0
 10
-41.9394
 20
29.4735
 30
0.0
 10
-38.3849
 20
28.9718
 30
0.0
 10
-38.3849
 20
28.9718
 30
0.0
 10
-38.3849
 20
28.9718
 30
0.0
 10
-38.3849
 20
28.9718
 30
0.0
 10
-38.3849
 20
28.8604
 30
0.0
 10
-38.3849
 20
28.8604
 30
0.0
 10
-38.3849
 20
28.8604
 30
0.0
 10
-38.3849
 20
28.8604
 30
0.0
 10
-41.9394
 20
28.3254
 30
0.0
 10
-41.9394
 20
28.3254
 30
0.0
 10
-41.9394
 20
28.3254
 30
0.0
 10
-41.9394
 20
28.3254
 30
0.0
 10
-41.9394
 20
29.4735
 30
0.0
 10
-41.9394
 20
29.4735
 30
0.0
  0
SPLINE
  5
68
330
1F
100
AcDbEntity
  8
DEFAULT_2
 62
   250
100
AcDbSpline
210
0.0
220
0.0
230
1.0
 70
    11
 71
     3
 72
    20
 73
    16
 74
     0
 42
0.0000000001
 43
0.0000000001
 40
0.0
 40
0.0
 40
0.0
 40
0.0
 40
0.2
 40
0.2
 40
0.2
 40
0.2
 40
0.4
 40
0.4
 40
0.4
 40
0.4
 40
0.6
 40
0.6
 40
0.6
 40
0.6
 40
1.0
 40
1.0
 40
1.0
 40
1.0
 10
-29.7284
 20
28.3501
 30
0.0
 10
-29.7284
 20
28.3501
 30
0.0
 10
-33.2831
 20
28.8518
 30
0.0
 10
-33.2831
 20
28.8518
 30
0.0
 10
-33.2831
 20
28.8518
 30
0.0
 10
-33.2831
 20
28.8518
 30
0.0
 10
-33.2831
 20
28.9633
 30
0.0
 10
-33.2831
 20
28.9633
 30
0.0
 10
-33.2831
 20
28.9633
 30
0.0
 10
-33.2831
 20
28.9633
 30
0.0
 10
-29.7284
 20
29.4982
 30
0.0
 10
-29.7284
 20
29.4982
 30
0.0
 10
-29.7284
 20
29.4982
 30
0.0
 10
-29.7284
 20
29.4982
 30
0.0
 10
-29.7284
 20
28.3501
 30
0.0
 10
-29.7284
 20
28.3501
 30
0.0
  0
SPLINE
  5
69
330
1F
100
AcDbEntity
  8
DEFAULT_2
 62
   250
100
AcDbSpline
210
0.0
220
0.0
230
1.0
 70
    11
 71
     3
 72
    48
 73
    44
 74
     0
 42
0.0000000001
 43
0.0000000001
 40
0.0
 40
0.0
 40
0.0
 40
0.0
 40
0.0833333333333333
 40
0.0833333333333333
 40
0.0833333333333333
 40
0.0833333333333333
 40
0.1666666666666667
 40
0.1666666666666667
 40
0.1666666666666667
 40
0.1666666666666667
 40
0.25
 40
0.25
 40
0.25
 40
0.25
 40
0.3333333333333333
 40
0.3333333333333333
 40
0.3333333333333333
 40
0.3333333333333333
 40
0.4166666666666667
 40
0.4166666666666667
 40
0.4166666666666667
 40
0.4166666666666667
 40
0.5
 40
0.5
 40
0.5
 40
0.5
 40
0.5833333333333334
 40
0.5833333333333334
 40
0.5833333333333334
 40
0.5833333333333334
 40
0.6666666666666666
 40
0.6666666666666666
 40
0.6666666666666666
 40
0.6666666666666666
 40
0.75
 40
0.75
 40
0.75
 40
0.75
 40
0.8333333333333334
 40
0.8333333333333334
 40
0.8333333333333334
 40
0.8333333333333334
 40
1.0
 40
1.0
 40
1.0
 40
1.0
 10
-36.4232
 20
31.3489
 30
0.0
 10
-36.4232
 20
31.3489
 30
0.0
 10
-36.4232
 20
31.6315
 30
0.0
 10
-36.4232
 20
31.6315
 30
0.0
 10
-36.4232
 20
31.6315
 30
0.0
 10
-36.4232
 20
31.6315
 30
0.0
 10
-34.8738
 20
31.6315
 30
0.0
 10
-34.8738
 20
31.6315
 30
0.0
 10
-34.8738
 20
31.6315
 30
0.0
 10
-34.8738
 20
31.6315
 30
0.0
 10
-34.8738
 20
31.403
 30
0.0
 10
-34.8738
 20
31.403
 30
0.0
 10
-34.8738
 20
31.403
 30
0.0
 10
-35.026
 20
31.2409
 30
0.0
 10
-35.177
 20
31.0251
 30
0.0
 10
-35.3269
 20
30.7565
 30
0.0
 10
-35.3269
 20
30.7565
 30
0.0
 10
-35.4763
 20
30.4879
 30
0.0
 10
-35.5922
 20
30.2108
 30
0.0
 10
-35.6736
 20
29.9272
 30
0.0
 10
-35.6736
 20
29.9272
 30
0.0
 10
-35.7326
 20
29.7266
 30
0.0
 10
-35.77
 20
29.5075
 30
0.0
 10
-35.7862
 20
29.269
 30
0.0
 10
-35.7862
 20
29.269
 30
0.0
 10
-35.7862
 20
29.269
 30
0.0
 10
-36.0882
 20
29.269
 30
0.0
 10
-36.0882
 20
29.269
 30
0.0
 10
-36.0882
 20
29.269
 30
0.0
 10
-36.0849
 20
29.4574
 30
0.0
 10
-36.0482
 20
29.6848
 30
0.0
 10
-35.9773
 20
29.9517
 30
0.0
 10
-35.9773
 20
29.9517
 30
0.0
 10
-35.9066
 20
30.2181
 30
0.0
 10
-35.8052
 20
30.4756
 30
0.0
 10
-35.673
 20
30.7231
 30
0.0
 10
-35.673
 20
30.7231
 30
0.0
 10
-35.5404
 20
30.9705
 30
0.0
 10
-35.3999
 20
31.1795
 30
0.0
 10
-35.2506
 20
31.3489
 30
0.0
 10
-35.2506
 20
31.3489
 30
0.0
 10
-35.2506
 20
31.3489
 30
0.0
 10
-36.4232
 20
31.3489
 30
0.0
 10
-36.4232
 20
31.3489
 30
0.0
  0
SPLINE
  5
6A
330
1F
100
AcDbEntity
  8
DEFAULT_2
 62
   250
100
AcDbSpline
210
0.0
220
0.0
230
1.0
 70
    24
 71
     3
 72
     8
 73
     4
 74
     0
 42
0.0000000001
 43
0.0000000001
 40
0.0
 40
0.0
 40
0.0
 40
0.0
 40
1.0
 40
1.0
 40
1.0
 40
1.0
 10
-33.4041
 20
24.2226
 30
0.0
 10
-33.4041
 20
24.2226
 30
0.0
 10
-33.4041
 20
29.4858
 30
0.0
 10
-33.4041
 20
29.4858
 30
0.0
  0
SPLINE
  5
6B
330
1F
100
AcDbEntity
  8
DEFAULT_2
 62
   250
100
AcDbSpline
210
0.0
220
0.0
230
1.0
 70
    24
 71
     3
 72
     8
 73
     4
 74
     0
 42
0.0000000001
 43
0.0000000001
 40
0.0
 40
0.0
 40
0.0
 40
0.0
 40
1.0
 40
1.0
 40
1.0
 40
1.0
 10
-33.4087
 20
-29.8363
 30
0.0
 10
-33.4087
 20
-29.8363
 30
0.0
 10
-24.255
 20
-29.6765
 30
0.0
 10
-24.255
 20
-29.6765
 30
0.0
  0
SPLINE
  5
6C
330
1F
100
AcDbEntity
  8
DEFAULT_2
 62
   250
100
AcDbSpline
210
0.0
220
0.0
230
1.0
 70
    24
 71
     3
 72
     8
 73
     4
 74
     0
 42
0.0000000001
 43
0.0000000001
 40
0.0
 40
0.0
 40
0.0
 40
0.0
 40
1.0
 40
1.0
 40
1.0
 40
1.0
 10
-24.2455
 20
-29.71
 30
0.0
 10
-24.2455
 20
-29.71
 30
0.0
 10
-24.2455
 20
18.7478
 30
0.0
 10
-24.2455
 20
18.7478
 30
0.0
  0
SPLINE
  5
6D
330
1F
100
AcDbEntity
  8
DEFAULT_2
 62
   250
100
AcDbSpline
210
0.0
220
0.0
230
1.0
 70
    24
 71
     3
 72
     8
 73
     4
 74
     0
 42
0.0000000001
 43
0.0000000001
 40
0.0
 40
0.0
 40
0.0
 40
0.0
 40
1.0
 40
1.0
 40
1.0
 40
1.0
 10
-33.4087
 20
-34.7989
 30
0.0
 10
-33.4087
 20
-34.7989
 30
0.0
 10
-33.4087
 20
23.7298
 30
0.0
 10
-33.4087
 20
23.7298
 30
0.0
  0
SPLINE
  5
6E
330
1F
100
AcDbEntity
  8
DEFAULT_2
 62
   250
100
AcDbSpline
210
0.0
220
0.0
230
1.0
 70
    24
 71
     3
 72
     8
 73
     4
 74
     0
 42
0.0000000001
 43
0.0000000001
 40
0.0
 40
0.0
 40
0.0
 40
0.0
 40
1.0
 40
1.0
 40
1.0
 40
1.0
 10
-38.2861
 20
-29.9215
 30
0.0
 10
-38.2861
 20
-29.9215
 30
0.0
 10
-38.2861
 20
18.8524
 30
0.0
 10
-38.2861
 20
18.8524
 30
0.0
  0
SPLINE
  5
6F
330
1F
100
AcDbEntity
  8
DEFAULT_2
 62
   250
100
AcDbSpline
210
0.0
220
0.0
230
1.0
 70
    24
 71
     3
 72
     8
 73
     4
 74
     0
 42
0.0000000001
 43
0.0000000001
 40
0.0
 40
0.0
 40
0.0
 40
0.0
 40
1.0
 40
1.0
 40
1.0
 40
1.0
 10
-33.4087
 20
18.7674
 30
0.0
 10
-33.4087
 20
18.7674
 30
0.0
 10
-24.255
 20
18.6078
 30
0.0
 10
-24.255
 20
18.6078
 30
0.0
  0
SPLINE
  5
70
330
1F
100
AcDbEntity
  8
DEFAULT_2
 62
   250
100
AcDbSpline
210
0.0
220
0.0
230
1.0
 70
     8
 71
     3
 72
     8
 73
     4
 74
     0
 42
0.0000000001
 43
0.0000000001
 40
0.0
 40
0.0
 40
0.0
 40
0.0
 40
1.0
 40
1.0
 40
1.0
 40
1.0
 10
-33.4087
 20
23.7298
 30
0.0
 10
-36.1022
 20
23.7298
 30
0.0
 10
-38.2861
 20
21.5461
 30
0.0
 10
-38.2861
 20
18.8524
 30
0.0
  0
SPLINE
  5
71
330
1F
100
AcDbEntity
  8
DEFAULT_2
 62
   250
100
AcDbSpline
210
0.0
220
0.0
230
1.0
 70
     8
 71
     3
 72
     8
 73
     4
 74
     0
 42
0.0000000001
 43
0.0000000001
 40
0.0
 40
0.0
 40
0.0
 40
0.0
 40
1.0
 40
1.0
 40
1.0
 40
1.0
 10
-38.2861
 20
-29.9215
 30
0.0
 10
-38.2861
 20
-32.6153
 30
0.0
 10
-36.1022
 20
-34.7989
 30
0.0
 10
-33.4087
 20
-34.7989
 30
0.0
  0
SPLINE
  5
72
330
1F
100
AcDbEntity
  8
DEFAULT_2
 62
   250
100
AcDbSpline
210
0.0
220
0.0
230
1.0
 70
    24
 71
     3
 72
     8
 73
     4
 74
     0
 42
0.0000000001
 43
0.0000000001
 40
0.0
 40
0.0
 40
0.0
 40
0.0
 40
1.0
 40
1.0
 40
1.0
 40
1.0
 10
12.2216
 20
-25.6871
 30
0.0
 10
12.2216
 20
-25.6871
 30
0.0
 10
14.3121
 20
-25.6871
 30
0.0
 10
14.3121
 20
-25.6871
 30
0.0
  0
SPLINE
  5
73
330
1F
100
AcDbEntity
  8
DEFAULT_2
 62
   250
100
AcDbSpline
210
0.0
220
0.0
230
1.0
 70
    24
 71
     3
 72
     8
 73
     4
 74
     0
 42
0.0000000001
 43
0.0000000001
 40
0.0
 40
0.0
 40
0.0
 40
0.0
 40
1.0
 40
1.0
 40
1.0
 40
1.0
 10
15.0088
 20
-25.6871
 30
0.0
 10
15.0088
 20
-25.6871
 30
0.0
 10
16.9249
 20
-25.6871
 30
0.0
 10
16.9249
 20
-25.6871
 30
0.0
  0
SPLINE
  5
74
330
1F
100
AcDbEntity
  8
DEFAULT_2
 62
   250
100
AcDbSpline
210
0.0
220
0.0
230
1.0
 70
    24
 71
     3
 72
     8
 73
     4
 74
     0
 42
0.0000000001
 43
0.0000000001
 40
0.0
 40
0.0
 40
0.0
 40
0.0
 40
1.0
 40
1.0
 40
1.0
 40
1.0
 10
17.6608
 20
-25.513
 30
0.0
 10
17.6608
 20
-25.513
 30
0.0
 10
7.0308
 20
-25.513
 30
0.0
 10
7.0308
 20
-25.513
 30
0.0
  0
SPLINE
  5
75
330
1F
100
AcDbEntity
  8
DEFAULT_2
 62
   250
100
AcDbSpline
210
0.0
220
0.0
230
1.0
 70
    24
 71
     3
 72
     8
 73
     4
 74
     0
 42
0.0000000001
 43
0.0000000001
 40
0.0
 40
0.0
 40
0.0
 40
0.0
 40
1.0
 40
1.0
 40
1.0
 40
1.0
 10
17.6217
 20
-24.1194
 30
0.0
 10
17.6217
 20
-24.1194
 30
0.0
 10
4.7543
 20
-24.1194
 30
0.0
 10
4.7543
 20
-24.1194
 30
0.0
  0
SPLINE
  5
76
330
1F
100
AcDbEntity
  8
DEFAULT_2
 62
   250
100
AcDbSpline
210
0.0
220
0.0
230
1.0
 70
    24
 71
     3
 72
     8
 73
     4
 74
     0
 42
0.0000000001
 43
0.0000000001
 40
0.0
 40
0.0
 40
0.0
 40
0.0
 40
1.0
 40
1.0
 40
1.0
 40
1.0
 10
16.9249
 20
-21.6541
 30
0.0
 10
16.9249
 20
-21.6541
 30
0.0
 10
17.7393
 20
-21.6541
 30
0.0
 10
17.7393
 20
-21.6541
 30
0.0
  0
SPLINE
  5
77
330
1F
100
AcDbEntity
  8
DEFAULT_2
 62
   250
100
AcDbSpline
210
0.0
220
0.0
230
1.0
 70
    24
 71
     3
 72
     8
 73
     4
 74
     0
 42
0.0000000001
 43
0.0000000001
 40
0.0
 40
0.0
 40
0.0
 40
0.0
 40
1.0
 40
1.0
 40
1.0
 40
1.0
 10
16.9249
 20
-20.6355
 30
0.0
 10
16.9249
 20
-20.6355
 30
0.0
 10
0.8424
 20
-20.6355
 30
0.0
 10
0.8424
 20
-20.6355
 30
0.0
  0
SPLINE
  5
78
330
1F
100
AcDbEntity
  8
DEFAULT_2
 62
   250
100
AcDbSpline
210
0.0
220
0.0
230
1.0
 70
    24
 71
     3
 72
     8
 73
     4
 74
     0
 42
0.0000000001
 43
0.0000000001
 40
0.0
 40
0.0
 40
0.0
 40
0.0
 40
1.0
 40
1.0
 40
1.0
 40
1.0
 10
3.9028
 20
-20.1129
 30
0.0
 10
3.9028
 20
-20.1129
 30
0.0
 10
5.9508
 20
-20.1129
 30
0.0
 10
5.9508
 20
-20.1129
 30
0.0
  0
SPLINE
  5
79
330
1F
100
AcDbEntity
  8
DEFAULT_2
 62
   250
100
AcDbSpline
210
0.0
220
0.0
230
1.0
 70
    24
 71
     3
 72
     8
 73
     4
 74
     0
 42
0.0000000001
 43
0.0000000001
 40
0.0
 40
0.0
 40
0.0
 40
0.0
 40
1.0
 40
1.0
 40
1.0
 40
1.0
 10
6.6475
 20
-20.1129
 30
0.0
 10
6.6475
 20
-20.1129
 30
0.0
 10
8.7378
 20
-20.1129
 30
0.0
 10
8.7378
 20
-20.1129
 30
0.0
  0
SPLINE
  5
7A
330
1F
100
AcDbEntity
  8
DEFAULT_2
 62
   250
100
AcDbSpline
210
0.0
220
0.0
230
1.0
 70
    24
 71
     3
 72
     8
 73
     4
 74
     0
 42
0.0000000001
 43
0.0000000001
 40
0.0
 40
0.0
 40
0.0
 40
0.0
 40
1.0
 40
1.0
 40
1.0
 40
1.0
 10
9.4346
 20
-20.1129
 30
0.0
 10
9.4346
 20
-20.1129
 30
0.0
 10
11.5249
 20
-20.1129
 30
0.0
 10
11.5249
 20
-20.1129
 30
0.0
  0
SPLINE
  5
7B
330
1F
100
AcDbEntity
  8
DEFAULT_2
 62
   250
100
AcDbSpline
210
0.0
220
0.0
230
1.0
 70
    24
 71
     3
 72
     8
 73
     4
 74
     0
 42
0.0000000001
 43
0.0000000001
 40
0.0
 40
0.0
 40
0.0
 40
0.0
 40
1.0
 40
1.0
 40
1.0
 40
1.0
 10
12.2216
 20
-20.1129
 30
0.0
 10
12.2216
 20
-20.1129
 30
0.0
 10
14.3121
 20
-20.1129
 30
0.0
 10
14.3121
 20
-20.1129
 30
0.0
  0
SPLINE
  5
7C
330
1F
100
AcDbEntity
  8
DEFAULT_2
 62
   250
100
AcDbSpline
210
0.0
220
0.0
230
1.0
 70
    24
 71
     3
 72
     8
 73
     4
 74
     0
 42
0.0000000001
 43
0.0000000001
 40
0.0
 40
0.0
 40
0.0
 40
0.0
 40
1.0
 40
1.0
 40
1.0
 40
1.0
 10
15.0088
 20
-20.1129
 30
0.0
 10
15.0088
 20
-20.1129
 30
0.0
 10
16.9249
 20
-20.1129
 30
0.0
 10
16.9249
 20
-20.1129
 30
0.0
  0
SPLINE
  5
7D
330
1F
100
AcDbEntity
  8
DEFAULT_2
 62
   250
100
AcDbSpline
210
0.0
220
0.0
230
1.0
 70
    24
 71
     3
 72
     8
 73
     4
 74
     0
 42
0.0000000001
 43
0.0000000001
 40
0.0
 40
0.0
 40
0.0
 40
0.0
 40
1.0
 40
1.0
 40
1.0
 40
1.0
 10
16.9249
 20
-19.4162
 30
0.0
 10
16.9249
 20
-19.4162
 30
0.0
 10
15.0088
 20
-19.4162
 30
0.0
 10
15.0088
 20
-19.4162
 30
0.0
  0
SPLINE
  5
7E
330
1F
100
AcDbEntity
  8
DEFAULT_2
 62
   250
100
AcDbSpline
210
0.0
220
0.0
230
1.0
 70
    24
 71
     3
 72
     8
 73
     4
 74
     0
 42
0.0000000001
 43
0.0000000001
 40
0.0
 40
0.0
 40
0.0
 40
0.0
 40
1.0
 40
1.0
 40
1.0
 40
1.0
 10
14.3121
 20
-19.4162
 30
0.0
 10
14.3121
 20
-19.4162
 30
0.0
 10
12.2216
 20
-19.4162
 30
0.0
 10
12.2216
 20
-19.4162
 30
0.0
  0
SPLINE
  5
7F
330
1F
100
AcDbEntity
  8
DEFAULT_2
 62
   250
100
AcDbSpline
210
0.0
220
0.0
230
1.0
 70
    24
 71
     3
 72
     8
 73
     4
 74
     0
 42
0.0000000001
 43
0.0000000001
 40
0.0
 40
0.0
 40
0.0
 40
0.0
 40
1.0
 40
1.0
 40
1.0
 40
1.0
 10
11.5249
 20
-19.4162
 30
0.0
 10
11.5249
 20
-19.4162
 30
0.0
 10
9.4346
 20
-19.4162
 30
0.0
 10
9.4346
 20
-19.4162
 30
0.0
  0
SPLINE
  5
80
330
1F
100
AcDbEntity
  8
DEFAULT_2
 62
   250
100
AcDbSpline
210
0.0
220
0.0
230
1.0
 70
    24
 71
     3
 72
     8
 73
     4
 74
     0
 42
0.0000000001
 43
0.0000000001
 40
0.0
 40
0.0
 40
0.0
 40
0.0
 40
1.0
 40
1.0
 40
1.0
 40
1.0
 10
8.7378
 20
-19.4162
 30
0.0
 10
8.7378
 20
-19.4162
 30
0.0
 10
6.6475
 20
-19.4162
 30
0.0
 10
6.6475
 20
-19.4162
 30
0.0
  0
SPLINE
  5
81
330
1F
100
AcDbEntity
  8
DEFAULT_2
 62
   250
100
AcDbSpline
210
0.0
220
0.0
230
1.0
 70
    24
 71
     3
 72
     8
 73
     4
 74
     0
 42
0.0000000001
 43
0.0000000001
 40
0.0
 40
0.0
 40
0.0
 40
0.0
 40
1.0
 40
1.0
 40
1.0
 40
1.0
 10
5.9508
 20
-19.4162
 30
0.0
 10
5.9508
 20
-19.4162
 30
0.0
 10
4.5995
 20
-19.4162
 30
0.0
 10
4.5995
 20
-19.4162
 30
0.0
  0
SPLINE
  5
82
330
1F
100
AcDbEntity
  8
DEFAULT_2
 62
   250
100
AcDbSpline
210
0.0
220
0.0
230
1.0
 70
    24
 71
     3
 72
     8
 73
     4
 74
     0
 42
0.0000000001
 43
0.0000000001
 40
0.0
 40
0.0
 40
0.0
 40
0.0
 40
1.0
 40
1.0
 40
1.0
 40
1.0
 10
3.1215
 20
-19.4162
 30
0.0
 10
3.1215
 20
-19.4162
 30
0.0
 10
1.8873
 20
-19.4162
 30
0.0
 10
1.8873
 20
-19.4162
 30
0.0
  0
SPLINE
  5
83
330
1F
100
AcDbEntity
  8
DEFAULT_2
 62
   250
100
AcDbSpline
210
0.0
220
0.0
230
1.0
 70
    24
 71
     3
 72
     8
 73
     4
 74
     0
 42
0.0000000001
 43
0.0000000001
 40
0.0
 40
0.0
 40
0.0
 40
0.0
 40
1.0
 40
1.0
 40
1.0
 40
1.0
 10
17.5433
 20
-18.9633
 30
0.0
 10
17.5433
 20
-18.9633
 30
0.0
 10
-0.5275
 20
-18.9633
 30
0.0
 10
-0.5275
 20
-18.9633
 30
0.0
  0
SPLINE
  5
84
330
1F
100
AcDbEntity
  8
DEFAULT_2
 62
   250
100
AcDbSpline
210
0.0
220
0.0
230
1.0
 70
    24
 71
     3
 72
     8
 73
     4
 74
     0
 42
0.0000000001
 43
0.0000000001
 40
0.0
 40
0.0
 40
0.0
 40
0.0
 40
1.0
 40
1.0
 40
1.0
 40
1.0
 10
17.5825
 20
-17.5696
 30
0.0
 10
17.5825
 20
-17.5696
 30
0.0
 10
-1.4714
 20
-17.5696
 30
0.0
 10
-1.4714
 20
-17.5696
 30
0.0
  0
SPLINE
  5
85
330
1F
100
AcDbEntity
  8
DEFAULT_2
 62
   250
100
AcDbSpline
210
0.0
220
0.0
230
1.0
 70
    24
 71
     3
 72
     8
 73
     4
 74
     0
 42
0.0000000001
 43
0.0000000001
 40
0.0
 40
0.0
 40
0.0
 40
0.0
 40
1.0
 40
1.0
 40
1.0
 40
1.0
 10
16.9249
 20
-15.1044
 30
0.0
 10
16.9249
 20
-15.1044
 30
0.0
 10
17.7
 20
-15.1044
 30
0.0
 10
17.7
 20
-15.1044
 30
0.0
  0
SPLINE
  5
86
330
1F
100
AcDbEntity
  8
DEFAULT_2
 62
   250
100
AcDbSpline
210
0.0
220
0.0
230
1.0
 70
    24
 71
     3
 72
     8
 73
     4
 74
     0
 42
0.0000000001
 43
0.0000000001
 40
0.0
 40
0.0
 40
0.0
 40
0.0
 40
1.0
 40
1.0
 40
1.0
 40
1.0
 10
16.9249
 20
-14.0859
 30
0.0
 10
16.9249
 20
-14.0859
 30
0.0
 10
-3.236
 20
-14.0859
 30
0.0
 10
-3.236
 20
-14.0859
 30
0.0
  0
SPLINE
  5
87
330
1F
100
AcDbEntity
  8
DEFAULT_2
 62
   250
100
AcDbSpline
210
0.0
220
0.0
230
1.0
 70
    24
 71
     3
 72
     8
 73
     4
 74
     0
 42
0.0000000001
 43
0.0000000001
 40
0.0
 40
0.0
 40
0.0
 40
0.0
 40
1.0
 40
1.0
 40
1.0
 40
1.0
 10
16.9249
 20
-13.842
 30
0.0
 10
16.9249
 20
-13.842
 30
0.0
 10
15.0088
 20
-13.842
 30
0.0
 10
15.0088
 20
-13.842
 30
0.0
  0
SPLINE
  5
88
330
1F
100
AcDbEntity
  8
DEFAULT_2
 62
   250
100
AcDbSpline
210
0.0
220
0.0
230
1.0
 70
    24
 71
     3
 72
     8
 73
     4
 74
     0
 42
0.0000000001
 43
0.0000000001
 40
0.0
 40
0.0
 40
0.0
 40
0.0
 40
1.0
 40
1.0
 40
1.0
 40
1.0
 10
14.3121
 20
-13.842
 30
0.0
 10
14.3121
 20
-13.842
 30
0.0
 10
12.2216
 20
-13.842
 30
0.0
 10
12.2216
 20
-13.842
 30
0.0
  0
SPLINE
  5
89
330
1F
100
AcDbEntity
  8
DEFAULT_2
 62
   250
100
AcDbSpline
210
0.0
220
0.0
230
1.0
 70
    24
 71
     3
 72
     8
 73
     4
 74
     0
 42
0.0000000001
 43
0.0000000001
 40
0.0
 40
0.0
 40
0.0
 40
0.0
 40
1.0
 40
1.0
 40
1.0
 40
1.0
 10
11.5249
 20
-13.842
 30
0.0
 10
11.5249
 20
-13.842
 30
0.0
 10
10.1738
 20
-13.842
 30
0.0
 10
10.1738
 20
-13.842
 30
0.0
  0
SPLINE
  5
8A
330
1F
100
AcDbEntity
  8
DEFAULT_2
 62
   250
100
AcDbSpline
210
0.0
220
0.0
230
1.0
 70
    24
 71
     3
 72
     8
 73
     4
 74
     0
 42
0.0000000001
 43
0.0000000001
 40
0.0
 40
0.0
 40
0.0
 40
0.0
 40
1.0
 40
1.0
 40
1.0
 40
1.0
 10
8.6956
 20
-13.842
 30
0.0
 10
8.6956
 20
-13.842
 30
0.0
 10
6.6475
 20
-13.842
 30
0.0
 10
6.6475
 20
-13.842
 30
0.0
  0
SPLINE
  5
8B
330
1F
100
AcDbEntity
  8
DEFAULT_2
 62
   250
100
AcDbSpline
210
0.0
220
0.0
230
1.0
 70
    24
 71
     3
 72
     8
 73
     4
 74
     0
 42
0.0000000001
 43
0.0000000001
 40
0.0
 40
0.0
 40
0.0
 40
0.0
 40
1.0
 40
1.0
 40
1.0
 40
1.0
 10
5.9508
 20
-13.842
 30
0.0
 10
5.9508
 20
-13.842
 30
0.0
 10
3.8604
 20
-13.842
 30
0.0
 10
3.8604
 20
-13.842
 30
0.0
  0
SPLINE
  5
8C
330
1F
100
AcDbEntity
  8
DEFAULT_2
 62
   250
100
AcDbSpline
210
0.0
220
0.0
230
1.0
 70
    24
 71
     3
 72
     8
 73
     4
 74
     0
 42
0.0000000001
 43
0.0000000001
 40
0.0
 40
0.0
 40
0.0
 40
0.0
 40
1.0
 40
1.0
 40
1.0
 40
1.0
 10
3.1637
 20
-13.842
 30
0.0
 10
3.1637
 20
-13.842
 30
0.0
 10
1.0734
 20
-13.842
 30
0.0
 10
1.0734
 20
-13.842
 30
0.0
  0
SPLINE
  5
8D
330
1F
100
AcDbEntity
  8
DEFAULT_2
 62
   250
100
AcDbSpline
210
0.0
220
0.0
230
1.0
 70
    24
 71
     3
 72
     8
 73
     4
 74
     0
 42
0.0000000001
 43
0.0000000001
 40
0.0
 40
0.0
 40
0.0
 40
0.0
 40
1.0
 40
1.0
 40
1.0
 40
1.0
 10
0.3765
 20
-13.842
 30
0.0
 10
0.3765
 20
-13.842
 30
0.0
 10
-1.6115
 20
-13.842
 30
0.0
 10
-1.6115
 20
-13.842
 30
0.0
  0
SPLINE
  5
8E
330
1F
100
AcDbEntity
  8
DEFAULT_2
 62
   250
100
AcDbSpline
210
0.0
220
0.0
230
1.0
 70
    24
 71
     3
 72
     8
 73
     4
 74
     0
 42
0.0000000001
 43
0.0000000001
 40
0.0
 40
0.0
 40
0.0
 40
0.0
 40
1.0
 40
1.0
 40
1.0
 40
1.0
 10
17.6608
 20
-12.4136
 30
0.0
 10
17.6608
 20
-12.4136
 30
0.0
 10
-3.8451
 20
-12.4136
 30
0.0
 10
-3.8451
 20
-12.4136
 30
0.0
  0
SPLINE
  5
8F
330
1F
100
AcDbEntity
  8
DEFAULT_2
 62
   250
100
AcDbSpline
210
0.0
220
0.0
230
1.0
 70
    24
 71
     3
 72
     8
 73
     4
 74
     0
 42
0.0000000001
 43
0.0000000001
 40
0.0
 40
0.0
 40
0.0
 40
0.0
 40
1.0
 40
1.0
 40
1.0
 40
1.0
 10
17.7
 20
-11.0201
 30
0.0
 10
17.7
 20
-11.0201
 30
0.0
 10
-4.2352
 20
-11.0201
 30
0.0
 10
-4.2352
 20
-11.0201
 30
0.0
  0
SPLINE
  5
90
330
1F
100
AcDbEntity
  8
DEFAULT_2
 62
   250
100
AcDbSpline
210
0.0
220
0.0
230
1.0
 70
    24
 71
     3
 72
     8
 73
     4
 74
     0
 42
0.0000000001
 43
0.0000000001
 40
0.0
 40
0.0
 40
0.0
 40
0.0
 40
1.0
 40
1.0
 40
1.0
 40
1.0
 10
16.9249
 20
-8.5548
 30
0.0
 10
16.9249
 20
-8.5548
 30
0.0
 10
17.7393
 20
-8.5548
 30
0.0
 10
17.7393
 20
-8.5548
 30
0.0
  0
SPLINE
  5
91
330
1F
100
AcDbEntity
  8
DEFAULT_2
 62
   250
100
AcDbSpline
210
0.0
220
0.0
230
1.0
 70
    24
 71
     3
 72
     8
 73
     4
 74
     0
 42
0.0000000001
 43
0.0000000001
 40
0.0
 40
0.0
 40
0.0
 40
0.0
 40
1.0
 40
1.0
 40
1.0
 40
1.0
 10
16.9249
 20
-7.5362
 30
0.0
 10
16.9249
 20
-7.5362
 30
0.0
 10
-4.7975
 20
-7.5362
 30
0.0
 10
-4.7975
 20
-7.5362
 30
0.0
  0
SPLINE
  5
92
330
1F
100
AcDbEntity
  8
DEFAULT_2
 62
   250
100
AcDbSpline
210
0.0
220
0.0
230
1.0
 70
    24
 71
     3
 72
     8
 73
     4
 74
     0
 42
0.0000000001
 43
0.0000000001
 40
0.0
 40
0.0
 40
0.0
 40
0.0
 40
1.0
 40
1.0
 40
1.0
 40
1.0
 10
-3.275
 20
-6.1775
 30
0.0
 10
-3.275
 20
-6.1775
 30
0.0
 10
-2.4105
 20
-6.1775
 30
0.0
 10
-2.4105
 20
-6.1775
 30
0.0
  0
SPLINE
  5
93
330
1F
100
AcDbEntity
  8
DEFAULT_2
 62
   250
100
AcDbSpline
210
0.0
220
0.0
230
1.0
 70
    24
 71
     3
 72
     8
 73
     4
 74
     0
 42
0.0000000001
 43
0.0000000001
 40
0.0
 40
0.0
 40
0.0
 40
0.0
 40
1.0
 40
1.0
 40
1.0
 40
1.0
 10
-1.7137
 20
-6.1775
 30
0.0
 10
-1.7137
 20
-6.1775
 30
0.0
 10
0.3765
 20
-6.1775
 30
0.0
 10
0.3765
 20
-6.1775
 30
0.0
  0
SPLINE
  5
94
330
1F
100
AcDbEntity
  8
DEFAULT_2
 62
   250
100
AcDbSpline
210
0.0
220
0.0
230
1.0
 70
    24
 71
     3
 72
     8
 73
     4
 74
     0
 42
0.0000000001
 43
0.0000000001
 40
0.0
 40
0.0
 40
0.0
 40
0.0
 40
1.0
 40
1.0
 40
1.0
 40
1.0
 10
1.0734
 20
-6.1775
 30
0.0
 10
1.0734
 20
-6.1775
 30
0.0
 10
3.1637
 20
-6.1775
 30
0.0
 10
3.1637
 20
-6.1775
 30
0.0
  0
SPLINE
  5
95
330
1F
100
AcDbEntity
  8
DEFAULT_2
 62
   250
100
AcDbSpline
210
0.0
220
0.0
230
1.0
 70
    24
 71
     3
 72
     8
 73
     4
 74
     0
 42
0.0000000001
 43
0.0000000001
 40
0.0
 40
0.0
 40
0.0
 40
0.0
 40
1.0
 40
1.0
 40
1.0
 40
1.0
 10
3.8604
 20
-6.1775
 30
0.0
 10
3.8604
 20
-6.1775
 30
0.0
 10
5.9508
 20
-6.1775
 30
0.0
 10
5.9508
 20
-6.1775
 30
0.0
  0
SPLINE
  5
96
330
1F
100
AcDbEntity
  8
DEFAULT_2
 62
   250
100
AcDbSpline
210
0.0
220
0.0
230
1.0
 70
    24
 71
     3
 72
     8
 73
     4
 74
     0
 42
0.0000000001
 43
0.0000000001
 40
0.0
 40
0.0
 40
0.0
 40
0.0
 40
1.0
 40
1.0
 40
1.0
 40
1.0
 10
6.6475
 20
-6.1775
 30
0.0
 10
6.6475
 20
-6.1775
 30
0.0
 10
8.7378
 20
-6.1775
 30
0.0
 10
8.7378
 20
-6.1775
 30
0.0
  0
SPLINE
  5
97
330
1F
100
AcDbEntity
  8
DEFAULT_2
 62
   250
100
AcDbSpline
210
0.0
220
0.0
230
1.0
 70
    24
 71
     3
 72
     8
 73
     4
 74
     0
 42
0.0000000001
 43
0.0000000001
 40
0.0
 40
0.0
 40
0.0
 40
0.0
 40
1.0
 40
1.0
 40
1.0
 40
1.0
 10
9.4346
 20
-6.1775
 30
0.0
 10
9.4346
 20
-6.1775
 30
0.0
 10
11.5249
 20
-6.1775
 30
0.0
 10
11.5249
 20
-6.1775
 30
0.0
  0
SPLINE
  5
98
330
1F
100
AcDbEntity
  8
DEFAULT_2
 62
   250
100
AcDbSpline
210
0.0
220
0.0
230
1.0
 70
    24
 71
     3
 72
     8
 73
     4
 74
     0
 42
0.0000000001
 43
0.0000000001
 40
0.0
 40
0.0
 40
0.0
 40
0.0
 40
1.0
 40
1.0
 40
1.0
 40
1.0
 10
12.2216
 20
-6.1775
 30
0.0
 10
12.2216
 20
-6.1775
 30
0.0
 10
14.3121
 20
-6.1775
 30
0.0
 10
14.3121
 20
-6.1775
 30
0.0
  0
SPLINE
  5
99
330
1F
100
AcDbEntity
  8
DEFAULT_2
 62
   250
100
AcDbSpline
210
0.0
220
0.0
230
1.0
 70
    24
 71
     3
 72
     8
 73
     4
 74
     0
 42
0.0000000001
 43
0.0000000001
 40
0.0
 40
0.0
 40
0.0
 40
0.0
 40
1.0
 40
1.0
 40
1.0
 40
1.0
 10
15.0088
 20
-6.1775
 30
0.0
 10
15.0088
 20
-6.1775
 30
0.0
 10
16.3602
 20
-6.1775
 30
0.0
 10
16.3602
 20
-6.1775
 30
0.0
  0
SPLINE
  5
9A
330
1F
100
AcDbEntity
  8
DEFAULT_2
 62
   250
100
AcDbSpline
210
0.0
220
0.0
230
1.0
 70
    24
 71
     3
 72
     8
 73
     4
 74
     0
 42
0.0000000001
 43
0.0000000001
 40
0.0
 40
0.0
 40
0.0
 40
0.0
 40
1.0
 40
1.0
 40
1.0
 40
1.0
 10
17.6608
 20
-5.864
 30
0.0
 10
17.6608
 20
-5.864
 30
0.0
 10
-4.883
 20
-5.864
 30
0.0
 10
-4.883
 20
-5.864
 30
0.0
  0
SPLINE
  5
9B
330
1F
100
AcDbEntity
  8
DEFAULT_2
 62
   250
100
AcDbSpline
210
0.0
220
0.0
230
1.0
 70
    24
 71
     3
 72
     8
 73
     4
 74
     0
 42
0.0000000001
 43
0.0000000001
 40
0.0
 40
0.0
 40
0.0
 40
0.0
 40
1.0
 40
1.0
 40
1.0
 40
1.0
 10
-1.069
 20
6.3693
 30
0.0
 10
-1.069
 20
6.3693
 30
0.0
 10
-1.2903
 20
6.5241
 30
0.0
 10
-1.2903
 20
6.5241
 30
0.0
  0
SPLINE
  5
9C
330
1F
100
AcDbEntity
  8
DEFAULT_2
 62
   250
100
AcDbSpline
210
0.0
220
0.0
230
1.0
 70
    24
 71
     3
 72
     8
 73
     4
 74
     0
 42
0.0000000001
 43
0.0000000001
 40
0.0
 40
0.0
 40
0.0
 40
0.0
 40
1.0
 40
1.0
 40
1.0
 40
1.0
 10
3.9924
 20
7.2354
 30
0.0
 10
3.9924
 20
7.2354
 30
0.0
 10
5.2118
 20
6.016
 30
0.0
 10
5.2118
 20
6.016
 30
0.0
  0
SPLINE
  5
9D
330
1F
100
AcDbEntity
  8
DEFAULT_2
 62
   250
100
AcDbSpline
210
0.0
220
0.0
230
1.0
 70
    24
 71
     3
 72
     8
 73
     4
 74
     0
 42
0.0000000001
 43
0.0000000001
 40
0.0
 40
0.0
 40
0.0
 40
0.0
 40
1.0
 40
1.0
 40
1.0
 40
1.0
 10
10.542
 20
0.6857
 30
0.0
 10
10.542
 20
0.6857
 30
0.0
 10
10.7859
 20
0.4418
 30
0.0
 10
10.7859
 20
0.4418
 30
0.0
  0
SPLINE
  5
9E
330
1F
100
AcDbEntity
  8
DEFAULT_2
 62
   250
100
AcDbSpline
210
0.0
220
0.0
230
1.0
 70
    24
 71
     3
 72
     8
 73
     4
 74
     0
 42
0.0000000001
 43
0.0000000001
 40
0.0
 40
0.0
 40
0.0
 40
0.0
 40
1.0
 40
1.0
 40
1.0
 40
1.0
 10
11.4827
 20
-0.255
 30
0.0
 10
11.4827
 20
-0.255
 30
0.0
 10
11.5249
 20
-0.2972
 30
0.0
 10
11.5249
 20
-0.2972
 30
0.0
  0
SPLINE
  5
9F
330
1F
100
AcDbEntity
  8
DEFAULT_2
 62
   250
100
AcDbSpline
210
0.0
220
0.0
230
1.0
 70
    24
 71
     3
 72
     8
 73
     4
 74
     0
 42
0.0000000001
 43
0.0000000001
 40
0.0
 40
0.0
 40
0.0
 40
0.0
 40
1.0
 40
1.0
 40
1.0
 40
1.0
 10
3.8604
 20
-20.1552
 30
0.0
 10
3.8604
 20
-20.1552
 30
0.0
 10
3.9028
 20
-20.1129
 30
0.0
 10
3.9028
 20
-20.1129
 30
0.0
  0
SPLINE
  5
A0
330
1F
100
AcDbEntity
  8
DEFAULT_2
 62
   250
100
AcDbSpline
210
0.0
220
0.0
230
1.0
 70
    24
 71
     3
 72
     8
 73
     4
 74
     0
 42
0.0000000001
 43
0.0000000001
 40
0.0
 40
0.0
 40
0.0
 40
0.0
 40
1.0
 40
1.0
 40
1.0
 40
1.0
 10
4.5995
 20
-19.4162
 30
0.0
 10
4.5995
 20
-19.4162
 30
0.0
 10
5.0525
 20
-18.9633
 30
0.0
 10
5.0525
 20
-18.9633
 30
0.0
  0
SPLINE
  5
A1
330
1F
100
AcDbEntity
  8
DEFAULT_2
 62
   250
100
AcDbSpline
210
0.0
220
0.0
230
1.0
 70
    24
 71
     3
 72
     8
 73
     4
 74
     0
 42
0.0000000001
 43
0.0000000001
 40
0.0
 40
0.0
 40
0.0
 40
0.0
 40
1.0
 40
1.0
 40
1.0
 40
1.0
 10
10.1738
 20
-13.842
 30
0.0
 10
10.1738
 20
-13.842
 30
0.0
 10
11.5249
 20
-12.4906
 30
0.0
 10
11.5249
 20
-12.4906
 30
0.0
  0
SPLINE
  5
A2
330
1F
100
AcDbEntity
  8
DEFAULT_2
 62
   250
100
AcDbSpline
210
0.0
220
0.0
230
1.0
 70
    24
 71
     3
 72
     8
 73
     4
 74
     0
 42
0.0000000001
 43
0.0000000001
 40
0.0
 40
0.0
 40
0.0
 40
0.0
 40
1.0
 40
1.0
 40
1.0
 40
1.0
 10
16.4795
 20
-7.5362
 30
0.0
 10
16.4795
 20
-7.5362
 30
0.0
 10
16.9249
 20
-7.0907
 30
0.0
 10
16.9249
 20
-7.0907
 30
0.0
  0
SPLINE
  5
A3
330
1F
100
AcDbEntity
  8
DEFAULT_2
 62
   250
100
AcDbSpline
210
0.0
220
0.0
230
1.0
 70
    24
 71
     3
 72
     8
 73
     4
 74
     0
 42
0.0000000001
 43
0.0000000001
 40
0.0
 40
0.0
 40
0.0
 40
0.0
 40
1.0
 40
1.0
 40
1.0
 40
1.0
 10
17.6608
 20
-4.4704
 30
0.0
 10
17.6608
 20
-4.4704
 30
0.0
 10
-4.8528
 20
-4.4704
 30
0.0
 10
-4.8528
 20
-4.4704
 30
0.0
  0
SPLINE
  5
A4
330
1F
100
AcDbEntity
  8
DEFAULT_2
 62
   250
100
AcDbSpline
210
0.0
220
0.0
230
1.0
 70
    24
 71
     3
 72
     8
 73
     4
 74
     0
 42
0.0000000001
 43
0.0000000001
 40
0.0
 40
0.0
 40
0.0
 40
0.0
 40
1.0
 40
1.0
 40
1.0
 40
1.0
 10
13.6925
 20
-0.9866
 30
0.0
 10
13.6925
 20
-0.9866
 30
0.0
 10
12.9608
 20
-0.255
 30
0.0
 10
12.9608
 20
-0.255
 30
0.0
  0
SPLINE
  5
A5
330
1F
100
AcDbEntity
  8
DEFAULT_2
 62
   250
100
AcDbSpline
210
0.0
220
0.0
230
1.0
 70
    24
 71
     3
 72
     8
 73
     4
 74
     0
 42
0.0000000001
 43
0.0000000001
 40
0.0
 40
0.0
 40
0.0
 40
0.0
 40
1.0
 40
1.0
 40
1.0
 40
1.0
 10
12.2641
 20
0.4418
 30
0.0
 10
12.2641
 20
0.4418
 30
0.0
 10
12.2216
 20
0.4841
 30
0.0
 10
12.2216
 20
0.4841
 30
0.0
  0
SPLINE
  5
A6
330
1F
100
AcDbEntity
  8
DEFAULT_2
 62
   250
100
AcDbSpline
210
0.0
220
0.0
230
1.0
 70
    24
 71
     3
 72
     8
 73
     4
 74
     0
 42
0.0000000001
 43
0.0000000001
 40
0.0
 40
0.0
 40
0.0
 40
0.0
 40
1.0
 40
1.0
 40
1.0
 40
1.0
 10
6.6899
 20
6.016
 30
0.0
 10
6.6899
 20
6.016
 30
0.0
 10
6.6475
 20
6.0583
 30
0.0
 10
6.6475
 20
6.0583
 30
0.0
  0
SPLINE
  5
A7
330
1F
100
AcDbEntity
  8
DEFAULT_2
 62
   250
100
AcDbSpline
210
0.0
220
0.0
230
1.0
 70
    24
 71
     3
 72
     8
 73
     4
 74
     0
 42
0.0000000001
 43
0.0000000001
 40
0.0
 40
0.0
 40
0.0
 40
0.0
 40
1.0
 40
1.0
 40
1.0
 40
1.0
 10
5.9508
 20
6.7551
 30
0.0
 10
5.9508
 20
6.7551
 30
0.0
 10
5.4705
 20
7.2354
 30
0.0
 10
5.4705
 20
7.2354
 30
0.0
  0
SPLINE
  5
A8
330
1F
100
AcDbEntity
  8
DEFAULT_2
 62
   250
100
AcDbSpline
210
0.0
220
0.0
230
1.0
 70
    24
 71
     3
 72
     8
 73
     4
 74
     0
 42
0.0000000001
 43
0.0000000001
 40
0.0
 40
0.0
 40
0.0
 40
0.0
 40
1.0
 40
1.0
 40
1.0
 40
1.0
 10
16.9249
 20
13.7849
 30
0.0
 10
16.9249
 20
13.7849
 30
0.0
 10
16.9249
 20
11.0942
 30
0.0
 10
16.9249
 20
11.0942
 30
0.0
  0
SPLINE
  5
A9
330
1F
100
AcDbEntity
  8
DEFAULT_2
 62
   250
100
AcDbSpline
210
0.0
220
0.0
230
1.0
 70
    24
 71
     3
 72
     8
 73
     4
 74
     0
 42
0.0000000001
 43
0.0000000001
 40
0.0
 40
0.0
 40
0.0
 40
0.0
 40
1.0
 40
1.0
 40
1.0
 40
1.0
 10
16.9249
 20
7.2354
 30
0.0
 10
16.9249
 20
7.2354
 30
0.0
 10
16.9249
 20
4.5446
 30
0.0
 10
16.9249
 20
4.5446
 30
0.0
  0
SPLINE
  5
AA
330
1F
100
AcDbEntity
  8
DEFAULT_2
 62
   250
100
AcDbSpline
210
0.0
220
0.0
230
1.0
 70
    24
 71
     3
 72
     8
 73
     4
 74
     0
 42
0.0000000001
 43
0.0000000001
 40
0.0
 40
0.0
 40
0.0
 40
0.0
 40
1.0
 40
1.0
 40
1.0
 40
1.0
 10
16.9249
 20
0.6857
 30
0.0
 10
16.9249
 20
0.6857
 30
0.0
 10
16.9249
 20
-2.0051
 30
0.0
 10
16.9249
 20
-2.0051
 30
0.0
  0
SPLINE
  5
AB
330
1F
100
AcDbEntity
  8
DEFAULT_2
 62
   250
100
AcDbSpline
210
0.0
220
0.0
230
1.0
 70
    24
 71
     3
 72
     8
 73
     4
 74
     0
 42
0.0000000001
 43
0.0000000001
 40
0.0
 40
0.0
 40
0.0
 40
0.0
 40
1.0
 40
1.0
 40
1.0
 40
1.0
 10
16.9249
 20
-5.864
 30
0.0
 10
16.9249
 20
-5.864
 30
0.0
 10
16.9249
 20
-8.5548
 30
0.0
 10
16.9249
 20
-8.5548
 30
0.0
  0
SPLINE
  5
AC
330
1F
100
AcDbEntity
  8
DEFAULT_2
 62
   250
100
AcDbSpline
210
0.0
220
0.0
230
1.0
 70
    24
 71
     3
 72
     8
 73
     4
 74
     0
 42
0.0000000001
 43
0.0000000001
 40
0.0
 40
0.0
 40
0.0
 40
0.0
 40
1.0
 40
1.0
 40
1.0
 40
1.0
 10
16.9249
 20
-12.4136
 30
0.0
 10
16.9249
 20
-12.4136
 30
0.0
 10
16.9249
 20
-15.1044
 30
0.0
 10
16.9249
 20
-15.1044
 30
0.0
  0
SPLINE
  5
AD
330
1F
100
AcDbEntity
  8
DEFAULT_2
 62
   250
100
AcDbSpline
210
0.0
220
0.0
230
1.0
 70
    24
 71
     3
 72
     8
 73
     4
 74
     0
 42
0.0000000001
 43
0.0000000001
 40
0.0
 40
0.0
 40
0.0
 40
0.0
 40
1.0
 40
1.0
 40
1.0
 40
1.0
 10
16.9249
 20
-18.9633
 30
0.0
 10
16.9249
 20
-18.9633
 30
0.0
 10
16.9249
 20
-21.6541
 30
0.0
 10
16.9249
 20
-21.6541
 30
0.0
  0
SPLINE
  5
AE
330
1F
100
AcDbEntity
  8
DEFAULT_2
 62
   250
100
AcDbSpline
210
0.0
220
0.0
230
1.0
 70
    24
 71
     3
 72
     8
 73
     4
 74
     0
 42
0.0000000001
 43
0.0000000001
 40
0.0
 40
0.0
 40
0.0
 40
0.0
 40
1.0
 40
1.0
 40
1.0
 40
1.0
 10
16.9249
 20
-25.513
 30
0.0
 10
16.9249
 20
-25.513
 30
0.0
 10
16.9249
 20
-28.1393
 30
0.0
 10
16.9249
 20
-28.1393
 30
0.0
  0
SPLINE
  5
AF
330
1F
100
AcDbEntity
  8
DEFAULT_2
 62
   250
100
AcDbSpline
210
0.0
220
0.0
230
1.0
 70
    24
 71
     3
 72
     8
 73
     4
 74
     0
 42
0.0000000001
 43
0.0000000001
 40
0.0
 40
0.0
 40
0.0
 40
0.0
 40
1.0
 40
1.0
 40
1.0
 40
1.0
 10
15.0088
 20
13.6804
 30
0.0
 10
15.0088
 20
13.6804
 30
0.0
 10
15.0088
 20
12.1127
 30
0.0
 10
15.0088
 20
12.1127
 30
0.0
  0
SPLINE
  5
B0
330
1F
100
AcDbEntity
  8
DEFAULT_2
 62
   250
100
AcDbSpline
210
0.0
220
0.0
230
1.0
 70
    24
 71
     3
 72
     8
 73
     4
 74
     0
 42
0.0000000001
 43
0.0000000001
 40
0.0
 40
0.0
 40
0.0
 40
0.0
 40
1.0
 40
1.0
 40
1.0
 40
1.0
 10
15.0088
 20
7.2354
 30
0.0
 10
15.0088
 20
7.2354
 30
0.0
 10
15.0088
 20
6.016
 30
0.0
 10
15.0088
 20
6.016
 30
0.0
  0
SPLINE
  5
B1
330
1F
100
AcDbEntity
  8
DEFAULT_2
 62
   250
100
AcDbSpline
210
0.0
220
0.0
230
1.0
 70
    24
 71
     3
 72
     8
 73
     4
 74
     0
 42
0.0000000001
 43
0.0000000001
 40
0.0
 40
0.0
 40
0.0
 40
0.0
 40
1.0
 40
1.0
 40
1.0
 40
1.0
 10
15.0088
 20
0.6857
 30
0.0
 10
15.0088
 20
0.6857
 30
0.0
 10
15.0088
 20
0.4418
 30
0.0
 10
15.0088
 20
0.4418
 30
0.0
  0
SPLINE
  5
B2
330
1F
100
AcDbEntity
  8
DEFAULT_2
 62
   250
100
AcDbSpline
210
0.0
220
0.0
230
1.0
 70
    24
 71
     3
 72
     8
 73
     4
 74
     0
 42
0.0000000001
 43
0.0000000001
 40
0.0
 40
0.0
 40
0.0
 40
0.0
 40
1.0
 40
1.0
 40
1.0
 40
1.0
 10
15.0088
 20
-0.255
 30
0.0
 10
15.0088
 20
-0.255
 30
0.0
 10
15.0088
 20
-0.9866
 30
0.0
 10
15.0088
 20
-0.9866
 30
0.0
  0
SPLINE
  5
B3
330
1F
100
AcDbEntity
  8
DEFAULT_2
 62
   250
100
AcDbSpline
210
0.0
220
0.0
230
1.0
 70
    24
 71
     3
 72
     8
 73
     4
 74
     0
 42
0.0000000001
 43
0.0000000001
 40
0.0
 40
0.0
 40
0.0
 40
0.0
 40
1.0
 40
1.0
 40
1.0
 40
1.0
 10
15.0088
 20
-26.394
 30
0.0
 10
15.0088
 20
-26.394
 30
0.0
 10
15.0088
 20
-25.6871
 30
0.0
 10
15.0088
 20
-25.6871
 30
0.0
  0
SPLINE
  5
B4
330
1F
100
AcDbEntity
  8
DEFAULT_2
 62
   250
100
AcDbSpline
210
0.0
220
0.0
230
1.0
 70
    24
 71
     3
 72
     8
 73
     4
 74
     0
 42
0.0000000001
 43
0.0000000001
 40
0.0
 40
0.0
 40
0.0
 40
0.0
 40
1.0
 40
1.0
 40
1.0
 40
1.0
 10
15.0088
 20
-20.6355
 30
0.0
 10
15.0088
 20
-20.6355
 30
0.0
 10
15.0088
 20
-20.1129
 30
0.0
 10
15.0088
 20
-20.1129
 30
0.0
  0
SPLINE
  5
B5
330
1F
100
AcDbEntity
  8
DEFAULT_2
 62
   250
100
AcDbSpline
210
0.0
220
0.0
230
1.0
 70
    24
 71
     3
 72
     8
 73
     4
 74
     0
 42
0.0000000001
 43
0.0000000001
 40
0.0
 40
0.0
 40
0.0
 40
0.0
 40
1.0
 40
1.0
 40
1.0
 40
1.0
 10
15.0088
 20
-19.4162
 30
0.0
 10
15.0088
 20
-19.4162
 30
0.0
 10
15.0088
 20
-18.9633
 30
0.0
 10
15.0088
 20
-18.9633
 30
0.0
  0
SPLINE
  5
B6
330
1F
100
AcDbEntity
  8
DEFAULT_2
 62
   250
100
AcDbSpline
210
0.0
220
0.0
230
1.0
 70
    24
 71
     3
 72
     8
 73
     4
 74
     0
 42
0.0000000001
 43
0.0000000001
 40
0.0
 40
0.0
 40
0.0
 40
0.0
 40
1.0
 40
1.0
 40
1.0
 40
1.0
 10
15.0088
 20
-13.842
 30
0.0
 10
15.0088
 20
-13.842
 30
0.0
 10
15.0088
 20
-12.4136
 30
0.0
 10
15.0088
 20
-12.4136
 30
0.0
  0
SPLINE
  5
B7
330
1F
100
AcDbEntity
  8
DEFAULT_2
 62
   250
100
AcDbSpline
210
0.0
220
0.0
230
1.0
 70
    24
 71
     3
 72
     8
 73
     4
 74
     0
 42
0.0000000001
 43
0.0000000001
 40
0.0
 40
0.0
 40
0.0
 40
0.0
 40
1.0
 40
1.0
 40
1.0
 40
1.0
 10
15.0088
 20
-7.5287
 30
0.0
 10
15.0088
 20
-7.5287
 30
0.0
 10
15.0088
 20
-6.1775
 30
0.0
 10
15.0088
 20
-6.1775
 30
0.0
  0
SPLINE
  5
B8
330
1F
100
AcDbEntity
  8
DEFAULT_2
 62
   250
100
AcDbSpline
210
0.0
220
0.0
230
1.0
 70
    24
 71
     3
 72
     8
 73
     4
 74
     0
 42
0.0000000001
 43
0.0000000001
 40
0.0
 40
0.0
 40
0.0
 40
0.0
 40
1.0
 40
1.0
 40
1.0
 40
1.0
 10
16.3602
 20
-6.1775
 30
0.0
 10
16.3602
 20
-6.1775
 30
0.0
 10
15.0088
 20
-7.5287
 30
0.0
 10
15.0088
 20
-7.5287
 30
0.0
  0
SPLINE
  5
B9
330
1F
100
AcDbEntity
  8
DEFAULT_2
 62
   250
100
AcDbSpline
210
0.0
220
0.0
230
1.0
 70
    24
 71
     3
 72
     8
 73
     4
 74
     0
 42
0.0000000001
 43
0.0000000001
 40
0.0
 40
0.0
 40
0.0
 40
0.0
 40
1.0
 40
1.0
 40
1.0
 40
1.0
 10
10.124
 20
-12.4136
 30
0.0
 10
10.124
 20
-12.4136
 30
0.0
 10
9.4346
 20
-13.1029
 30
0.0
 10
9.4346
 20
-13.1029
 30
0.0
  0
SPLINE
  5
BA
330
1F
100
AcDbEntity
  8
DEFAULT_2
 62
   250
100
AcDbSpline
210
0.0
220
0.0
230
1.0
 70
    24
 71
     3
 72
     8
 73
     4
 74
     0
 42
0.0000000001
 43
0.0000000001
 40
0.0
 40
0.0
 40
0.0
 40
0.0
 40
1.0
 40
1.0
 40
1.0
 40
1.0
 10
8.7378
 20
-13.7996
 30
0.0
 10
8.7378
 20
-13.7996
 30
0.0
 10
8.6956
 20
-13.842
 30
0.0
 10
8.6956
 20
-13.842
 30
0.0
  0
SPLINE
  5
BB
330
1F
100
AcDbEntity
  8
DEFAULT_2
 62
   250
100
AcDbSpline
210
0.0
220
0.0
230
1.0
 70
    24
 71
     3
 72
     8
 73
     4
 74
     0
 42
0.0000000001
 43
0.0000000001
 40
0.0
 40
0.0
 40
0.0
 40
0.0
 40
1.0
 40
1.0
 40
1.0
 40
1.0
 10
3.1637
 20
-19.3739
 30
0.0
 10
3.1637
 20
-19.3739
 30
0.0
 10
3.1215
 20
-19.4162
 30
0.0
 10
3.1215
 20
-19.4162
 30
0.0
  0
SPLINE
  5
BC
330
1F
100
AcDbEntity
  8
DEFAULT_2
 62
   250
100
AcDbSpline
210
0.0
220
0.0
230
1.0
 70
    24
 71
     3
 72
     8
 73
     4
 74
     0
 42
0.0000000001
 43
0.0000000001
 40
0.0
 40
0.0
 40
0.0
 40
0.0
 40
1.0
 40
1.0
 40
1.0
 40
1.0
 10
16.9249
 20
-2.0051
 30
0.0
 10
16.9249
 20
-2.0051
 30
0.0
 10
17.6608
 20
-2.0051
 30
0.0
 10
17.6608
 20
-2.0051
 30
0.0
  0
SPLINE
  5
BD
330
1F
100
AcDbEntity
  8
DEFAULT_2
 62
   250
100
AcDbSpline
210
0.0
220
0.0
230
1.0
 70
    24
 71
     3
 72
     8
 73
     4
 74
     0
 42
0.0000000001
 43
0.0000000001
 40
0.0
 40
0.0
 40
0.0
 40
0.0
 40
1.0
 40
1.0
 40
1.0
 40
1.0
 10
16.9249
 20
-0.9866
 30
0.0
 10
16.9249
 20
-0.9866
 30
0.0
 10
-4.3862
 20
-0.9866
 30
0.0
 10
-4.3862
 20
-0.9866
 30
0.0
  0
SPLINE
  5
BE
330
1F
100
AcDbEntity
  8
DEFAULT_2
 62
   250
100
AcDbSpline
210
0.0
220
0.0
230
1.0
 70
    24
 71
     3
 72
     8
 73
     4
 74
     0
 42
0.0000000001
 43
0.0000000001
 40
0.0
 40
0.0
 40
0.0
 40
0.0
 40
1.0
 40
1.0
 40
1.0
 40
1.0
 10
-2.5719
 20
-0.255
 30
0.0
 10
-2.5719
 20
-0.255
 30
0.0
 10
-2.4105
 20
-0.255
 30
0.0
 10
-2.4105
 20
-0.255
 30
0.0
  0
SPLINE
  5
BF
330
1F
100
AcDbEntity
  8
DEFAULT_2
 62
   250
100
AcDbSpline
210
0.0
220
0.0
230
1.0
 70
    24
 71
     3
 72
     8
 73
     4
 74
     0
 42
0.0000000001
 43
0.0000000001
 40
0.0
 40
0.0
 40
0.0
 40
0.0
 40
1.0
 40
1.0
 40
1.0
 40
1.0
 10
16.9249
 20
-0.255
 30
0.0
 10
16.9249
 20
-0.255
 30
0.0
 10
15.0088
 20
-0.255
 30
0.0
 10
15.0088
 20
-0.255
 30
0.0
  0
SPLINE
  5
C0
330
1F
100
AcDbEntity
  8
DEFAULT_2
 62
   250
100
AcDbSpline
210
0.0
220
0.0
230
1.0
 70
    24
 71
     3
 72
     8
 73
     4
 74
     0
 42
0.0000000001
 43
0.0000000001
 40
0.0
 40
0.0
 40
0.0
 40
0.0
 40
1.0
 40
1.0
 40
1.0
 40
1.0
 10
14.3121
 20
-0.255
 30
0.0
 10
14.3121
 20
-0.255
 30
0.0
 10
12.9608
 20
-0.255
 30
0.0
 10
12.9608
 20
-0.255
 30
0.0
  0
SPLINE
  5
C1
330
1F
100
AcDbEntity
  8
DEFAULT_2
 62
   250
100
AcDbSpline
210
0.0
220
0.0
230
1.0
 70
    24
 71
     3
 72
     8
 73
     4
 74
     0
 42
0.0000000001
 43
0.0000000001
 40
0.0
 40
0.0
 40
0.0
 40
0.0
 40
1.0
 40
1.0
 40
1.0
 40
1.0
 10
11.4827
 20
-0.255
 30
0.0
 10
11.4827
 20
-0.255
 30
0.0
 10
9.4346
 20
-0.255
 30
0.0
 10
9.4346
 20
-0.255
 30
0.0
  0
SPLINE
  5
C2
330
1F
100
AcDbEntity
  8
DEFAULT_2
 62
   250
100
AcDbSpline
210
0.0
220
0.0
230
1.0
 70
    24
 71
     3
 72
     8
 73
     4
 74
     0
 42
0.0000000001
 43
0.0000000001
 40
0.0
 40
0.0
 40
0.0
 40
0.0
 40
1.0
 40
1.0
 40
1.0
 40
1.0
 10
8.7378
 20
-0.255
 30
0.0
 10
8.7378
 20
-0.255
 30
0.0
 10
6.6475
 20
-0.255
 30
0.0
 10
6.6475
 20
-0.255
 30
0.0
  0
SPLINE
  5
C3
330
1F
100
AcDbEntity
  8
DEFAULT_2
 62
   250
100
AcDbSpline
210
0.0
220
0.0
230
1.0
 70
    24
 71
     3
 72
     8
 73
     4
 74
     0
 42
0.0000000001
 43
0.0000000001
 40
0.0
 40
0.0
 40
0.0
 40
0.0
 40
1.0
 40
1.0
 40
1.0
 40
1.0
 10
5.9508
 20
-0.255
 30
0.0
 10
5.9508
 20
-0.255
 30
0.0
 10
3.8604
 20
-0.255
 30
0.0
 10
3.8604
 20
-0.255
 30
0.0
  0
SPLINE
  5
C4
330
1F
100
AcDbEntity
  8
DEFAULT_2
 62
   250
100
AcDbSpline
210
0.0
220
0.0
230
1.0
 70
    24
 71
     3
 72
     8
 73
     4
 74
     0
 42
0.0000000001
 43
0.0000000001
 40
0.0
 40
0.0
 40
0.0
 40
0.0
 40
1.0
 40
1.0
 40
1.0
 40
1.0
 10
3.1637
 20
-0.255
 30
0.0
 10
3.1637
 20
-0.255
 30
0.0
 10
1.0734
 20
-0.255
 30
0.0
 10
1.0734
 20
-0.255
 30
0.0
  0
SPLINE
  5
C5
330
1F
100
AcDbEntity
  8
DEFAULT_2
 62
   250
100
AcDbSpline
210
0.0
220
0.0
230
1.0
 70
    24
 71
     3
 72
     8
 73
     4
 74
     0
 42
0.0000000001
 43
0.0000000001
 40
0.0
 40
0.0
 40
0.0
 40
0.0
 40
1.0
 40
1.0
 40
1.0
 40
1.0
 10
0.3765
 20
-0.255
 30
0.0
 10
0.3765
 20
-0.255
 30
0.0
 10
-1.7137
 20
-0.255
 30
0.0
 10
-1.7137
 20
-0.255
 30
0.0
  0
SPLINE
  5
C6
330
1F
100
AcDbEntity
  8
DEFAULT_2
 62
   250
100
AcDbSpline
210
0.0
220
0.0
230
1.0
 70
    24
 71
     3
 72
     8
 73
     4
 74
     0
 42
0.0000000001
 43
0.0000000001
 40
0.0
 40
0.0
 40
0.0
 40
0.0
 40
1.0
 40
1.0
 40
1.0
 40
1.0
 10
14.3121
 20
-6.1775
 30
0.0
 10
14.3121
 20
-6.1775
 30
0.0
 10
14.3121
 20
-7.5362
 30
0.0
 10
14.3121
 20
-7.5362
 30
0.0
  0
SPLINE
  5
C7
330
1F
100
AcDbEntity
  8
DEFAULT_2
 62
   250
100
AcDbSpline
210
0.0
220
0.0
230
1.0
 70
    24
 71
     3
 72
     8
 73
     4
 74
     0
 42
0.0000000001
 43
0.0000000001
 40
0.0
 40
0.0
 40
0.0
 40
0.0
 40
1.0
 40
1.0
 40
1.0
 40
1.0
 10
14.3121
 20
-12.4136
 30
0.0
 10
14.3121
 20
-12.4136
 30
0.0
 10
14.3121
 20
-13.842
 30
0.0
 10
14.3121
 20
-13.842
 30
0.0
  0
SPLINE
  5
C8
330
1F
100
AcDbEntity
  8
DEFAULT_2
 62
   250
100
AcDbSpline
210
0.0
220
0.0
230
1.0
 70
    24
 71
     3
 72
     8
 73
     4
 74
     0
 42
0.0000000001
 43
0.0000000001
 40
0.0
 40
0.0
 40
0.0
 40
0.0
 40
1.0
 40
1.0
 40
1.0
 40
1.0
 10
14.3121
 20
-18.9633
 30
0.0
 10
14.3121
 20
-18.9633
 30
0.0
 10
14.3121
 20
-19.4162
 30
0.0
 10
14.3121
 20
-19.4162
 30
0.0
  0
SPLINE
  5
C9
330
1F
100
AcDbEntity
  8
DEFAULT_2
 62
   250
100
AcDbSpline
210
0.0
220
0.0
230
1.0
 70
    24
 71
     3
 72
     8
 73
     4
 74
     0
 42
0.0000000001
 43
0.0000000001
 40
0.0
 40
0.0
 40
0.0
 40
0.0
 40
1.0
 40
1.0
 40
1.0
 40
1.0
 10
14.3121
 20
-20.1129
 30
0.0
 10
14.3121
 20
-20.1129
 30
0.0
 10
14.3121
 20
-20.6355
 30
0.0
 10
14.3121
 20
-20.6355
 30
0.0
  0
SPLINE
  5
CA
330
1F
100
AcDbEntity
  8
DEFAULT_2
 62
   250
100
AcDbSpline
210
0.0
220
0.0
230
1.0
 70
    24
 71
     3
 72
     8
 73
     4
 74
     0
 42
0.0000000001
 43
0.0000000001
 40
0.0
 40
0.0
 40
0.0
 40
0.0
 40
1.0
 40
1.0
 40
1.0
 40
1.0
 10
14.3121
 20
-25.6871
 30
0.0
 10
14.3121
 20
-25.6871
 30
0.0
 10
14.3121
 20
-26.2944
 30
0.0
 10
14.3121
 20
-26.2944
 30
0.0
  0
SPLINE
  5
CB
330
1F
100
AcDbEntity
  8
DEFAULT_2
 62
   250
100
AcDbSpline
210
0.0
220
0.0
230
1.0
 70
    24
 71
     3
 72
     8
 73
     4
 74
     0
 42
0.0000000001
 43
0.0000000001
 40
0.0
 40
0.0
 40
0.0
 40
0.0
 40
1.0
 40
1.0
 40
1.0
 40
1.0
 10
14.3121
 20
-0.9866
 30
0.0
 10
14.3121
 20
-0.9866
 30
0.0
 10
14.3121
 20
-0.255
 30
0.0
 10
14.3121
 20
-0.255
 30
0.0
  0
SPLINE
  5
CC
330
1F
100
AcDbEntity
  8
DEFAULT_2
 62
   250
100
AcDbSpline
210
0.0
220
0.0
230
1.0
 70
    24
 71
     3
 72
     8
 73
     4
 74
     0
 42
0.0000000001
 43
0.0000000001
 40
0.0
 40
0.0
 40
0.0
 40
0.0
 40
1.0
 40
1.0
 40
1.0
 40
1.0
 10
14.3121
 20
0.4418
 30
0.0
 10
14.3121
 20
0.4418
 30
0.0
 10
14.3121
 20
0.6857
 30
0.0
 10
14.3121
 20
0.6857
 30
0.0
  0
SPLINE
  5
CD
330
1F
100
AcDbEntity
  8
DEFAULT_2
 62
   250
100
AcDbSpline
210
0.0
220
0.0
230
1.0
 70
    24
 71
     3
 72
     8
 73
     4
 74
     0
 42
0.0000000001
 43
0.0000000001
 40
0.0
 40
0.0
 40
0.0
 40
0.0
 40
1.0
 40
1.0
 40
1.0
 40
1.0
 10
14.3121
 20
6.016
 30
0.0
 10
14.3121
 20
6.016
 30
0.0
 10
14.3121
 20
7.2354
 30
0.0
 10
14.3121
 20
7.2354
 30
0.0
  0
SPLINE
  5
CE
330
1F
100
AcDbEntity
  8
DEFAULT_2
 62
   250
100
AcDbSpline
210
0.0
220
0.0
230
1.0
 70
    24
 71
     3
 72
     8
 73
     4
 74
     0
 42
0.0000000001
 43
0.0000000001
 40
0.0
 40
0.0
 40
0.0
 40
0.0
 40
1.0
 40
1.0
 40
1.0
 40
1.0
 10
14.3121
 20
12.1127
 30
0.0
 10
14.3121
 20
12.1127
 30
0.0
 10
14.3121
 20
13.6804
 30
0.0
 10
14.3121
 20
13.6804
 30
0.0
  0
SPLINE
  5
CF
330
1F
100
AcDbEntity
  8
DEFAULT_2
 62
   250
100
AcDbSpline
210
0.0
220
0.0
230
1.0
 70
    24
 71
     3
 72
     8
 73
     4
 74
     0
 42
0.0000000001
 43
0.0000000001
 40
0.0
 40
0.0
 40
0.0
 40
0.0
 40
1.0
 40
1.0
 40
1.0
 40
1.0
 10
12.2216
 20
13.6804
 30
0.0
 10
12.2216
 20
13.6804
 30
0.0
 10
12.2216
 20
12.1127
 30
0.0
 10
12.2216
 20
12.1127
 30
0.0
  0
SPLINE
  5
D0
330
1F
100
AcDbEntity
  8
DEFAULT_2
 62
   250
100
AcDbSpline
210
0.0
220
0.0
230
1.0
 70
    24
 71
     3
 72
     8
 73
     4
 74
     0
 42
0.0000000001
 43
0.0000000001
 40
0.0
 40
0.0
 40
0.0
 40
0.0
 40
1.0
 40
1.0
 40
1.0
 40
1.0
 10
12.2216
 20
7.2354
 30
0.0
 10
12.2216
 20
7.2354
 30
0.0
 10
12.2216
 20
6.016
 30
0.0
 10
12.2216
 20
6.016
 30
0.0
  0
SPLINE
  5
D1
330
1F
100
AcDbEntity
  8
DEFAULT_2
 62
   250
100
AcDbSpline
210
0.0
220
0.0
230
1.0
 70
    24
 71
     3
 72
     8
 73
     4
 74
     0
 42
0.0000000001
 43
0.0000000001
 40
0.0
 40
0.0
 40
0.0
 40
0.0
 40
1.0
 40
1.0
 40
1.0
 40
1.0
 10
12.2216
 20
0.6857
 30
0.0
 10
12.2216
 20
0.6857
 30
0.0
 10
12.2216
 20
0.4841
 30
0.0
 10
12.2216
 20
0.4841
 30
0.0
  0
SPLINE
  5
D2
330
1F
100
AcDbEntity
  8
DEFAULT_2
 62
   250
100
AcDbSpline
210
0.0
220
0.0
230
1.0
 70
    24
 71
     3
 72
     8
 73
     4
 74
     0
 42
0.0000000001
 43
0.0000000001
 40
0.0
 40
0.0
 40
0.0
 40
0.0
 40
1.0
 40
1.0
 40
1.0
 40
1.0
 10
12.2216
 20
-25.8485
 30
0.0
 10
12.2216
 20
-25.8485
 30
0.0
 10
12.2216
 20
-25.6871
 30
0.0
 10
12.2216
 20
-25.6871
 30
0.0
  0
SPLINE
  5
D3
330
1F
100
AcDbEntity
  8
DEFAULT_2
 62
   250
100
AcDbSpline
210
0.0
220
0.0
230
1.0
 70
    24
 71
     3
 72
     8
 73
     4
 74
     0
 42
0.0000000001
 43
0.0000000001
 40
0.0
 40
0.0
 40
0.0
 40
0.0
 40
1.0
 40
1.0
 40
1.0
 40
1.0
 10
12.2216
 20
-20.6355
 30
0.0
 10
12.2216
 20
-20.6355
 30
0.0
 10
12.2216
 20
-20.1129
 30
0.0
 10
12.2216
 20
-20.1129
 30
0.0
  0
SPLINE
  5
D4
330
1F
100
AcDbEntity
  8
DEFAULT_2
 62
   250
100
AcDbSpline
210
0.0
220
0.0
230
1.0
 70
    24
 71
     3
 72
     8
 73
     4
 74
     0
 42
0.0000000001
 43
0.0000000001
 40
0.0
 40
0.0
 40
0.0
 40
0.0
 40
1.0
 40
1.0
 40
1.0
 40
1.0
 10
12.2216
 20
-19.4162
 30
0.0
 10
12.2216
 20
-19.4162
 30
0.0
 10
12.2216
 20
-18.9633
 30
0.0
 10
12.2216
 20
-18.9633
 30
0.0
  0
SPLINE
  5
D5
330
1F
100
AcDbEntity
  8
DEFAULT_2
 62
   250
100
AcDbSpline
210
0.0
220
0.0
230
1.0
 70
    24
 71
     3
 72
     8
 73
     4
 74
     0
 42
0.0000000001
 43
0.0000000001
 40
0.0
 40
0.0
 40
0.0
 40
0.0
 40
1.0
 40
1.0
 40
1.0
 40
1.0
 10
12.2216
 20
-13.842
 30
0.0
 10
12.2216
 20
-13.842
 30
0.0
 10
12.2216
 20
-12.4136
 30
0.0
 10
12.2216
 20
-12.4136
 30
0.0
  0
SPLINE
  5
D6
330
1F
100
AcDbEntity
  8
DEFAULT_2
 62
   250
100
AcDbSpline
210
0.0
220
0.0
230
1.0
 70
    24
 71
     3
 72
     8
 73
     4
 74
     0
 42
0.0000000001
 43
0.0000000001
 40
0.0
 40
0.0
 40
0.0
 40
0.0
 40
1.0
 40
1.0
 40
1.0
 40
1.0
 10
12.2216
 20
-7.5362
 30
0.0
 10
12.2216
 20
-7.5362
 30
0.0
 10
12.2216
 20
-6.1775
 30
0.0
 10
12.2216
 20
-6.1775
 30
0.0
  0
SPLINE
  5
D7
330
1F
100
AcDbEntity
  8
DEFAULT_2
 62
   250
100
AcDbSpline
210
0.0
220
0.0
230
1.0
 70
    24
 71
     3
 72
     8
 73
     4
 74
     0
 42
0.0000000001
 43
0.0000000001
 40
0.0
 40
0.0
 40
0.0
 40
0.0
 40
1.0
 40
1.0
 40
1.0
 40
1.0
 10
-1.7137
 20
0.4418
 30
0.0
 10
-1.7137
 20
0.4418
 30
0.0
 10
0.3765
 20
0.4418
 30
0.0
 10
0.3765
 20
0.4418
 30
0.0
  0
SPLINE
  5
D8
330
1F
100
AcDbEntity
  8
DEFAULT_2
 62
   250
100
AcDbSpline
210
0.0
220
0.0
230
1.0
 70
    24
 71
     3
 72
     8
 73
     4
 74
     0
 42
0.0000000001
 43
0.0000000001
 40
0.0
 40
0.0
 40
0.0
 40
0.0
 40
1.0
 40
1.0
 40
1.0
 40
1.0
 10
1.0734
 20
0.4418
 30
0.0
 10
1.0734
 20
0.4418
 30
0.0
 10
3.1637
 20
0.4418
 30
0.0
 10
3.1637
 20
0.4418
 30
0.0
  0
SPLINE
  5
D9
330
1F
100
AcDbEntity
  8
DEFAULT_2
 62
   250
100
AcDbSpline
210
0.0
220
0.0
230
1.0
 70
    24
 71
     3
 72
     8
 73
     4
 74
     0
 42
0.0000000001
 43
0.0000000001
 40
0.0
 40
0.0
 40
0.0
 40
0.0
 40
1.0
 40
1.0
 40
1.0
 40
1.0
 10
3.8604
 20
0.4418
 30
0.0
 10
3.8604
 20
0.4418
 30
0.0
 10
5.9508
 20
0.4418
 30
0.0
 10
5.9508
 20
0.4418
 30
0.0
  0
SPLINE
  5
DA
330
1F
100
AcDbEntity
  8
DEFAULT_2
 62
   250
100
AcDbSpline
210
0.0
220
0.0
230
1.0
 70
    24
 71
     3
 72
     8
 73
     4
 74
     0
 42
0.0000000001
 43
0.0000000001
 40
0.0
 40
0.0
 40
0.0
 40
0.0
 40
1.0
 40
1.0
 40
1.0
 40
1.0
 10
6.6475
 20
0.4418
 30
0.0
 10
6.6475
 20
0.4418
 30
0.0
 10
8.7378
 20
0.4418
 30
0.0
 10
8.7378
 20
0.4418
 30
0.0
  0
SPLINE
  5
DB
330
1F
100
AcDbEntity
  8
DEFAULT_2
 62
   250
100
AcDbSpline
210
0.0
220
0.0
230
1.0
 70
    24
 71
     3
 72
     8
 73
     4
 74
     0
 42
0.0000000001
 43
0.0000000001
 40
0.0
 40
0.0
 40
0.0
 40
0.0
 40
1.0
 40
1.0
 40
1.0
 40
1.0
 10
9.4346
 20
0.4418
 30
0.0
 10
9.4346
 20
0.4418
 30
0.0
 10
10.7859
 20
0.4418
 30
0.0
 10
10.7859
 20
0.4418
 30
0.0
  0
SPLINE
  5
DC
330
1F
100
AcDbEntity
  8
DEFAULT_2
 62
   250
100
AcDbSpline
210
0.0
220
0.0
230
1.0
 70
    24
 71
     3
 72
     8
 73
     4
 74
     0
 42
0.0000000001
 43
0.0000000001
 40
0.0
 40
0.0
 40
0.0
 40
0.0
 40
1.0
 40
1.0
 40
1.0
 40
1.0
 10
12.2641
 20
0.4418
 30
0.0
 10
12.2641
 20
0.4418
 30
0.0
 10
14.3121
 20
0.4418
 30
0.0
 10
14.3121
 20
0.4418
 30
0.0
  0
SPLINE
  5
DD
330
1F
100
AcDbEntity
  8
DEFAULT_2
 62
   250
100
AcDbSpline
210
0.0
220
0.0
230
1.0
 70
    24
 71
     3
 72
     8
 73
     4
 74
     0
 42
0.0000000001
 43
0.0000000001
 40
0.0
 40
0.0
 40
0.0
 40
0.0
 40
1.0
 40
1.0
 40
1.0
 40
1.0
 10
15.0088
 20
0.4418
 30
0.0
 10
15.0088
 20
0.4418
 30
0.0
 10
16.9249
 20
0.4418
 30
0.0
 10
16.9249
 20
0.4418
 30
0.0
  0
SPLINE
  5
DE
330
1F
100
AcDbEntity
  8
DEFAULT_2
 62
   250
100
AcDbSpline
210
0.0
220
0.0
230
1.0
 70
    24
 71
     3
 72
     8
 73
     4
 74
     0
 42
0.0000000001
 43
0.0000000001
 40
0.0
 40
0.0
 40
0.0
 40
0.0
 40
1.0
 40
1.0
 40
1.0
 40
1.0
 10
17.5825
 20
0.6857
 30
0.0
 10
17.5825
 20
0.6857
 30
0.0
 10
-3.9724
 20
0.6857
 30
0.0
 10
-3.9724
 20
0.6857
 30
0.0
  0
SPLINE
  5
DF
330
1F
100
AcDbEntity
  8
DEFAULT_2
 62
   250
100
AcDbSpline
210
0.0
220
0.0
230
1.0
 70
    24
 71
     3
 72
     8
 73
     4
 74
     0
 42
0.0000000001
 43
0.0000000001
 40
0.0
 40
0.0
 40
0.0
 40
0.0
 40
1.0
 40
1.0
 40
1.0
 40
1.0
 10
17.5825
 20
2.0793
 30
0.0
 10
17.5825
 20
2.0793
 30
0.0
 10
-3.5134
 20
2.0793
 30
0.0
 10
-3.5134
 20
2.0793
 30
0.0
  0
SPLINE
  5
E0
330
1F
100
AcDbEntity
  8
DEFAULT_2
 62
   250
100
AcDbSpline
210
0.0
220
0.0
230
1.0
 70
    24
 71
     3
 72
     8
 73
     4
 74
     0
 42
0.0000000001
 43
0.0000000001
 40
0.0
 40
0.0
 40
0.0
 40
0.0
 40
1.0
 40
1.0
 40
1.0
 40
1.0
 10
11.5249
 20
-6.1775
 30
0.0
 10
11.5249
 20
-6.1775
 30
0.0
 10
11.5249
 20
-7.5362
 30
0.0
 10
11.5249
 20
-7.5362
 30
0.0
  0
SPLINE
  5
E1
330
1F
100
AcDbEntity
  8
DEFAULT_2
 62
   250
100
AcDbSpline
210
0.0
220
0.0
230
1.0
 70
    24
 71
     3
 72
     8
 73
     4
 74
     0
 42
0.0000000001
 43
0.0000000001
 40
0.0
 40
0.0
 40
0.0
 40
0.0
 40
1.0
 40
1.0
 40
1.0
 40
1.0
 10
11.5249
 20
-12.4906
 30
0.0
 10
11.5249
 20
-12.4906
 30
0.0
 10
11.5249
 20
-13.842
 30
0.0
 10
11.5249
 20
-13.842
 30
0.0
  0
SPLINE
  5
E2
330
1F
100
AcDbEntity
  8
DEFAULT_2
 62
   250
100
AcDbSpline
210
0.0
220
0.0
230
1.0
 70
    24
 71
     3
 72
     8
 73
     4
 74
     0
 42
0.0000000001
 43
0.0000000001
 40
0.0
 40
0.0
 40
0.0
 40
0.0
 40
1.0
 40
1.0
 40
1.0
 40
1.0
 10
11.5249
 20
-18.9633
 30
0.0
 10
11.5249
 20
-18.9633
 30
0.0
 10
11.5249
 20
-19.4162
 30
0.0
 10
11.5249
 20
-19.4162
 30
0.0
  0
SPLINE
  5
E3
330
1F
100
AcDbEntity
  8
DEFAULT_2
 62
   250
100
AcDbSpline
210
0.0
220
0.0
230
1.0
 70
    24
 71
     3
 72
     8
 73
     4
 74
     0
 42
0.0000000001
 43
0.0000000001
 40
0.0
 40
0.0
 40
0.0
 40
0.0
 40
1.0
 40
1.0
 40
1.0
 40
1.0
 10
11.5249
 20
-20.1129
 30
0.0
 10
11.5249
 20
-20.1129
 30
0.0
 10
11.5249
 20
-20.6355
 30
0.0
 10
11.5249
 20
-20.6355
 30
0.0
  0
SPLINE
  5
E4
330
1F
100
AcDbEntity
  8
DEFAULT_2
 62
   250
100
AcDbSpline
210
0.0
220
0.0
230
1.0
 70
    24
 71
     3
 72
     8
 73
     4
 74
     0
 42
0.0000000001
 43
0.0000000001
 40
0.0
 40
0.0
 40
0.0
 40
0.0
 40
1.0
 40
1.0
 40
1.0
 40
1.0
 10
11.5249
 20
-0.9866
 30
0.0
 10
11.5249
 20
-0.9866
 30
0.0
 10
11.5249
 20
-0.2972
 30
0.0
 10
11.5249
 20
-0.2972
 30
0.0
  0
SPLINE
  5
E5
330
1F
100
AcDbEntity
  8
DEFAULT_2
 62
   250
100
AcDbSpline
210
0.0
220
0.0
230
1.0
 70
    24
 71
     3
 72
     8
 73
     4
 74
     0
 42
0.0000000001
 43
0.0000000001
 40
0.0
 40
0.0
 40
0.0
 40
0.0
 40
1.0
 40
1.0
 40
1.0
 40
1.0
 10
11.5249
 20
6.016
 30
0.0
 10
11.5249
 20
6.016
 30
0.0
 10
11.5249
 20
7.2354
 30
0.0
 10
11.5249
 20
7.2354
 30
0.0
  0
SPLINE
  5
E6
330
1F
100
AcDbEntity
  8
DEFAULT_2
 62
   250
100
AcDbSpline
210
0.0
220
0.0
230
1.0
 70
    24
 71
     3
 72
     8
 73
     4
 74
     0
 42
0.0000000001
 43
0.0000000001
 40
0.0
 40
0.0
 40
0.0
 40
0.0
 40
1.0
 40
1.0
 40
1.0
 40
1.0
 10
11.5249
 20
12.1127
 30
0.0
 10
11.5249
 20
12.1127
 30
0.0
 10
11.5249
 20
13.6804
 30
0.0
 10
11.5249
 20
13.6804
 30
0.0
  0
SPLINE
  5
E7
330
1F
100
AcDbEntity
  8
DEFAULT_2
 62
   250
100
AcDbSpline
210
0.0
220
0.0
230
1.0
 70
    24
 71
     3
 72
     8
 73
     4
 74
     0
 42
0.0000000001
 43
0.0000000001
 40
0.0
 40
0.0
 40
0.0
 40
0.0
 40
1.0
 40
1.0
 40
1.0
 40
1.0
 10
9.4346
 20
13.5781
 30
0.0
 10
9.4346
 20
13.5781
 30
0.0
 10
9.4346
 20
12.1127
 30
0.0
 10
9.4346
 20
12.1127
 30
0.0
  0
SPLINE
  5
E8
330
1F
100
AcDbEntity
  8
DEFAULT_2
 62
   250
100
AcDbSpline
210
0.0
220
0.0
230
1.0
 70
    24
 71
     3
 72
     8
 73
     4
 74
     0
 42
0.0000000001
 43
0.0000000001
 40
0.0
 40
0.0
 40
0.0
 40
0.0
 40
1.0
 40
1.0
 40
1.0
 40
1.0
 10
9.4346
 20
7.2354
 30
0.0
 10
9.4346
 20
7.2354
 30
0.0
 10
9.4346
 20
6.016
 30
0.0
 10
9.4346
 20
6.016
 30
0.0
  0
SPLINE
  5
E9
330
1F
100
AcDbEntity
  8
DEFAULT_2
 62
   250
100
AcDbSpline
210
0.0
220
0.0
230
1.0
 70
    24
 71
     3
 72
     8
 73
     4
 74
     0
 42
0.0000000001
 43
0.0000000001
 40
0.0
 40
0.0
 40
0.0
 40
0.0
 40
1.0
 40
1.0
 40
1.0
 40
1.0
 10
9.4346
 20
0.6857
 30
0.0
 10
9.4346
 20
0.6857
 30
0.0
 10
9.4346
 20
0.4418
 30
0.0
 10
9.4346
 20
0.4418
 30
0.0
  0
SPLINE
  5
EA
330
1F
100
AcDbEntity
  8
DEFAULT_2
 62
   250
100
AcDbSpline
210
0.0
220
0.0
230
1.0
 70
    24
 71
     3
 72
     8
 73
     4
 74
     0
 42
0.0000000001
 43
0.0000000001
 40
0.0
 40
0.0
 40
0.0
 40
0.0
 40
1.0
 40
1.0
 40
1.0
 40
1.0
 10
9.4346
 20
-0.255
 30
0.0
 10
9.4346
 20
-0.255
 30
0.0
 10
9.4346
 20
-0.9866
 30
0.0
 10
9.4346
 20
-0.9866
 30
0.0
  0
SPLINE
  5
EB
330
1F
100
AcDbEntity
  8
DEFAULT_2
 62
   250
100
AcDbSpline
210
0.0
220
0.0
230
1.0
 70
    24
 71
     3
 72
     8
 73
     4
 74
     0
 42
0.0000000001
 43
0.0000000001
 40
0.0
 40
0.0
 40
0.0
 40
0.0
 40
1.0
 40
1.0
 40
1.0
 40
1.0
 10
9.4346
 20
-20.6355
 30
0.0
 10
9.4346
 20
-20.6355
 30
0.0
 10
9.4346
 20
-20.1129
 30
0.0
 10
9.4346
 20
-20.1129
 30
0.0
  0
SPLINE
  5
EC
330
1F
100
AcDbEntity
  8
DEFAULT_2
 62
   250
100
AcDbSpline
210
0.0
220
0.0
230
1.0
 70
    24
 71
     3
 72
     8
 73
     4
 74
     0
 42
0.0000000001
 43
0.0000000001
 40
0.0
 40
0.0
 40
0.0
 40
0.0
 40
1.0
 40
1.0
 40
1.0
 40
1.0
 10
9.4346
 20
-19.4162
 30
0.0
 10
9.4346
 20
-19.4162
 30
0.0
 10
9.4346
 20
-18.9633
 30
0.0
 10
9.4346
 20
-18.9633
 30
0.0
  0
SPLINE
  5
ED
330
1F
100
AcDbEntity
  8
DEFAULT_2
 62
   250
100
AcDbSpline
210
0.0
220
0.0
230
1.0
 70
    24
 71
     3
 72
     8
 73
     4
 74
     0
 42
0.0000000001
 43
0.0000000001
 40
0.0
 40
0.0
 40
0.0
 40
0.0
 40
1.0
 40
1.0
 40
1.0
 40
1.0
 10
9.4346
 20
-13.1029
 30
0.0
 10
9.4346
 20
-13.1029
 30
0.0
 10
9.4346
 20
-12.4136
 30
0.0
 10
9.4346
 20
-12.4136
 30
0.0
  0
SPLINE
  5
EE
330
1F
100
AcDbEntity
  8
DEFAULT_2
 62
   250
100
AcDbSpline
210
0.0
220
0.0
230
1.0
 70
    24
 71
     3
 72
     8
 73
     4
 74
     0
 42
0.0000000001
 43
0.0000000001
 40
0.0
 40
0.0
 40
0.0
 40
0.0
 40
1.0
 40
1.0
 40
1.0
 40
1.0
 10
9.4346
 20
-7.5362
 30
0.0
 10
9.4346
 20
-7.5362
 30
0.0
 10
9.4346
 20
-6.1775
 30
0.0
 10
9.4346
 20
-6.1775
 30
0.0
  0
SPLINE
  5
EF
330
1F
100
AcDbEntity
  8
DEFAULT_2
 62
   250
100
AcDbSpline
210
0.0
220
0.0
230
1.0
 70
    24
 71
     3
 72
     8
 73
     4
 74
     0
 42
0.0000000001
 43
0.0000000001
 40
0.0
 40
0.0
 40
0.0
 40
0.0
 40
1.0
 40
1.0
 40
1.0
 40
1.0
 10
16.9249
 20
4.5446
 30
0.0
 10
16.9249
 20
4.5446
 30
0.0
 10
17.7
 20
4.5446
 30
0.0
 10
17.7
 20
4.5446
 30
0.0
  0
SPLINE
  5
F0
330
1F
100
AcDbEntity
  8
DEFAULT_2
 62
   250
100
AcDbSpline
210
0.0
220
0.0
230
1.0
 70
    24
 71
     3
 72
     8
 73
     4
 74
     0
 42
0.0000000001
 43
0.0000000001
 40
0.0
 40
0.0
 40
0.0
 40
0.0
 40
1.0
 40
1.0
 40
1.0
 40
1.0
 10
16.9249
 20
5.5631
 30
0.0
 10
16.9249
 20
5.5631
 30
0.0
 10
-1.8763
 20
5.5631
 30
0.0
 10
-1.8763
 20
5.5631
 30
0.0
  0
SPLINE
  5
F1
330
1F
100
AcDbEntity
  8
DEFAULT_2
 62
   250
100
AcDbSpline
210
0.0
220
0.0
230
1.0
 70
    24
 71
     3
 72
     8
 73
     4
 74
     0
 42
0.0000000001
 43
0.0000000001
 40
0.0
 40
0.0
 40
0.0
 40
0.0
 40
1.0
 40
1.0
 40
1.0
 40
1.0
 10
8.7378
 20
-6.1775
 30
0.0
 10
8.7378
 20
-6.1775
 30
0.0
 10
8.7378
 20
-7.5362
 30
0.0
 10
8.7378
 20
-7.5362
 30
0.0
  0
SPLINE
  5
F2
330
1F
100
AcDbEntity
  8
DEFAULT_2
 62
   250
100
AcDbSpline
210
0.0
220
0.0
230
1.0
 70
    24
 71
     3
 72
     8
 73
     4
 74
     0
 42
0.0000000001
 43
0.0000000001
 40
0.0
 40
0.0
 40
0.0
 40
0.0
 40
1.0
 40
1.0
 40
1.0
 40
1.0
 10
8.7378
 20
-12.4136
 30
0.0
 10
8.7378
 20
-12.4136
 30
0.0
 10
8.7378
 20
-13.7996
 30
0.0
 10
8.7378
 20
-13.7996
 30
0.0
  0
SPLINE
  5
F3
330
1F
100
AcDbEntity
  8
DEFAULT_2
 62
   250
100
AcDbSpline
210
0.0
220
0.0
230
1.0
 70
    24
 71
     3
 72
     8
 73
     4
 74
     0
 42
0.0000000001
 43
0.0000000001
 40
0.0
 40
0.0
 40
0.0
 40
0.0
 40
1.0
 40
1.0
 40
1.0
 40
1.0
 10
8.7378
 20
-18.9633
 30
0.0
 10
8.7378
 20
-18.9633
 30
0.0
 10
8.7378
 20
-19.4162
 30
0.0
 10
8.7378
 20
-19.4162
 30
0.0
  0
SPLINE
  5
F4
330
1F
100
AcDbEntity
  8
DEFAULT_2
 62
   250
100
AcDbSpline
210
0.0
220
0.0
230
1.0
 70
    24
 71
     3
 72
     8
 73
     4
 74
     0
 42
0.0000000001
 43
0.0000000001
 40
0.0
 40
0.0
 40
0.0
 40
0.0
 40
1.0
 40
1.0
 40
1.0
 40
1.0
 10
8.7378
 20
-20.1129
 30
0.0
 10
8.7378
 20
-20.1129
 30
0.0
 10
8.7378
 20
-20.6355
 30
0.0
 10
8.7378
 20
-20.6355
 30
0.0
  0
SPLINE
  5
F5
330
1F
100
AcDbEntity
  8
DEFAULT_2
 62
   250
100
AcDbSpline
210
0.0
220
0.0
230
1.0
 70
    24
 71
     3
 72
     8
 73
     4
 74
     0
 42
0.0000000001
 43
0.0000000001
 40
0.0
 40
0.0
 40
0.0
 40
0.0
 40
1.0
 40
1.0
 40
1.0
 40
1.0
 10
8.7378
 20
-0.9866
 30
0.0
 10
8.7378
 20
-0.9866
 30
0.0
 10
8.7378
 20
-0.255
 30
0.0
 10
8.7378
 20
-0.255
 30
0.0
  0
SPLINE
  5
F6
330
1F
100
AcDbEntity
  8
DEFAULT_2
 62
   250
100
AcDbSpline
210
0.0
220
0.0
230
1.0
 70
    24
 71
     3
 72
     8
 73
     4
 74
     0
 42
0.0000000001
 43
0.0000000001
 40
0.0
 40
0.0
 40
0.0
 40
0.0
 40
1.0
 40
1.0
 40
1.0
 40
1.0
 10
8.7378
 20
0.4418
 30
0.0
 10
8.7378
 20
0.4418
 30
0.0
 10
8.7378
 20
0.6857
 30
0.0
 10
8.7378
 20
0.6857
 30
0.0
  0
SPLINE
  5
F7
330
1F
100
AcDbEntity
  8
DEFAULT_2
 62
   250
100
AcDbSpline
210
0.0
220
0.0
230
1.0
 70
    24
 71
     3
 72
     8
 73
     4
 74
     0
 42
0.0000000001
 43
0.0000000001
 40
0.0
 40
0.0
 40
0.0
 40
0.0
 40
1.0
 40
1.0
 40
1.0
 40
1.0
 10
8.7378
 20
6.016
 30
0.0
 10
8.7378
 20
6.016
 30
0.0
 10
8.7378
 20
7.2354
 30
0.0
 10
8.7378
 20
7.2354
 30
0.0
  0
SPLINE
  5
F8
330
1F
100
AcDbEntity
  8
DEFAULT_2
 62
   250
100
AcDbSpline
210
0.0
220
0.0
230
1.0
 70
    24
 71
     3
 72
     8
 73
     4
 74
     0
 42
0.0000000001
 43
0.0000000001
 40
0.0
 40
0.0
 40
0.0
 40
0.0
 40
1.0
 40
1.0
 40
1.0
 40
1.0
 10
8.7378
 20
12.1127
 30
0.0
 10
8.7378
 20
12.1127
 30
0.0
 10
8.7378
 20
13.2664
 30
0.0
 10
8.7378
 20
13.2664
 30
0.0
  0
SPLINE
  5
F9
330
1F
100
AcDbEntity
  8
DEFAULT_2
 62
   250
100
AcDbSpline
210
0.0
220
0.0
230
1.0
 70
    24
 71
     3
 72
     8
 73
     4
 74
     0
 42
0.0000000001
 43
0.0000000001
 40
0.0
 40
0.0
 40
0.0
 40
0.0
 40
1.0
 40
1.0
 40
1.0
 40
1.0
 10
6.6475
 20
12.1359
 30
0.0
 10
6.6475
 20
12.1359
 30
0.0
 10
6.6475
 20
12.1127
 30
0.0
 10
6.6475
 20
12.1127
 30
0.0
  0
SPLINE
  5
FA
330
1F
100
AcDbEntity
  8
DEFAULT_2
 62
   250
100
AcDbSpline
210
0.0
220
0.0
230
1.0
 70
    24
 71
     3
 72
     8
 73
     4
 74
     0
 42
0.0000000001
 43
0.0000000001
 40
0.0
 40
0.0
 40
0.0
 40
0.0
 40
1.0
 40
1.0
 40
1.0
 40
1.0
 10
6.6475
 20
7.2354
 30
0.0
 10
6.6475
 20
7.2354
 30
0.0
 10
6.6475
 20
6.0583
 30
0.0
 10
6.6475
 20
6.0583
 30
0.0
  0
SPLINE
  5
FB
330
1F
100
AcDbEntity
  8
DEFAULT_2
 62
   250
100
AcDbSpline
210
0.0
220
0.0
230
1.0
 70
    24
 71
     3
 72
     8
 73
     4
 74
     0
 42
0.0000000001
 43
0.0000000001
 40
0.0
 40
0.0
 40
0.0
 40
0.0
 40
1.0
 40
1.0
 40
1.0
 40
1.0
 10
6.6475
 20
0.6857
 30
0.0
 10
6.6475
 20
0.6857
 30
0.0
 10
6.6475
 20
0.4418
 30
0.0
 10
6.6475
 20
0.4418
 30
0.0
  0
SPLINE
  5
FC
330
1F
100
AcDbEntity
  8
DEFAULT_2
 62
   250
100
AcDbSpline
210
0.0
220
0.0
230
1.0
 70
    24
 71
     3
 72
     8
 73
     4
 74
     0
 42
0.0000000001
 43
0.0000000001
 40
0.0
 40
0.0
 40
0.0
 40
0.0
 40
1.0
 40
1.0
 40
1.0
 40
1.0
 10
6.6475
 20
-0.255
 30
0.0
 10
6.6475
 20
-0.255
 30
0.0
 10
6.6475
 20
-0.9866
 30
0.0
 10
6.6475
 20
-0.9866
 30
0.0
  0
SPLINE
  5
FD
330
1F
100
AcDbEntity
  8
DEFAULT_2
 62
   250
100
AcDbSpline
210
0.0
220
0.0
230
1.0
 70
    24
 71
     3
 72
     8
 73
     4
 74
     0
 42
0.0000000001
 43
0.0000000001
 40
0.0
 40
0.0
 40
0.0
 40
0.0
 40
1.0
 40
1.0
 40
1.0
 40
1.0
 10
6.6475
 20
-20.6355
 30
0.0
 10
6.6475
 20
-20.6355
 30
0.0
 10
6.6475
 20
-20.1129
 30
0.0
 10
6.6475
 20
-20.1129
 30
0.0
  0
SPLINE
  5
FE
330
1F
100
AcDbEntity
  8
DEFAULT_2
 62
   250
100
AcDbSpline
210
0.0
220
0.0
230
1.0
 70
    24
 71
     3
 72
     8
 73
     4
 74
     0
 42
0.0000000001
 43
0.0000000001
 40
0.0
 40
0.0
 40
0.0
 40
0.0
 40
1.0
 40
1.0
 40
1.0
 40
1.0
 10
6.6475
 20
-19.4162
 30
0.0
 10
6.6475
 20
-19.4162
 30
0.0
 10
6.6475
 20
-18.9633
 30
0.0
 10
6.6475
 20
-18.9633
 30
0.0
  0
SPLINE
  5
FF
330
1F
100
AcDbEntity
  8
DEFAULT_2
 62
   250
100
AcDbSpline
210
0.0
220
0.0
230
1.0
 70
    24
 71
     3
 72
     8
 73
     4
 74
     0
 42
0.0000000001
 43
0.0000000001
 40
0.0
 40
0.0
 40
0.0
 40
0.0
 40
1.0
 40
1.0
 40
1.0
 40
1.0
 10
6.6475
 20
-13.842
 30
0.0
 10
6.6475
 20
-13.842
 30
0.0
 10
6.6475
 20
-12.4136
 30
0.0
 10
6.6475
 20
-12.4136
 30
0.0
  0
SPLINE
  5
100
330
1F
100
AcDbEntity
  8
DEFAULT_2
 62
   250
100
AcDbSpline
210
0.0
220
0.0
230
1.0
 70
    24
 71
     3
 72
     8
 73
     4
 74
     0
 42
0.0000000001
 43
0.0000000001
 40
0.0
 40
0.0
 40
0.0
 40
0.0
 40
1.0
 40
1.0
 40
1.0
 40
1.0
 10
6.6475
 20
-7.5362
 30
0.0
 10
6.6475
 20
-7.5362
 30
0.0
 10
6.6475
 20
-6.1775
 30
0.0
 10
6.6475
 20
-6.1775
 30
0.0
  0
SPLINE
  5
101
330
1F
100
AcDbEntity
  8
DEFAULT_2
 62
   250
100
AcDbSpline
210
0.0
220
0.0
230
1.0
 70
    24
 71
     3
 72
     8
 73
     4
 74
     0
 42
0.0000000001
 43
0.0000000001
 40
0.0
 40
0.0
 40
0.0
 40
0.0
 40
1.0
 40
1.0
 40
1.0
 40
1.0
 10
0.2802
 20
6.016
 30
0.0
 10
0.2802
 20
6.016
 30
0.0
 10
0.3765
 20
6.016
 30
0.0
 10
0.3765
 20
6.016
 30
0.0
  0
SPLINE
  5
102
330
1F
100
AcDbEntity
  8
DEFAULT_2
 62
   250
100
AcDbSpline
210
0.0
220
0.0
230
1.0
 70
    24
 71
     3
 72
     8
 73
     4
 74
     0
 42
0.0000000001
 43
0.0000000001
 40
0.0
 40
0.0
 40
0.0
 40
0.0
 40
1.0
 40
1.0
 40
1.0
 40
1.0
 10
1.0734
 20
6.016
 30
0.0
 10
1.0734
 20
6.016
 30
0.0
 10
3.1637
 20
6.016
 30
0.0
 10
3.1637
 20
6.016
 30
0.0
  0
SPLINE
  5
103
330
1F
100
AcDbEntity
  8
DEFAULT_2
 62
   250
100
AcDbSpline
210
0.0
220
0.0
230
1.0
 70
    24
 71
     3
 72
     8
 73
     4
 74
     0
 42
0.0000000001
 43
0.0000000001
 40
0.0
 40
0.0
 40
0.0
 40
0.0
 40
1.0
 40
1.0
 40
1.0
 40
1.0
 10
3.8604
 20
6.016
 30
0.0
 10
3.8604
 20
6.016
 30
0.0
 10
5.2118
 20
6.016
 30
0.0
 10
5.2118
 20
6.016
 30
0.0
  0
SPLINE
  5
104
330
1F
100
AcDbEntity
  8
DEFAULT_2
 62
   250
100
AcDbSpline
210
0.0
220
0.0
230
1.0
 70
    24
 71
     3
 72
     8
 73
     4
 74
     0
 42
0.0000000001
 43
0.0000000001
 40
0.0
 40
0.0
 40
0.0
 40
0.0
 40
1.0
 40
1.0
 40
1.0
 40
1.0
 10
6.6899
 20
6.016
 30
0.0
 10
6.6899
 20
6.016
 30
0.0
 10
8.7378
 20
6.016
 30
0.0
 10
8.7378
 20
6.016
 30
0.0
  0
SPLINE
  5
105
330
1F
100
AcDbEntity
  8
DEFAULT_2
 62
   250
100
AcDbSpline
210
0.0
220
0.0
230
1.0
 70
    24
 71
     3
 72
     8
 73
     4
 74
     0
 42
0.0000000001
 43
0.0000000001
 40
0.0
 40
0.0
 40
0.0
 40
0.0
 40
1.0
 40
1.0
 40
1.0
 40
1.0
 10
9.4346
 20
6.016
 30
0.0
 10
9.4346
 20
6.016
 30
0.0
 10
11.5249
 20
6.016
 30
0.0
 10
11.5249
 20
6.016
 30
0.0
  0
SPLINE
  5
106
330
1F
100
AcDbEntity
  8
DEFAULT_2
 62
   250
100
AcDbSpline
210
0.0
220
0.0
230
1.0
 70
    24
 71
     3
 72
     8
 73
     4
 74
     0
 42
0.0000000001
 43
0.0000000001
 40
0.0
 40
0.0
 40
0.0
 40
0.0
 40
1.0
 40
1.0
 40
1.0
 40
1.0
 10
12.2216
 20
6.016
 30
0.0
 10
12.2216
 20
6.016
 30
0.0
 10
14.3121
 20
6.016
 30
0.0
 10
14.3121
 20
6.016
 30
0.0
  0
SPLINE
  5
107
330
1F
100
AcDbEntity
  8
DEFAULT_2
 62
   250
100
AcDbSpline
210
0.0
220
0.0
230
1.0
 70
    24
 71
     3
 72
     8
 73
     4
 74
     0
 42
0.0000000001
 43
0.0000000001
 40
0.0
 40
0.0
 40
0.0
 40
0.0
 40
1.0
 40
1.0
 40
1.0
 40
1.0
 10
15.0088
 20
6.016
 30
0.0
 10
15.0088
 20
6.016
 30
0.0
 10
16.9249
 20
6.016
 30
0.0
 10
16.9249
 20
6.016
 30
0.0
  0
SPLINE
  5
108
330
1F
100
AcDbEntity
  8
DEFAULT_2
 62
   250
100
AcDbSpline
210
0.0
220
0.0
230
1.0
 70
    24
 71
     3
 72
     8
 73
     4
 74
     0
 42
0.0000000001
 43
0.0000000001
 40
0.0
 40
0.0
 40
0.0
 40
0.0
 40
1.0
 40
1.0
 40
1.0
 40
1.0
 10
17.6608
 20
7.2354
 30
0.0
 10
17.6608
 20
7.2354
 30
0.0
 10
-0.8267
 20
7.2354
 30
0.0
 10
-0.8267
 20
7.2354
 30
0.0
  0
SPLINE
  5
109
330
1F
100
AcDbEntity
  8
DEFAULT_2
 62
   250
100
AcDbSpline
210
0.0
220
0.0
230
1.0
 70
    24
 71
     3
 72
     8
 73
     4
 74
     0
 42
0.0000000001
 43
0.0000000001
 40
0.0
 40
0.0
 40
0.0
 40
0.0
 40
1.0
 40
1.0
 40
1.0
 40
1.0
 10
5.9508
 20
-6.1775
 30
0.0
 10
5.9508
 20
-6.1775
 30
0.0
 10
5.9508
 20
-7.5362
 30
0.0
 10
5.9508
 20
-7.5362
 30
0.0
  0
SPLINE
  5
10A
330
1F
100
AcDbEntity
  8
DEFAULT_2
 62
   250
100
AcDbSpline
210
0.0
220
0.0
230
1.0
 70
    24
 71
     3
 72
     8
 73
     4
 74
     0
 42
0.0000000001
 43
0.0000000001
 40
0.0
 40
0.0
 40
0.0
 40
0.0
 40
1.0
 40
1.0
 40
1.0
 40
1.0
 10
5.9508
 20
-12.4136
 30
0.0
 10
5.9508
 20
-12.4136
 30
0.0
 10
5.9508
 20
-13.842
 30
0.0
 10
5.9508
 20
-13.842
 30
0.0
  0
SPLINE
  5
10B
330
1F
100
AcDbEntity
  8
DEFAULT_2
 62
   250
100
AcDbSpline
210
0.0
220
0.0
230
1.0
 70
    24
 71
     3
 72
     8
 73
     4
 74
     0
 42
0.0000000001
 43
0.0000000001
 40
0.0
 40
0.0
 40
0.0
 40
0.0
 40
1.0
 40
1.0
 40
1.0
 40
1.0
 10
5.9508
 20
-18.9633
 30
0.0
 10
5.9508
 20
-18.9633
 30
0.0
 10
5.9508
 20
-19.4162
 30
0.0
 10
5.9508
 20
-19.4162
 30
0.0
  0
SPLINE
  5
10C
330
1F
100
AcDbEntity
  8
DEFAULT_2
 62
   250
100
AcDbSpline
210
0.0
220
0.0
230
1.0
 70
    24
 71
     3
 72
     8
 73
     4
 74
     0
 42
0.0000000001
 43
0.0000000001
 40
0.0
 40
0.0
 40
0.0
 40
0.0
 40
1.0
 40
1.0
 40
1.0
 40
1.0
 10
5.9508
 20
-20.1129
 30
0.0
 10
5.9508
 20
-20.1129
 30
0.0
 10
5.9508
 20
-20.6355
 30
0.0
 10
5.9508
 20
-20.6355
 30
0.0
  0
SPLINE
  5
10D
330
1F
100
AcDbEntity
  8
DEFAULT_2
 62
   250
100
AcDbSpline
210
0.0
220
0.0
230
1.0
 70
    24
 71
     3
 72
     8
 73
     4
 74
     0
 42
0.0000000001
 43
0.0000000001
 40
0.0
 40
0.0
 40
0.0
 40
0.0
 40
1.0
 40
1.0
 40
1.0
 40
1.0
 10
5.9508
 20
-0.9866
 30
0.0
 10
5.9508
 20
-0.9866
 30
0.0
 10
5.9508
 20
-0.255
 30
0.0
 10
5.9508
 20
-0.255
 30
0.0
  0
SPLINE
  5
10E
330
1F
100
AcDbEntity
  8
DEFAULT_2
 62
   250
100
AcDbSpline
210
0.0
220
0.0
230
1.0
 70
    24
 71
     3
 72
     8
 73
     4
 74
     0
 42
0.0000000001
 43
0.0000000001
 40
0.0
 40
0.0
 40
0.0
 40
0.0
 40
1.0
 40
1.0
 40
1.0
 40
1.0
 10
5.9508
 20
0.4418
 30
0.0
 10
5.9508
 20
0.4418
 30
0.0
 10
5.9508
 20
0.6857
 30
0.0
 10
5.9508
 20
0.6857
 30
0.0
  0
SPLINE
  5
10F
330
1F
100
AcDbEntity
  8
DEFAULT_2
 62
   250
100
AcDbSpline
210
0.0
220
0.0
230
1.0
 70
    24
 71
     3
 72
     8
 73
     4
 74
     0
 42
0.0000000001
 43
0.0000000001
 40
0.0
 40
0.0
 40
0.0
 40
0.0
 40
1.0
 40
1.0
 40
1.0
 40
1.0
 10
5.9508
 20
6.7551
 30
0.0
 10
5.9508
 20
6.7551
 30
0.0
 10
5.9508
 20
7.2354
 30
0.0
 10
5.9508
 20
7.2354
 30
0.0
  0
SPLINE
  5
110
330
1F
100
AcDbEntity
  8
DEFAULT_2
 62
   250
100
AcDbSpline
210
0.0
220
0.0
230
1.0
 70
    24
 71
     3
 72
     8
 73
     4
 74
     0
 42
0.0000000001
 43
0.0000000001
 40
0.0
 40
0.0
 40
0.0
 40
0.0
 40
1.0
 40
1.0
 40
1.0
 40
1.0
 10
3.8604
 20
7.2354
 30
0.0
 10
3.8604
 20
7.2354
 30
0.0
 10
3.8604
 20
6.016
 30
0.0
 10
3.8604
 20
6.016
 30
0.0
  0
SPLINE
  5
111
330
1F
100
AcDbEntity
  8
DEFAULT_2
 62
   250
100
AcDbSpline
210
0.0
220
0.0
230
1.0
 70
    24
 71
     3
 72
     8
 73
     4
 74
     0
 42
0.0000000001
 43
0.0000000001
 40
0.0
 40
0.0
 40
0.0
 40
0.0
 40
1.0
 40
1.0
 40
1.0
 40
1.0
 10
3.8604
 20
0.6857
 30
0.0
 10
3.8604
 20
0.6857
 30
0.0
 10
3.8604
 20
0.4418
 30
0.0
 10
3.8604
 20
0.4418
 30
0.0
  0
SPLINE
  5
112
330
1F
100
AcDbEntity
  8
DEFAULT_2
 62
   250
100
AcDbSpline
210
0.0
220
0.0
230
1.0
 70
    24
 71
     3
 72
     8
 73
     4
 74
     0
 42
0.0000000001
 43
0.0000000001
 40
0.0
 40
0.0
 40
0.0
 40
0.0
 40
1.0
 40
1.0
 40
1.0
 40
1.0
 10
3.8604
 20
-0.255
 30
0.0
 10
3.8604
 20
-0.255
 30
0.0
 10
3.8604
 20
-0.9866
 30
0.0
 10
3.8604
 20
-0.9866
 30
0.0
  0
SPLINE
  5
113
330
1F
100
AcDbEntity
  8
DEFAULT_2
 62
   250
100
AcDbSpline
210
0.0
220
0.0
230
1.0
 70
    24
 71
     3
 72
     8
 73
     4
 74
     0
 42
0.0000000001
 43
0.0000000001
 40
0.0
 40
0.0
 40
0.0
 40
0.0
 40
1.0
 40
1.0
 40
1.0
 40
1.0
 10
3.8604
 20
-20.6355
 30
0.0
 10
3.8604
 20
-20.6355
 30
0.0
 10
3.8604
 20
-20.1552
 30
0.0
 10
3.8604
 20
-20.1552
 30
0.0
  0
SPLINE
  5
114
330
1F
100
AcDbEntity
  8
DEFAULT_2
 62
   250
100
AcDbSpline
210
0.0
220
0.0
230
1.0
 70
    24
 71
     3
 72
     8
 73
     4
 74
     0
 42
0.0000000001
 43
0.0000000001
 40
0.0
 40
0.0
 40
0.0
 40
0.0
 40
1.0
 40
1.0
 40
1.0
 40
1.0
 10
3.8604
 20
-13.842
 30
0.0
 10
3.8604
 20
-13.842
 30
0.0
 10
3.8604
 20
-12.4136
 30
0.0
 10
3.8604
 20
-12.4136
 30
0.0
  0
SPLINE
  5
115
330
1F
100
AcDbEntity
  8
DEFAULT_2
 62
   250
100
AcDbSpline
210
0.0
220
0.0
230
1.0
 70
    24
 71
     3
 72
     8
 73
     4
 74
     0
 42
0.0000000001
 43
0.0000000001
 40
0.0
 40
0.0
 40
0.0
 40
0.0
 40
1.0
 40
1.0
 40
1.0
 40
1.0
 10
3.8604
 20
-7.5362
 30
0.0
 10
3.8604
 20
-7.5362
 30
0.0
 10
3.8604
 20
-6.1775
 30
0.0
 10
3.8604
 20
-6.1775
 30
0.0
  0
SPLINE
  5
116
330
1F
100
AcDbEntity
  8
DEFAULT_2
 62
   250
100
AcDbSpline
210
0.0
220
0.0
230
1.0
 70
    24
 71
     3
 72
     8
 73
     4
 74
     0
 42
0.0000000001
 43
0.0000000001
 40
0.0
 40
0.0
 40
0.0
 40
0.0
 40
1.0
 40
1.0
 40
1.0
 40
1.0
 10
17.6608
 20
8.6288
 30
0.0
 10
17.6608
 20
8.6288
 30
0.0
 10
0.2297
 20
8.6288
 30
0.0
 10
0.2297
 20
8.6288
 30
0.0
  0
SPLINE
  5
117
330
1F
100
AcDbEntity
  8
DEFAULT_2
 62
   250
100
AcDbSpline
210
0.0
220
0.0
230
1.0
 70
    24
 71
     3
 72
     8
 73
     4
 74
     0
 42
0.0000000001
 43
0.0000000001
 40
0.0
 40
0.0
 40
0.0
 40
0.0
 40
1.0
 40
1.0
 40
1.0
 40
1.0
 10
16.9249
 20
11.0942
 30
0.0
 10
16.9249
 20
11.0942
 30
0.0
 10
17.6608
 20
11.0942
 30
0.0
 10
17.6608
 20
11.0942
 30
0.0
  0
SPLINE
  5
118
330
1F
100
AcDbEntity
  8
DEFAULT_2
 62
   250
100
AcDbSpline
210
0.0
220
0.0
230
1.0
 70
    24
 71
     3
 72
     8
 73
     4
 74
     0
 42
0.0000000001
 43
0.0000000001
 40
0.0
 40
0.0
 40
0.0
 40
0.0
 40
1.0
 40
1.0
 40
1.0
 40
1.0
 10
3.1637
 20
-6.1775
 30
0.0
 10
3.1637
 20
-6.1775
 30
0.0
 10
3.1637
 20
-7.5362
 30
0.0
 10
3.1637
 20
-7.5362
 30
0.0
  0
SPLINE
  5
119
330
1F
100
AcDbEntity
  8
DEFAULT_2
 62
   250
100
AcDbSpline
210
0.0
220
0.0
230
1.0
 70
    24
 71
     3
 72
     8
 73
     4
 74
     0
 42
0.0000000001
 43
0.0000000001
 40
0.0
 40
0.0
 40
0.0
 40
0.0
 40
1.0
 40
1.0
 40
1.0
 40
1.0
 10
3.1637
 20
-12.4136
 30
0.0
 10
3.1637
 20
-12.4136
 30
0.0
 10
3.1637
 20
-13.842
 30
0.0
 10
3.1637
 20
-13.842
 30
0.0
  0
SPLINE
  5
11A
330
1F
100
AcDbEntity
  8
DEFAULT_2
 62
   250
100
AcDbSpline
210
0.0
220
0.0
230
1.0
 70
    24
 71
     3
 72
     8
 73
     4
 74
     0
 42
0.0000000001
 43
0.0000000001
 40
0.0
 40
0.0
 40
0.0
 40
0.0
 40
1.0
 40
1.0
 40
1.0
 40
1.0
 10
3.1637
 20
-18.9633
 30
0.0
 10
3.1637
 20
-18.9633
 30
0.0
 10
3.1637
 20
-19.3739
 30
0.0
 10
3.1637
 20
-19.3739
 30
0.0
  0
SPLINE
  5
11B
330
1F
100
AcDbEntity
  8
DEFAULT_2
 62
   250
100
AcDbSpline
210
0.0
220
0.0
230
1.0
 70
    24
 71
     3
 72
     8
 73
     4
 74
     0
 42
0.0000000001
 43
0.0000000001
 40
0.0
 40
0.0
 40
0.0
 40
0.0
 40
1.0
 40
1.0
 40
1.0
 40
1.0
 10
3.1637
 20
-0.9866
 30
0.0
 10
3.1637
 20
-0.9866
 30
0.0
 10
3.1637
 20
-0.255
 30
0.0
 10
3.1637
 20
-0.255
 30
0.0
  0
SPLINE
  5
11C
330
1F
100
AcDbEntity
  8
DEFAULT_2
 62
   250
100
AcDbSpline
210
0.0
220
0.0
230
1.0
 70
    24
 71
     3
 72
     8
 73
     4
 74
     0
 42
0.0000000001
 43
0.0000000001
 40
0.0
 40
0.0
 40
0.0
 40
0.0
 40
1.0
 40
1.0
 40
1.0
 40
1.0
 10
3.1637
 20
0.4418
 30
0.0
 10
3.1637
 20
0.4418
 30
0.0
 10
3.1637
 20
0.6857
 30
0.0
 10
3.1637
 20
0.6857
 30
0.0
  0
SPLINE
  5
11D
330
1F
100
AcDbEntity
  8
DEFAULT_2
 62
   250
100
AcDbSpline
210
0.0
220
0.0
230
1.0
 70
    24
 71
     3
 72
     8
 73
     4
 74
     0
 42
0.0000000001
 43
0.0000000001
 40
0.0
 40
0.0
 40
0.0
 40
0.0
 40
1.0
 40
1.0
 40
1.0
 40
1.0
 10
3.1637
 20
6.016
 30
0.0
 10
3.1637
 20
6.016
 30
0.0
 10
3.1637
 20
7.2354
 30
0.0
 10
3.1637
 20
7.2354
 30
0.0
  0
SPLINE
  5
11E
330
1F
100
AcDbEntity
  8
DEFAULT_2
 62
   250
100
AcDbSpline
210
0.0
220
0.0
230
1.0
 70
    24
 71
     3
 72
     8
 73
     4
 74
     0
 42
0.0000000001
 43
0.0000000001
 40
0.0
 40
0.0
 40
0.0
 40
0.0
 40
1.0
 40
1.0
 40
1.0
 40
1.0
 10
1.0734
 20
7.1159
 30
0.0
 10
1.0734
 20
7.1159
 30
0.0
 10
1.0734
 20
6.016
 30
0.0
 10
1.0734
 20
6.016
 30
0.0
  0
SPLINE
  5
11F
330
1F
100
AcDbEntity
  8
DEFAULT_2
 62
   250
100
AcDbSpline
210
0.0
220
0.0
230
1.0
 70
    24
 71
     3
 72
     8
 73
     4
 74
     0
 42
0.0000000001
 43
0.0000000001
 40
0.0
 40
0.0
 40
0.0
 40
0.0
 40
1.0
 40
1.0
 40
1.0
 40
1.0
 10
1.0734
 20
0.6857
 30
0.0
 10
1.0734
 20
0.6857
 30
0.0
 10
1.0734
 20
0.4418
 30
0.0
 10
1.0734
 20
0.4418
 30
0.0
  0
SPLINE
  5
120
330
1F
100
AcDbEntity
  8
DEFAULT_2
 62
   250
100
AcDbSpline
210
0.0
220
0.0
230
1.0
 70
    24
 71
     3
 72
     8
 73
     4
 74
     0
 42
0.0000000001
 43
0.0000000001
 40
0.0
 40
0.0
 40
0.0
 40
0.0
 40
1.0
 40
1.0
 40
1.0
 40
1.0
 10
1.0734
 20
-0.255
 30
0.0
 10
1.0734
 20
-0.255
 30
0.0
 10
1.0734
 20
-0.9866
 30
0.0
 10
1.0734
 20
-0.9866
 30
0.0
  0
SPLINE
  5
121
330
1F
100
AcDbEntity
  8
DEFAULT_2
 62
   250
100
AcDbSpline
210
0.0
220
0.0
230
1.0
 70
    24
 71
     3
 72
     8
 73
     4
 74
     0
 42
0.0000000001
 43
0.0000000001
 40
0.0
 40
0.0
 40
0.0
 40
0.0
 40
1.0
 40
1.0
 40
1.0
 40
1.0
 10
1.0734
 20
-13.842
 30
0.0
 10
1.0734
 20
-13.842
 30
0.0
 10
1.0734
 20
-12.4136
 30
0.0
 10
1.0734
 20
-12.4136
 30
0.0
  0
SPLINE
  5
122
330
1F
100
AcDbEntity
  8
DEFAULT_2
 62
   250
100
AcDbSpline
210
0.0
220
0.0
230
1.0
 70
    24
 71
     3
 72
     8
 73
     4
 74
     0
 42
0.0000000001
 43
0.0000000001
 40
0.0
 40
0.0
 40
0.0
 40
0.0
 40
1.0
 40
1.0
 40
1.0
 40
1.0
 10
1.0734
 20
-7.5362
 30
0.0
 10
1.0734
 20
-7.5362
 30
0.0
 10
1.0734
 20
-6.1775
 30
0.0
 10
1.0734
 20
-6.1775
 30
0.0
  0
SPLINE
  5
123
330
1F
100
AcDbEntity
  8
DEFAULT_2
 62
   250
100
AcDbSpline
210
0.0
220
0.0
230
1.0
 70
    24
 71
     3
 72
     8
 73
     4
 74
     0
 42
0.0000000001
 43
0.0000000001
 40
0.0
 40
0.0
 40
0.0
 40
0.0
 40
1.0
 40
1.0
 40
1.0
 40
1.0
 10
16.9249
 20
12.1127
 30
0.0
 10
16.9249
 20
12.1127
 30
0.0
 10
3.8196
 20
12.1127
 30
0.0
 10
3.8196
 20
12.1127
 30
0.0
  0
SPLINE
  5
124
330
1F
100
AcDbEntity
  8
DEFAULT_2
 62
   250
100
AcDbSpline
210
0.0
220
0.0
230
1.0
 70
    24
 71
     3
 72
     8
 73
     4
 74
     0
 42
0.0000000001
 43
0.0000000001
 40
0.0
 40
0.0
 40
0.0
 40
0.0
 40
1.0
 40
1.0
 40
1.0
 40
1.0
 10
16.9249
 20
13.6804
 30
0.0
 10
16.9249
 20
13.6804
 30
0.0
 10
15.0088
 20
13.6804
 30
0.0
 10
15.0088
 20
13.6804
 30
0.0
  0
SPLINE
  5
125
330
1F
100
AcDbEntity
  8
DEFAULT_2
 62
   250
100
AcDbSpline
210
0.0
220
0.0
230
1.0
 70
    24
 71
     3
 72
     8
 73
     4
 74
     0
 42
0.0000000001
 43
0.0000000001
 40
0.0
 40
0.0
 40
0.0
 40
0.0
 40
1.0
 40
1.0
 40
1.0
 40
1.0
 10
14.3121
 20
13.6804
 30
0.0
 10
14.3121
 20
13.6804
 30
0.0
 10
12.2216
 20
13.6804
 30
0.0
 10
12.2216
 20
13.6804
 30
0.0
  0
SPLINE
  5
126
330
1F
100
AcDbEntity
  8
DEFAULT_2
 62
   250
100
AcDbSpline
210
0.0
220
0.0
230
1.0
 70
    24
 71
     3
 72
     8
 73
     4
 74
     0
 42
0.0000000001
 43
0.0000000001
 40
0.0
 40
0.0
 40
0.0
 40
0.0
 40
1.0
 40
1.0
 40
1.0
 40
1.0
 10
11.5249
 20
13.6804
 30
0.0
 10
11.5249
 20
13.6804
 30
0.0
 10
9.6792
 20
13.6804
 30
0.0
 10
9.6792
 20
13.6804
 30
0.0
  0
SPLINE
  5
127
330
1F
100
AcDbEntity
  8
DEFAULT_2
 62
   250
100
AcDbSpline
210
0.0
220
0.0
230
1.0
 70
    24
 71
     3
 72
     8
 73
     4
 74
     0
 42
0.0000000001
 43
0.0000000001
 40
0.0
 40
0.0
 40
0.0
 40
0.0
 40
1.0
 40
1.0
 40
1.0
 40
1.0
 10
17.6217
 20
13.7849
 30
0.0
 10
17.6217
 20
13.7849
 30
0.0
 10
6.2817
 20
13.7849
 30
0.0
 10
6.2817
 20
13.7849
 30
0.0
  0
SPLINE
  5
128
330
1F
100
AcDbEntity
  8
DEFAULT_2
 62
   250
100
AcDbSpline
210
0.0
220
0.0
230
1.0
 70
    24
 71
     3
 72
     8
 73
     4
 74
     0
 42
0.0000000001
 43
0.0000000001
 40
0.0
 40
0.0
 40
0.0
 40
0.0
 40
1.0
 40
1.0
 40
1.0
 40
1.0
 10
0.3765
 20
-6.1775
 30
0.0
 10
0.3765
 20
-6.1775
 30
0.0
 10
0.3765
 20
-7.5362
 30
0.0
 10
0.3765
 20
-7.5362
 30
0.0
  0
SPLINE
  5
129
330
1F
100
AcDbEntity
  8
DEFAULT_2
 62
   250
100
AcDbSpline
210
0.0
220
0.0
230
1.0
 70
    24
 71
     3
 72
     8
 73
     4
 74
     0
 42
0.0000000001
 43
0.0000000001
 40
0.0
 40
0.0
 40
0.0
 40
0.0
 40
1.0
 40
1.0
 40
1.0
 40
1.0
 10
0.3765
 20
-12.4136
 30
0.0
 10
0.3765
 20
-12.4136
 30
0.0
 10
0.3765
 20
-13.842
 30
0.0
 10
0.3765
 20
-13.842
 30
0.0
  0
SPLINE
  5
12A
330
1F
100
AcDbEntity
  8
DEFAULT_2
 62
   250
100
AcDbSpline
210
0.0
220
0.0
230
1.0
 70
    24
 71
     3
 72
     8
 73
     4
 74
     0
 42
0.0000000001
 43
0.0000000001
 40
0.0
 40
0.0
 40
0.0
 40
0.0
 40
1.0
 40
1.0
 40
1.0
 40
1.0
 10
0.3765
 20
-0.9866
 30
0.0
 10
0.3765
 20
-0.9866
 30
0.0
 10
0.3765
 20
-0.255
 30
0.0
 10
0.3765
 20
-0.255
 30
0.0
  0
SPLINE
  5
12B
330
1F
100
AcDbEntity
  8
DEFAULT_2
 62
   250
100
AcDbSpline
210
0.0
220
0.0
230
1.0
 70
    24
 71
     3
 72
     8
 73
     4
 74
     0
 42
0.0000000001
 43
0.0000000001
 40
0.0
 40
0.0
 40
0.0
 40
0.0
 40
1.0
 40
1.0
 40
1.0
 40
1.0
 10
0.3765
 20
0.4418
 30
0.0
 10
0.3765
 20
0.4418
 30
0.0
 10
0.3765
 20
0.6857
 30
0.0
 10
0.3765
 20
0.6857
 30
0.0
  0
SPLINE
  5
12C
330
1F
100
AcDbEntity
  8
DEFAULT_2
 62
   250
100
AcDbSpline
210
0.0
220
0.0
230
1.0
 70
    24
 71
     3
 72
     8
 73
     4
 74
     0
 42
0.0000000001
 43
0.0000000001
 40
0.0
 40
0.0
 40
0.0
 40
0.0
 40
1.0
 40
1.0
 40
1.0
 40
1.0
 10
0.3765
 20
6.016
 30
0.0
 10
0.3765
 20
6.016
 30
0.0
 10
0.3765
 20
6.1582
 30
0.0
 10
0.3765
 20
6.1582
 30
0.0
  0
SPLINE
  5
12D
330
1F
100
AcDbEntity
  8
DEFAULT_2
 62
   250
100
AcDbSpline
210
0.0
220
0.0
230
1.0
 70
    24
 71
     3
 72
     8
 73
     4
 74
     0
 42
0.0000000001
 43
0.0000000001
 40
0.0
 40
0.0
 40
0.0
 40
0.0
 40
1.0
 40
1.0
 40
1.0
 40
1.0
 10
-1.7137
 20
0.6857
 30
0.0
 10
-1.7137
 20
0.6857
 30
0.0
 10
-1.7137
 20
0.4418
 30
0.0
 10
-1.7137
 20
0.4418
 30
0.0
  0
SPLINE
  5
12E
330
1F
100
AcDbEntity
  8
DEFAULT_2
 62
   250
100
AcDbSpline
210
0.0
220
0.0
230
1.0
 70
    24
 71
     3
 72
     8
 73
     4
 74
     0
 42
0.0000000001
 43
0.0000000001
 40
0.0
 40
0.0
 40
0.0
 40
0.0
 40
1.0
 40
1.0
 40
1.0
 40
1.0
 10
-1.7137
 20
-0.255
 30
0.0
 10
-1.7137
 20
-0.255
 30
0.0
 10
-1.7137
 20
-0.9866
 30
0.0
 10
-1.7137
 20
-0.9866
 30
0.0
  0
SPLINE
  5
12F
330
1F
100
AcDbEntity
  8
DEFAULT_2
 62
   250
100
AcDbSpline
210
0.0
220
0.0
230
1.0
 70
    24
 71
     3
 72
     8
 73
     4
 74
     0
 42
0.0000000001
 43
0.0000000001
 40
0.0
 40
0.0
 40
0.0
 40
0.0
 40
1.0
 40
1.0
 40
1.0
 40
1.0
 10
-1.7137
 20
-13.5975
 30
0.0
 10
-1.7137
 20
-13.5975
 30
0.0
 10
-1.7137
 20
-12.4136
 30
0.0
 10
-1.7137
 20
-12.4136
 30
0.0
  0
SPLINE
  5
130
330
1F
100
AcDbEntity
  8
DEFAULT_2
 62
   250
100
AcDbSpline
210
0.0
220
0.0
230
1.0
 70
    24
 71
     3
 72
     8
 73
     4
 74
     0
 42
0.0000000001
 43
0.0000000001
 40
0.0
 40
0.0
 40
0.0
 40
0.0
 40
1.0
 40
1.0
 40
1.0
 40
1.0
 10
-1.7137
 20
-7.5362
 30
0.0
 10
-1.7137
 20
-7.5362
 30
0.0
 10
-1.7137
 20
-6.1775
 30
0.0
 10
-1.7137
 20
-6.1775
 30
0.0
  0
SPLINE
  5
131
330
1F
100
AcDbEntity
  8
DEFAULT_2
 62
   250
100
AcDbSpline
210
0.0
220
0.0
230
1.0
 70
    24
 71
     3
 72
     8
 73
     4
 74
     0
 42
0.0000000001
 43
0.0000000001
 40
0.0
 40
0.0
 40
0.0
 40
0.0
 40
1.0
 40
1.0
 40
1.0
 40
1.0
 10
17.6608
 20
15.1785
 30
0.0
 10
17.6608
 20
15.1785
 30
0.0
 10
9.1084
 20
15.1785
 30
0.0
 10
9.1084
 20
15.1785
 30
0.0
  0
SPLINE
  5
132
330
1F
100
AcDbEntity
  8
DEFAULT_2
 62
   250
100
AcDbSpline
210
0.0
220
0.0
230
1.0
 70
    24
 71
     3
 72
     8
 73
     4
 74
     0
 42
0.0000000001
 43
0.0000000001
 40
0.0
 40
0.0
 40
0.0
 40
0.0
 40
1.0
 40
1.0
 40
1.0
 40
1.0
 10
-2.4105
 20
-6.1775
 30
0.0
 10
-2.4105
 20
-6.1775
 30
0.0
 10
-2.4105
 20
-7.5362
 30
0.0
 10
-2.4105
 20
-7.5362
 30
0.0
  0
SPLINE
  5
133
330
1F
100
AcDbEntity
  8
DEFAULT_2
 62
   250
100
AcDbSpline
210
0.0
220
0.0
230
1.0
 70
    24
 71
     3
 72
     8
 73
     4
 74
     0
 42
0.0000000001
 43
0.0000000001
 40
0.0
 40
0.0
 40
0.0
 40
0.0
 40
1.0
 40
1.0
 40
1.0
 40
1.0
 10
-2.4105
 20
-0.9866
 30
0.0
 10
-2.4105
 20
-0.9866
 30
0.0
 10
-2.4105
 20
-0.255
 30
0.0
 10
-2.4105
 20
-0.255
 30
0.0
  0
SPLINE
  5
134
330
1F
100
AcDbEntity
  8
DEFAULT_2
 62
   250
100
AcDbSpline
210
0.0
220
0.0
230
1.0
 70
     8
 71
     3
 72
    12
 73
     8
 74
     0
 42
0.0000000001
 43
0.0000000001
 40
0.0
 40
0.0
 40
0.0
 40
0.0
 40
0.3333333333333333
 40
0.3333333333333333
 40
0.3333333333333333
 40
0.3333333333333333
 40
1.0
 40
1.0
 40
1.0
 40
1.0
 10
17.6217
 20
23.6094
 30
0.0
 10
1.4595
 20
23.6094
 30
0.0
 10
-11.6428
 20
10.5074
 30
0.0
 10
-11.6428
 20
-5.6549
 30
0.0
 10
-11.6428
 20
-5.6549
 30
0.0
 10
-11.6428
 20
-21.8172
 30
0.0
 10
1.4594
 20
-34.9193
 30
0.0
 10
17.6217
 20
-34.9193
 30
0.0
  0
SPLINE
  5
135
330
1F
100
AcDbEntity
  8
DEFAULT_2
 62
   250
100
AcDbSpline
210
0.0
220
0.0
230
1.0
 70
     8
 71
     3
 72
    12
 73
     8
 74
     0
 42
0.0000000001
 43
0.0000000001
 40
0.0
 40
0.0
 40
0.0
 40
0.0
 40
0.3333333333333333
 40
0.3333333333333333
 40
0.3333333333333333
 40
0.3333333333333333
 40
1.0
 40
1.0
 40
1.0
 40
1.0
 10
17.6217
 20
18.732
 30
0.0
 10
4.1531
 20
18.732
 30
0.0
 10
-6.7653
 20
7.8136
 30
0.0
 10
-6.7653
 20
-5.6549
 30
0.0
 10
-6.7653
 20
-5.6549
 30
0.0
 10
-6.7653
 20
-19.1235
 30
0.0
 10
4.1531
 20
-30.0419
 30
0.0
 10
17.6217
 20
-30.0419
 30
0.0
  0
SPLINE
  5
136
330
1F
100
AcDbEntity
  8
DEFAULT_2
 62
   250
100
AcDbSpline
210
0.0
220
0.0
230
1.0
 70
     8
 71
     3
 72
    12
 73
     8
 74
     0
 42
0.0000000001
 43
0.0000000001
 40
0.0
 40
0.0
 40
0.0
 40
0.0
 40
0.3333333333333333
 40
0.3333333333333333
 40
0.3333333333333333
 40
0.3333333333333333
 40
1.0
 40
1.0
 40
1.0
 40
1.0
 10
17.6217
 20
18.3836
 30
0.0
 10
4.3455
 20
18.3836
 30
0.0
 10
-6.417
 20
7.6212
 30
0.0
 10
-6.417
 20
-5.6549
 30
0.0
 10
-6.417
 20
-5.6549
 30
0.0
 10
-6.417
 20
-18.9311
 30
0.0
 10
4.3455
 20
-29.6935
 30
0.0
 10
17.6217
 20
-29.6935
 30
0.0
  0
SPLINE
  5
137
330
1F
100
AcDbEntity
  8
DEFAULT_2
 62
   250
100
AcDbSpline
210
0.0
220
0.0
230
1.0
 70
     8
 71
     3
 72
     8
 73
     4
 74
     0
 42
0.0000000001
 43
0.0000000001
 40
0.0
 40
0.0
 40
0.0
 40
0.0
 40
1.0
 40
1.0
 40
1.0
 40
1.0
 10
-0.8267
 20
7.2354
 30
0.0
 10
-1.9415
 20
5.64
 30
0.0
 10
-2.8445
 20
3.9069
 30
0.0
 10
-3.5134
 20
2.0793
 30
0.0
  0
SPLINE
  5
138
330
1F
100
AcDbEntity
  8
DEFAULT_2
 62
   250
100
AcDbSpline
210
0.0
220
0.0
230
1.0
 70
     8
 71
     3
 72
     8
 73
     4
 74
     0
 42
0.0000000001
 43
0.0000000001
 40
0.0
 40
0.0
 40
0.0
 40
0.0
 40
1.0
 40
1.0
 40
1.0
 40
1.0
 10
6.2817
 20
13.7849
 30
0.0
 10
3.9745
 20
12.4391
 30
0.0
 10
1.9251
 20
10.6931
 30
0.0
 10
0.2297
 20
8.6288
 30
0.0
  0
SPLINE
  5
139
330
1F
100
AcDbEntity
  8
DEFAULT_2
 62
   250
100
AcDbSpline
210
0.0
220
0.0
230
1.0
 70
     8
 71
     3
 72
     8
 73
     4
 74
     0
 42
0.0000000001
 43
0.0000000001
 40
0.0
 40
0.0
 40
0.0
 40
0.0
 40
1.0
 40
1.0
 40
1.0
 40
1.0
 10
-3.9724
 20
0.6857
 30
0.0
 10
-4.4653
 20
-0.9929
 30
0.0
 10
-4.7607
 20
-2.7234
 30
0.0
 10
-4.8528
 20
-4.4704
 30
0.0
  0
SPLINE
  5
13A
330
1F
100
AcDbEntity
  8
DEFAULT_2
 62
   250
100
AcDbSpline
210
0.0
220
0.0
230
1.0
 70
     8
 71
     3
 72
     8
 73
     4
 74
     0
 42
0.0000000001
 43
0.0000000001
 40
0.0
 40
0.0
 40
0.0
 40
0.0
 40
1.0
 40
1.0
 40
1.0
 40
1.0
 10
-4.8831
 20
-5.864
 30
0.0
 10
-4.8669
 20
-7.6019
 30
0.0
 10
-4.6495
 20
-9.3321
 30
0.0
 10
-4.2352
 20
-11.0201
 30
0.0
  0
SPLINE
  5
13B
330
1F
100
AcDbEntity
  8
DEFAULT_2
 62
   250
100
AcDbSpline
210
0.0
220
0.0
230
1.0
 70
     8
 71
     3
 72
     8
 73
     4
 74
     0
 42
0.0000000001
 43
0.0000000001
 40
0.0
 40
0.0
 40
0.0
 40
0.0
 40
1.0
 40
1.0
 40
1.0
 40
1.0
 10
-3.8451
 20
-12.4136
 30
0.0
 10
-3.2746
 20
-14.2257
 30
0.0
 10
-2.4771
 20
-15.9581
 30
0.0
 10
-1.4714
 20
-17.5697
 30
0.0
  0
SPLINE
  5
13C
330
1F
100
AcDbEntity
  8
DEFAULT_2
 62
   250
100
AcDbSpline
210
0.0
220
0.0
230
1.0
 70
     8
 71
     3
 72
     8
 73
     4
 74
     0
 42
0.0000000001
 43
0.0000000001
 40
0.0
 40
0.0
 40
0.0
 40
0.0
 40
1.0
 40
1.0
 40
1.0
 40
1.0
 10
-0.5275
 20
-18.9633
 30
0.0
 10
0.9374
 20
-20.9609
 30
0.0
 10
2.7219
 20
-22.703
 30
0.0
 10
4.7543
 20
-24.1194
 30
0.0
  0
SPLINE
  5
13D
330
1F
100
AcDbEntity
  8
DEFAULT_2
 62
   250
100
AcDbSpline
210
0.0
220
0.0
230
1.0
 70
     8
 71
     3
 72
     8
 73
     4
 74
     0
 42
0.0000000001
 43
0.0000000001
 40
0.0
 40
0.0
 40
0.0
 40
0.0
 40
1.0
 40
1.0
 40
1.0
 40
1.0
 10
7.0307
 20
-25.513
 30
0.0
 10
10.3641
 20
-27.2907
 30
0.0
 10
14.0334
 20
-28.1732
 30
0.0
 10
17.6998
 20
-28.1605
 30
0.0
  0
SPLINE
  5
13E
330
1F
100
AcDbEntity
  8
DEFAULT_2
 62
   250
100
AcDbSpline
210
0.0
220
0.0
230
1.0
 70
     8
 71
     3
 72
     8
 73
     4
 74
     0
 42
0.0000000001
 43
0.0000000001
 40
0.0
 40
0.0
 40
0.0
 40
0.0
 40
1.0
 40
1.0
 40
1.0
 40
1.0
 10
17.7003
 20
16.8506
 30
0.0
 10
14.7817
 20
16.8608
 30
0.0
 10
11.8614
 20
16.3034
 30
0.0
 10
9.1086
 20
15.1785
 30
0.0
  0
SPLINE
  5
13F
330
1F
100
AcDbEntity
  8
DEFAULT_2
 62
   250
100
AcDbSpline
210
0.0
220
0.0
230
1.0
 70
     8
 71
     3
 72
     8
 73
     4
 74
     0
 42
0.0000000001
 43
0.0000000001
 40
0.0
 40
0.0
 40
0.0
 40
0.0
 40
1.0
 40
1.0
 40
1.0
 40
1.0
 10
6.8648
 20
13.7957
 30
0.0
 10
5.9652
 20
13.2982
 30
0.0
 10
5.1013
 20
12.739
 30
0.0
 10
4.2792
 20
12.1219
 30
0.0
  0
SPLINE
  5
140
330
1F
100
AcDbEntity
  8
DEFAULT_2
 62
   250
100
AcDbSpline
210
0.0
220
0.0
230
1.0
 70
     8
 71
     3
 72
     8
 73
     4
 74
     0
 42
0.0000000001
 43
0.0000000001
 40
0.0
 40
0.0
 40
0.0
 40
0.0
 40
1.0
 40
1.0
 40
1.0
 40
1.0
 10
-0.4819
 20
7.2406
 30
0.0
 10
-0.8671
 20
6.6999
 30
0.0
 10
-1.2279
 20
6.1422
 30
0.0
 10
-1.5631
 20
5.5692
 30
0.0
  0
SPLINE
  5
141
330
1F
100
AcDbEntity
  8
DEFAULT_2
 62
   250
100
AcDbSpline
210
0.0
220
0.0
230
1.0
 70
     8
 71
     3
 72
     8
 73
     4
 74
     0
 42
0.0000000001
 43
0.0000000001
 40
0.0
 40
0.0
 40
0.0
 40
0.0
 40
1.0
 40
1.0
 40
1.0
 40
1.0
 10
-3.6812
 20
0.6877
 30
0.0
 10
-3.8453
 20
0.1361
 30
0.0
 10
-3.9882
 20
-0.4216
 30
0.0
 10
-4.1089
 20
-0.9842
 30
0.0
  0
SPLINE
  5
142
330
1F
100
AcDbEntity
  8
DEFAULT_2
 62
   250
100
AcDbSpline
210
0.0
220
0.0
230
1.0
 70
     8
 71
     3
 72
     8
 73
     4
 74
     0
 42
0.0000000001
 43
0.0000000001
 40
0.0
 40
0.0
 40
0.0
 40
0.0
 40
1.0
 40
1.0
 40
1.0
 40
1.0
 10
-4.6043
 20
-5.8641
 30
0.0
 10
-4.5991
 20
-6.4225
 30
0.0
 10
-4.5727
 20
-6.9805
 30
0.0
 10
-4.5255
 20
-7.5369
 30
0.0
  0
SPLINE
  5
143
330
1F
100
AcDbEntity
  8
DEFAULT_2
 62
   250
100
AcDbSpline
210
0.0
220
0.0
230
1.0
 70
     8
 71
     3
 72
     8
 73
     4
 74
     0
 42
0.0000000001
 43
0.0000000001
 40
0.0
 40
0.0
 40
0.0
 40
0.0
 40
1.0
 40
1.0
 40
1.0
 40
1.0
 10
-3.5522
 20
-12.4153
 30
0.0
 10
-3.3715
 20
-12.9813
 30
0.0
 10
-3.1682
 20
-13.5401
 30
0.0
 10
-2.9426
 20
-14.0899
 30
0.0
  0
SPLINE
  5
144
330
1F
100
AcDbEntity
  8
DEFAULT_2
 62
   250
100
AcDbSpline
210
0.0
220
0.0
230
1.0
 70
     8
 71
     3
 72
     8
 73
     4
 74
     0
 42
0.0000000001
 43
0.0000000001
 40
0.0
 40
0.0
 40
0.0
 40
0.0
 40
1.0
 40
1.0
 40
1.0
 40
1.0
 10
-0.1786
 20
-18.966
 30
0.0
 10
0.2562
 20
-19.5476
 30
0.0
 10
0.7194
 20
-20.1075
 30
0.0
 10
1.2091
 20
-20.6437
 30
0.0
  0
SPLINE
  5
145
330
1F
100
AcDbEntity
  8
DEFAULT_2
 62
   250
100
AcDbSpline
210
0.0
220
0.0
230
1.0
 70
     8
 71
     3
 72
     8
 73
     4
 74
     0
 42
0.0000000001
 43
0.0000000001
 40
0.0
 40
0.0
 40
0.0
 40
0.0
 40
1.0
 40
1.0
 40
1.0
 40
1.0
 10
7.6394
 20
-25.5143
 30
0.0
 10
10.5263
 20
-26.9653
 30
0.0
 10
13.6947
 20
-27.7696
 30
0.0
 10
16.924
 20
-27.8709
 30
0.0
  0
SPLINE
  5
146
330
1F
100
AcDbEntity
  8
DEFAULT_2
 62
   250
100
AcDbSpline
210
0.0
220
0.0
230
1.0
 70
     8
 71
     3
 72
     8
 73
     4
 74
     0
 42
0.0000000001
 43
0.0000000001
 40
0.0
 40
0.0
 40
0.0
 40
0.0
 40
1.0
 40
1.0
 40
1.0
 40
1.0
 10
1.5028
 20
-18.9636
 30
0.0
 10
1.6289
 20
-19.1163
 30
0.0
 10
1.7571
 20
-19.2672
 30
0.0
 10
1.8873
 20
-19.4162
 30
0.0
  0
SPLINE
  5
147
330
1F
100
AcDbEntity
  8
DEFAULT_2
 62
   250
100
AcDbSpline
210
0.0
220
0.0
230
1.0
 70
     8
 71
     3
 72
     8
 73
     4
 74
     0
 42
0.0000000001
 43
0.0000000001
 40
0.0
 40
0.0
 40
0.0
 40
0.0
 40
1.0
 40
1.0
 40
1.0
 40
1.0
 10
1.1671
 20
7.2364
 30
0.0
 10
1.1358
 20
7.1964
 30
0.0
 10
1.1045
 20
7.1562
 30
0.0
 10
1.0734
 20
7.1159
 30
0.0
  0
SPLINE
  5
148
330
1F
100
AcDbEntity
  8
DEFAULT_2
 62
   250
100
AcDbSpline
210
0.0
220
0.0
230
1.0
 70
     8
 71
     3
 72
     8
 73
     4
 74
     0
 42
0.0000000001
 43
0.0000000001
 40
0.0
 40
0.0
 40
0.0
 40
0.0
 40
1.0
 40
1.0
 40
1.0
 40
1.0
 10
-1.7137
 20
-13.5975
 30
0.0
 10
-1.6801
 20
-13.6791
 30
0.0
 10
-1.646
 20
-13.7606
 30
0.0
 10
-1.6115
 20
-13.842
 30
0.0
  0
SPLINE
  5
149
330
1F
100
AcDbEntity
  8
DEFAULT_2
 62
   250
100
AcDbSpline
210
0.0
220
0.0
230
1.0
 70
     8
 71
     3
 72
     8
 73
     4
 74
     0
 42
0.0000000001
 43
0.0000000001
 40
0.0
 40
0.0
 40
0.0
 40
0.0
 40
1.0
 40
1.0
 40
1.0
 40
1.0
 10
12.2216
 20
-25.8485
 30
0.0
 10
12.9104
 20
-26.0327
 30
0.0
 10
13.6081
 20
-26.1815
 30
0.0
 10
14.3121
 20
-26.2944
 30
0.0
  0
SPLINE
  5
14A
330
1F
100
AcDbEntity
  8
DEFAULT_2
 62
   250
100
AcDbSpline
210
0.0
220
0.0
230
1.0
 70
     8
 71
     3
 72
     8
 73
     4
 74
     0
 42
0.0000000001
 43
0.0000000001
 40
0.0
 40
0.0
 40
0.0
 40
0.0
 40
1.0
 40
1.0
 40
1.0
 40
1.0
 10
15.0088
 20
-26.394
 30
0.0
 10
15.6448
 20
-26.4741
 30
0.0
 10
16.284
 20
-26.5251
 30
0.0
 10
16.9246
 20
-26.5463
 30
0.0
  0
SPLINE
  5
14B
330
1F
100
AcDbEntity
  8
DEFAULT_2
 62
   250
100
AcDbSpline
210
0.0
220
0.0
230
1.0
 70
     8
 71
     3
 72
     8
 73
     4
 74
     0
 42
0.0000000001
 43
0.0000000001
 40
0.0
 40
0.0
 40
0.0
 40
0.0
 40
1.0
 40
1.0
 40
1.0
 40
1.0
 10
9.6792
 20
13.6804
 30
0.0
 10
9.5976
 20
13.6469
 30
0.0
 10
9.516
 20
13.6129
 30
0.0
 10
9.4346
 20
13.5781
 30
0.0
  0
SPLINE
  5
14C
330
1F
100
AcDbEntity
  8
DEFAULT_2
 62
   250
100
AcDbSpline
210
0.0
220
0.0
230
1.0
 70
     8
 71
     3
 72
     8
 73
     4
 74
     0
 42
0.0000000001
 43
0.0000000001
 40
0.0
 40
0.0
 40
0.0
 40
0.0
 40
1.0
 40
1.0
 40
1.0
 40
1.0
 10
8.7378
 20
13.2664
 30
0.0
 10
8.0202
 20
12.9295
 30
0.0
 10
7.3223
 20
12.552
 30
0.0
 10
6.6475
 20
12.1359
 30
0.0
  0
SPLINE
  5
14D
330
1F
100
AcDbEntity
  8
DEFAULT_2
 62
   250
100
AcDbSpline
210
0.0
220
0.0
230
1.0
 70
     8
 71
     3
 72
     8
 73
     4
 74
     0
 42
0.0000000001
 43
0.0000000001
 40
0.0
 40
0.0
 40
0.0
 40
0.0
 40
1.0
 40
1.0
 40
1.0
 40
1.0
 10
0.3765
 20
6.1582
 30
0.0
 10
0.3443
 20
6.1109
 30
0.0
 10
0.3121
 20
6.0635
 30
0.0
 10
0.2802
 20
6.016
 30
0.0
  0
SPLINE
  5
14E
330
1F
100
AcDbEntity
  8
DEFAULT_2
 62
   250
100
AcDbSpline
210
0.0
220
0.0
230
1.0
 70
     8
 71
     3
 72
     8
 73
     4
 74
     0
 42
0.0000000001
 43
0.0000000001
 40
0.0
 40
0.0
 40
0.0
 40
0.0
 40
1.0
 40
1.0
 40
1.0
 40
1.0
 10
-2.5719
 20
-0.255
 30
0.0
 10
-2.6367
 20
-0.4973
 30
0.0
 10
-2.6971
 20
-0.7408
 30
0.0
 10
-2.7531
 20
-0.9854
 30
0.0
  0
SPLINE
  5
14F
330
1F
100
AcDbEntity
  8
DEFAULT_2
 62
   250
100
AcDbSpline
210
0.0
220
0.0
230
1.0
 70
     8
 71
     3
 72
     8
 73
     4
 74
     0
 42
0.0000000001
 43
0.0000000001
 40
0.0
 40
0.0
 40
0.0
 40
0.0
 40
1.0
 40
1.0
 40
1.0
 40
1.0
 10
-3.275
 20
-6.1775
 30
0.0
 10
-3.2635
 20
-6.6313
 30
0.0
 10
-3.2374
 20
-7.0845
 30
0.0
 10
-3.1967
 20
-7.5367
 30
0.0
  0
SPLINE
  5
150
330
1F
100
AcDbEntity
  8
DEFAULT_2
 62
   250
100
AcDbSpline
210
0.0
220
0.0
230
1.0
 70
    24
 71
     3
 72
     8
 73
     4
 74
     0
 42
0.0000000001
 43
0.0000000001
 40
0.0
 40
0.0
 40
0.0
 40
0.0
 40
1.0
 40
1.0
 40
1.0
 40
1.0
 10
23.0234
 20
-25.6871
 30
0.0
 10
23.0234
 20
-25.6871
 30
0.0
 10
20.933
 20
-25.6871
 30
0.0
 10
20.933
 20
-25.6871
 30
0.0
  0
SPLINE
  5
151
330
1F
100
AcDbEntity
  8
DEFAULT_2
 62
   250
100
AcDbSpline
210
0.0
220
0.0
230
1.0
 70
    24
 71
     3
 72
     8
 73
     4
 74
     0
 42
0.0000000001
 43
0.0000000001
 40
0.0
 40
0.0
 40
0.0
 40
0.0
 40
1.0
 40
1.0
 40
1.0
 40
1.0
 10
20.2363
 20
-25.6871
 30
0.0
 10
20.2363
 20
-25.6871
 30
0.0
 10
18.3202
 20
-25.6871
 30
0.0
 10
18.3202
 20
-25.6871
 30
0.0
  0
SPLINE
  5
152
330
1F
100
AcDbEntity
  8
DEFAULT_2
 62
   250
100
AcDbSpline
210
0.0
220
0.0
230
1.0
 70
    24
 71
     3
 72
     8
 73
     4
 74
     0
 42
0.0000000001
 43
0.0000000001
 40
0.0
 40
0.0
 40
0.0
 40
0.0
 40
1.0
 40
1.0
 40
1.0
 40
1.0
 10
17.5843
 20
-25.513
 30
0.0
 10
17.5843
 20
-25.513
 30
0.0
 10
28.2143
 20
-25.513
 30
0.0
 10
28.2143
 20
-25.513
 30
0.0
  0
SPLINE
  5
153
330
1F
100
AcDbEntity
  8
DEFAULT_2
 62
   250
100
AcDbSpline
210
0.0
220
0.0
230
1.0
 70
    24
 71
     3
 72
     8
 73
     4
 74
     0
 42
0.0000000001
 43
0.0000000001
 40
0.0
 40
0.0
 40
0.0
 40
0.0
 40
1.0
 40
1.0
 40
1.0
 40
1.0
 10
17.6234
 20
-24.1194
 30
0.0
 10
17.6234
 20
-24.1194
 30
0.0
 10
30.4908
 20
-24.1194
 30
0.0
 10
30.4908
 20
-24.1194
 30
0.0
  0
SPLINE
  5
154
330
1F
100
AcDbEntity
  8
DEFAULT_2
 62
   250
100
AcDbSpline
210
0.0
220
0.0
230
1.0
 70
    24
 71
     3
 72
     8
 73
     4
 74
     0
 42
0.0000000001
 43
0.0000000001
 40
0.0
 40
0.0
 40
0.0
 40
0.0
 40
1.0
 40
1.0
 40
1.0
 40
1.0
 10
18.3202
 20
-21.6541
 30
0.0
 10
18.3202
 20
-21.6541
 30
0.0
 10
17.5058
 20
-21.6541
 30
0.0
 10
17.5058
 20
-21.6541
 30
0.0
  0
SPLINE
  5
155
330
1F
100
AcDbEntity
  8
DEFAULT_2
 62
   250
100
AcDbSpline
210
0.0
220
0.0
230
1.0
 70
    24
 71
     3
 72
     8
 73
     4
 74
     0
 42
0.0000000001
 43
0.0000000001
 40
0.0
 40
0.0
 40
0.0
 40
0.0
 40
1.0
 40
1.0
 40
1.0
 40
1.0
 10
18.3202
 20
-20.6355
 30
0.0
 10
18.3202
 20
-20.6355
 30
0.0
 10
34.4027
 20
-20.6355
 30
0.0
 10
34.4027
 20
-20.6355
 30
0.0
  0
SPLINE
  5
156
330
1F
100
AcDbEntity
  8
DEFAULT_2
 62
   250
100
AcDbSpline
210
0.0
220
0.0
230
1.0
 70
    24
 71
     3
 72
     8
 73
     4
 74
     0
 42
0.0000000001
 43
0.0000000001
 40
0.0
 40
0.0
 40
0.0
 40
0.0
 40
1.0
 40
1.0
 40
1.0
 40
1.0
 10
31.3423
 20
-20.1129
 30
0.0
 10
31.3423
 20
-20.1129
 30
0.0
 10
29.2943
 20
-20.1129
 30
0.0
 10
29.2943
 20
-20.1129
 30
0.0
  0
SPLINE
  5
157
330
1F
100
AcDbEntity
  8
DEFAULT_2
 62
   250
100
AcDbSpline
210
0.0
220
0.0
230
1.0
 70
    24
 71
     3
 72
     8
 73
     4
 74
     0
 42
0.0000000001
 43
0.0000000001
 40
0.0
 40
0.0
 40
0.0
 40
0.0
 40
1.0
 40
1.0
 40
1.0
 40
1.0
 10
28.5976
 20
-20.1129
 30
0.0
 10
28.5976
 20
-20.1129
 30
0.0
 10
26.5073
 20
-20.1129
 30
0.0
 10
26.5073
 20
-20.1129
 30
0.0
  0
SPLINE
  5
158
330
1F
100
AcDbEntity
  8
DEFAULT_2
 62
   250
100
AcDbSpline
210
0.0
220
0.0
230
1.0
 70
    24
 71
     3
 72
     8
 73
     4
 74
     0
 42
0.0000000001
 43
0.0000000001
 40
0.0
 40
0.0
 40
0.0
 40
0.0
 40
1.0
 40
1.0
 40
1.0
 40
1.0
 10
25.8105
 20
-20.1129
 30
0.0
 10
25.8105
 20
-20.1129
 30
0.0
 10
23.7202
 20
-20.1129
 30
0.0
 10
23.7202
 20
-20.1129
 30
0.0
  0
SPLINE
  5
159
330
1F
100
AcDbEntity
  8
DEFAULT_2
 62
   250
100
AcDbSpline
210
0.0
220
0.0
230
1.0
 70
    24
 71
     3
 72
     8
 73
     4
 74
     0
 42
0.0000000001
 43
0.0000000001
 40
0.0
 40
0.0
 40
0.0
 40
0.0
 40
1.0
 40
1.0
 40
1.0
 40
1.0
 10
23.0234
 20
-20.1129
 30
0.0
 10
23.0234
 20
-20.1129
 30
0.0
 10
20.933
 20
-20.1129
 30
0.0
 10
20.933
 20
-20.1129
 30
0.0
  0
SPLINE
  5
15A
330
1F
100
AcDbEntity
  8
DEFAULT_2
 62
   250
100
AcDbSpline
210
0.0
220
0.0
230
1.0
 70
    24
 71
     3
 72
     8
 73
     4
 74
     0
 42
0.0000000001
 43
0.0000000001
 40
0.0
 40
0.0
 40
0.0
 40
0.0
 40
1.0
 40
1.0
 40
1.0
 40
1.0
 10
20.2363
 20
-20.1129
 30
0.0
 10
20.2363
 20
-20.1129
 30
0.0
 10
18.3202
 20
-20.1129
 30
0.0
 10
18.3202
 20
-20.1129
 30
0.0
  0
SPLINE
  5
15B
330
1F
100
AcDbEntity
  8
DEFAULT_2
 62
   250
100
AcDbSpline
210
0.0
220
0.0
230
1.0
 70
    24
 71
     3
 72
     8
 73
     4
 74
     0
 42
0.0000000001
 43
0.0000000001
 40
0.0
 40
0.0
 40
0.0
 40
0.0
 40
1.0
 40
1.0
 40
1.0
 40
1.0
 10
18.3202
 20
-19.4162
 30
0.0
 10
18.3202
 20
-19.4162
 30
0.0
 10
20.2363
 20
-19.4162
 30
0.0
 10
20.2363
 20
-19.4162
 30
0.0
  0
SPLINE
  5
15C
330
1F
100
AcDbEntity
  8
DEFAULT_2
 62
   250
100
AcDbSpline
210
0.0
220
0.0
230
1.0
 70
    24
 71
     3
 72
     8
 73
     4
 74
     0
 42
0.0000000001
 43
0.0000000001
 40
0.0
 40
0.0
 40
0.0
 40
0.0
 40
1.0
 40
1.0
 40
1.0
 40
1.0
 10
20.933
 20
-19.4162
 30
0.0
 10
20.933
 20
-19.4162
 30
0.0
 10
23.0234
 20
-19.4162
 30
0.0
 10
23.0234
 20
-19.4162
 30
0.0
  0
SPLINE
  5
15D
330
1F
100
AcDbEntity
  8
DEFAULT_2
 62
   250
100
AcDbSpline
210
0.0
220
0.0
230
1.0
 70
    24
 71
     3
 72
     8
 73
     4
 74
     0
 42
0.0000000001
 43
0.0000000001
 40
0.0
 40
0.0
 40
0.0
 40
0.0
 40
1.0
 40
1.0
 40
1.0
 40
1.0
 10
23.7202
 20
-19.4162
 30
0.0
 10
23.7202
 20
-19.4162
 30
0.0
 10
25.8105
 20
-19.4162
 30
0.0
 10
25.8105
 20
-19.4162
 30
0.0
  0
SPLINE
  5
15E
330
1F
100
AcDbEntity
  8
DEFAULT_2
 62
   250
100
AcDbSpline
210
0.0
220
0.0
230
1.0
 70
    24
 71
     3
 72
     8
 73
     4
 74
     0
 42
0.0000000001
 43
0.0000000001
 40
0.0
 40
0.0
 40
0.0
 40
0.0
 40
1.0
 40
1.0
 40
1.0
 40
1.0
 10
26.5073
 20
-19.4162
 30
0.0
 10
26.5073
 20
-19.4162
 30
0.0
 10
28.5976
 20
-19.4162
 30
0.0
 10
28.5976
 20
-19.4162
 30
0.0
  0
SPLINE
  5
15F
330
1F
100
AcDbEntity
  8
DEFAULT_2
 62
   250
100
AcDbSpline
210
0.0
220
0.0
230
1.0
 70
    24
 71
     3
 72
     8
 73
     4
 74
     0
 42
0.0000000001
 43
0.0000000001
 40
0.0
 40
0.0
 40
0.0
 40
0.0
 40
1.0
 40
1.0
 40
1.0
 40
1.0
 10
29.2943
 20
-19.4162
 30
0.0
 10
29.2943
 20
-19.4162
 30
0.0
 10
30.6456
 20
-19.4162
 30
0.0
 10
30.6456
 20
-19.4162
 30
0.0
  0
SPLINE
  5
160
330
1F
100
AcDbEntity
  8
DEFAULT_2
 62
   250
100
AcDbSpline
210
0.0
220
0.0
230
1.0
 70
    24
 71
     3
 72
     8
 73
     4
 74
     0
 42
0.0000000001
 43
0.0000000001
 40
0.0
 40
0.0
 40
0.0
 40
0.0
 40
1.0
 40
1.0
 40
1.0
 40
1.0
 10
32.1236
 20
-19.4162
 30
0.0
 10
32.1236
 20
-19.4162
 30
0.0
 10
33.3578
 20
-19.4162
 30
0.0
 10
33.3578
 20
-19.4162
 30
0.0
  0
SPLINE
  5
161
330
1F
100
AcDbEntity
  8
DEFAULT_2
 62
   250
100
AcDbSpline
210
0.0
220
0.0
230
1.0
 70
    24
 71
     3
 72
     8
 73
     4
 74
     0
 42
0.0000000001
 43
0.0000000001
 40
0.0
 40
0.0
 40
0.0
 40
0.0
 40
1.0
 40
1.0
 40
1.0
 40
1.0
 10
17.7018
 20
-18.9633
 30
0.0
 10
17.7018
 20
-18.9633
 30
0.0
 10
35.7726
 20
-18.9633
 30
0.0
 10
35.7726
 20
-18.9633
 30
0.0
  0
SPLINE
  5
162
330
1F
100
AcDbEntity
  8
DEFAULT_2
 62
   250
100
AcDbSpline
210
0.0
220
0.0
230
1.0
 70
    24
 71
     3
 72
     8
 73
     4
 74
     0
 42
0.0000000001
 43
0.0000000001
 40
0.0
 40
0.0
 40
0.0
 40
0.0
 40
1.0
 40
1.0
 40
1.0
 40
1.0
 10
17.6626
 20
-17.5696
 30
0.0
 10
17.6626
 20
-17.5696
 30
0.0
 10
36.7165
 20
-17.5696
 30
0.0
 10
36.7165
 20
-17.5696
 30
0.0
  0
SPLINE
  5
163
330
1F
100
AcDbEntity
  8
DEFAULT_2
 62
   250
100
AcDbSpline
210
0.0
220
0.0
230
1.0
 70
    24
 71
     3
 72
     8
 73
     4
 74
     0
 42
0.0000000001
 43
0.0000000001
 40
0.0
 40
0.0
 40
0.0
 40
0.0
 40
1.0
 40
1.0
 40
1.0
 40
1.0
 10
18.3202
 20
-15.1044
 30
0.0
 10
18.3202
 20
-15.1044
 30
0.0
 10
17.5451
 20
-15.1044
 30
0.0
 10
17.5451
 20
-15.1044
 30
0.0
  0
SPLINE
  5
164
330
1F
100
AcDbEntity
  8
DEFAULT_2
 62
   250
100
AcDbSpline
210
0.0
220
0.0
230
1.0
 70
    24
 71
     3
 72
     8
 73
     4
 74
     0
 42
0.0000000001
 43
0.0000000001
 40
0.0
 40
0.0
 40
0.0
 40
0.0
 40
1.0
 40
1.0
 40
1.0
 40
1.0
 10
18.3202
 20
-14.0859
 30
0.0
 10
18.3202
 20
-14.0859
 30
0.0
 10
38.4811
 20
-14.0859
 30
0.0
 10
38.4811
 20
-14.0859
 30
0.0
  0
SPLINE
  5
165
330
1F
100
AcDbEntity
  8
DEFAULT_2
 62
   250
100
AcDbSpline
210
0.0
220
0.0
230
1.0
 70
    24
 71
     3
 72
     8
 73
     4
 74
     0
 42
0.0000000001
 43
0.0000000001
 40
0.0
 40
0.0
 40
0.0
 40
0.0
 40
1.0
 40
1.0
 40
1.0
 40
1.0
 10
18.3202
 20
-13.842
 30
0.0
 10
18.3202
 20
-13.842
 30
0.0
 10
20.2363
 20
-13.842
 30
0.0
 10
20.2363
 20
-13.842
 30
0.0
  0
SPLINE
  5
166
330
1F
100
AcDbEntity
  8
DEFAULT_2
 62
   250
100
AcDbSpline
210
0.0
220
0.0
230
1.0
 70
    24
 71
     3
 72
     8
 73
     4
 74
     0
 42
0.0000000001
 43
0.0000000001
 40
0.0
 40
0.0
 40
0.0
 40
0.0
 40
1.0
 40
1.0
 40
1.0
 40
1.0
 10
20.933
 20
-13.842
 30
0.0
 10
20.933
 20
-13.842
 30
0.0
 10
23.0234
 20
-13.842
 30
0.0
 10
23.0234
 20
-13.842
 30
0.0
  0
SPLINE
  5
167
330
1F
100
AcDbEntity
  8
DEFAULT_2
 62
   250
100
AcDbSpline
210
0.0
220
0.0
230
1.0
 70
    24
 71
     3
 72
     8
 73
     4
 74
     0
 42
0.0000000001
 43
0.0000000001
 40
0.0
 40
0.0
 40
0.0
 40
0.0
 40
1.0
 40
1.0
 40
1.0
 40
1.0
 10
23.7202
 20
-13.842
 30
0.0
 10
23.7202
 20
-13.842
 30
0.0
 10
25.0713
 20
-13.842
 30
0.0
 10
25.0713
 20
-13.842
 30
0.0
  0
SPLINE
  5
168
330
1F
100
AcDbEntity
  8
DEFAULT_2
 62
   250
100
AcDbSpline
210
0.0
220
0.0
230
1.0
 70
    24
 71
     3
 72
     8
 73
     4
 74
     0
 42
0.0000000001
 43
0.0000000001
 40
0.0
 40
0.0
 40
0.0
 40
0.0
 40
1.0
 40
1.0
 40
1.0
 40
1.0
 10
26.5495
 20
-13.842
 30
0.0
 10
26.5495
 20
-13.842
 30
0.0
 10
28.5976
 20
-13.842
 30
0.0
 10
28.5976
 20
-13.842
 30
0.0
  0
SPLINE
  5
169
330
1F
100
AcDbEntity
  8
DEFAULT_2
 62
   250
100
AcDbSpline
210
0.0
220
0.0
230
1.0
 70
    24
 71
     3
 72
     8
 73
     4
 74
     0
 42
0.0000000001
 43
0.0000000001
 40
0.0
 40
0.0
 40
0.0
 40
0.0
 40
1.0
 40
1.0
 40
1.0
 40
1.0
 10
29.2943
 20
-13.842
 30
0.0
 10
29.2943
 20
-13.842
 30
0.0
 10
31.3847
 20
-13.842
 30
0.0
 10
31.3847
 20
-13.842
 30
0.0
  0
SPLINE
  5
16A
330
1F
100
AcDbEntity
  8
DEFAULT_2
 62
   250
100
AcDbSpline
210
0.0
220
0.0
230
1.0
 70
    24
 71
     3
 72
     8
 73
     4
 74
     0
 42
0.0000000001
 43
0.0000000001
 40
0.0
 40
0.0
 40
0.0
 40
0.0
 40
1.0
 40
1.0
 40
1.0
 40
1.0
 10
32.0814
 20
-13.842
 30
0.0
 10
32.0814
 20
-13.842
 30
0.0
 10
34.1717
 20
-13.842
 30
0.0
 10
34.1717
 20
-13.842
 30
0.0
  0
SPLINE
  5
16B
330
1F
100
AcDbEntity
  8
DEFAULT_2
 62
   250
100
AcDbSpline
210
0.0
220
0.0
230
1.0
 70
    24
 71
     3
 72
     8
 73
     4
 74
     0
 42
0.0000000001
 43
0.0000000001
 40
0.0
 40
0.0
 40
0.0
 40
0.0
 40
1.0
 40
1.0
 40
1.0
 40
1.0
 10
34.8686
 20
-13.842
 30
0.0
 10
34.8686
 20
-13.842
 30
0.0
 10
36.8566
 20
-13.842
 30
0.0
 10
36.8566
 20
-13.842
 30
0.0
  0
SPLINE
  5
16C
330
1F
100
AcDbEntity
  8
DEFAULT_2
 62
   250
100
AcDbSpline
210
0.0
220
0.0
230
1.0
 70
    24
 71
     3
 72
     8
 73
     4
 74
     0
 42
0.0000000001
 43
0.0000000001
 40
0.0
 40
0.0
 40
0.0
 40
0.0
 40
1.0
 40
1.0
 40
1.0
 40
1.0
 10
17.5843
 20
-12.4136
 30
0.0
 10
17.5843
 20
-12.4136
 30
0.0
 10
39.0902
 20
-12.4136
 30
0.0
 10
39.0902
 20
-12.4136
 30
0.0
  0
SPLINE
  5
16D
330
1F
100
AcDbEntity
  8
DEFAULT_2
 62
   250
100
AcDbSpline
210
0.0
220
0.0
230
1.0
 70
    24
 71
     3
 72
     8
 73
     4
 74
     0
 42
0.0000000001
 43
0.0000000001
 40
0.0
 40
0.0
 40
0.0
 40
0.0
 40
1.0
 40
1.0
 40
1.0
 40
1.0
 10
17.5451
 20
-11.0201
 30
0.0
 10
17.5451
 20
-11.0201
 30
0.0
 10
39.4803
 20
-11.0201
 30
0.0
 10
39.4803
 20
-11.0201
 30
0.0
  0
SPLINE
  5
16E
330
1F
100
AcDbEntity
  8
DEFAULT_2
 62
   250
100
AcDbSpline
210
0.0
220
0.0
230
1.0
 70
    24
 71
     3
 72
     8
 73
     4
 74
     0
 42
0.0000000001
 43
0.0000000001
 40
0.0
 40
0.0
 40
0.0
 40
0.0
 40
1.0
 40
1.0
 40
1.0
 40
1.0
 10
18.3202
 20
-8.5548
 30
0.0
 10
18.3202
 20
-8.5548
 30
0.0
 10
17.5058
 20
-8.5548
 30
0.0
 10
17.5058
 20
-8.5548
 30
0.0
  0
SPLINE
  5
16F
330
1F
100
AcDbEntity
  8
DEFAULT_2
 62
   250
100
AcDbSpline
210
0.0
220
0.0
230
1.0
 70
    24
 71
     3
 72
     8
 73
     4
 74
     0
 42
0.0000000001
 43
0.0000000001
 40
0.0
 40
0.0
 40
0.0
 40
0.0
 40
1.0
 40
1.0
 40
1.0
 40
1.0
 10
18.3202
 20
-7.5362
 30
0.0
 10
18.3202
 20
-7.5362
 30
0.0
 10
40.0425
 20
-7.5362
 30
0.0
 10
40.0425
 20
-7.5362
 30
0.0
  0
SPLINE
  5
170
330
1F
100
AcDbEntity
  8
DEFAULT_2
 62
   250
100
AcDbSpline
210
0.0
220
0.0
230
1.0
 70
    24
 71
     3
 72
     8
 73
     4
 74
     0
 42
0.0000000001
 43
0.0000000001
 40
0.0
 40
0.0
 40
0.0
 40
0.0
 40
1.0
 40
1.0
 40
1.0
 40
1.0
 10
38.5201
 20
-6.1775
 30
0.0
 10
38.5201
 20
-6.1775
 30
0.0
 10
37.6556
 20
-6.1775
 30
0.0
 10
37.6556
 20
-6.1775
 30
0.0
  0
SPLINE
  5
171
330
1F
100
AcDbEntity
  8
DEFAULT_2
 62
   250
100
AcDbSpline
210
0.0
220
0.0
230
1.0
 70
    24
 71
     3
 72
     8
 73
     4
 74
     0
 42
0.0000000001
 43
0.0000000001
 40
0.0
 40
0.0
 40
0.0
 40
0.0
 40
1.0
 40
1.0
 40
1.0
 40
1.0
 10
36.9588
 20
-6.1775
 30
0.0
 10
36.9588
 20
-6.1775
 30
0.0
 10
34.8686
 20
-6.1775
 30
0.0
 10
34.8686
 20
-6.1775
 30
0.0
  0
SPLINE
  5
172
330
1F
100
AcDbEntity
  8
DEFAULT_2
 62
   250
100
AcDbSpline
210
0.0
220
0.0
230
1.0
 70
    24
 71
     3
 72
     8
 73
     4
 74
     0
 42
0.0000000001
 43
0.0000000001
 40
0.0
 40
0.0
 40
0.0
 40
0.0
 40
1.0
 40
1.0
 40
1.0
 40
1.0
 10
34.1717
 20
-6.1775
 30
0.0
 10
34.1717
 20
-6.1775
 30
0.0
 10
32.0814
 20
-6.1775
 30
0.0
 10
32.0814
 20
-6.1775
 30
0.0
  0
SPLINE
  5
173
330
1F
100
AcDbEntity
  8
DEFAULT_2
 62
   250
100
AcDbSpline
210
0.0
220
0.0
230
1.0
 70
    24
 71
     3
 72
     8
 73
     4
 74
     0
 42
0.0000000001
 43
0.0000000001
 40
0.0
 40
0.0
 40
0.0
 40
0.0
 40
1.0
 40
1.0
 40
1.0
 40
1.0
 10
31.3847
 20
-6.1775
 30
0.0
 10
31.3847
 20
-6.1775
 30
0.0
 10
29.2943
 20
-6.1775
 30
0.0
 10
29.2943
 20
-6.1775
 30
0.0
  0
SPLINE
  5
174
330
1F
100
AcDbEntity
  8
DEFAULT_2
 62
   250
100
AcDbSpline
210
0.0
220
0.0
230
1.0
 70
    24
 71
     3
 72
     8
 73
     4
 74
     0
 42
0.0000000001
 43
0.0000000001
 40
0.0
 40
0.0
 40
0.0
 40
0.0
 40
1.0
 40
1.0
 40
1.0
 40
1.0
 10
28.5976
 20
-6.1775
 30
0.0
 10
28.5976
 20
-6.1775
 30
0.0
 10
26.5073
 20
-6.1775
 30
0.0
 10
26.5073
 20
-6.1775
 30
0.0
  0
SPLINE
  5
175
330
1F
100
AcDbEntity
  8
DEFAULT_2
 62
   250
100
AcDbSpline
210
0.0
220
0.0
230
1.0
 70
    24
 71
     3
 72
     8
 73
     4
 74
     0
 42
0.0000000001
 43
0.0000000001
 40
0.0
 40
0.0
 40
0.0
 40
0.0
 40
1.0
 40
1.0
 40
1.0
 40
1.0
 10
25.8105
 20
-6.1775
 30
0.0
 10
25.8105
 20
-6.1775
 30
0.0
 10
23.7202
 20
-6.1775
 30
0.0
 10
23.7202
 20
-6.1775
 30
0.0
  0
SPLINE
  5
176
330
1F
100
AcDbEntity
  8
DEFAULT_2
 62
   250
100
AcDbSpline
210
0.0
220
0.0
230
1.0
 70
    24
 71
     3
 72
     8
 73
     4
 74
     0
 42
0.0000000001
 43
0.0000000001
 40
0.0
 40
0.0
 40
0.0
 40
0.0
 40
1.0
 40
1.0
 40
1.0
 40
1.0
 10
23.0234
 20
-6.1775
 30
0.0
 10
23.0234
 20
-6.1775
 30
0.0
 10
20.933
 20
-6.1775
 30
0.0
 10
20.933
 20
-6.1775
 30
0.0
  0
SPLINE
  5
177
330
1F
100
AcDbEntity
  8
DEFAULT_2
 62
   250
100
AcDbSpline
210
0.0
220
0.0
230
1.0
 70
    24
 71
     3
 72
     8
 73
     4
 74
     0
 42
0.0000000001
 43
0.0000000001
 40
0.0
 40
0.0
 40
0.0
 40
0.0
 40
1.0
 40
1.0
 40
1.0
 40
1.0
 10
20.2363
 20
-6.1775
 30
0.0
 10
20.2363
 20
-6.1775
 30
0.0
 10
18.8849
 20
-6.1775
 30
0.0
 10
18.8849
 20
-6.1775
 30
0.0
  0
SPLINE
  5
178
330
1F
100
AcDbEntity
  8
DEFAULT_2
 62
   250
100
AcDbSpline
210
0.0
220
0.0
230
1.0
 70
    24
 71
     3
 72
     8
 73
     4
 74
     0
 42
0.0000000001
 43
0.0000000001
 40
0.0
 40
0.0
 40
0.0
 40
0.0
 40
1.0
 40
1.0
 40
1.0
 40
1.0
 10
17.5843
 20
-5.864
 30
0.0
 10
17.5843
 20
-5.864
 30
0.0
 10
40.1281
 20
-5.864
 30
0.0
 10
40.1281
 20
-5.864
 30
0.0
  0
SPLINE
  5
179
330
1F
100
AcDbEntity
  8
DEFAULT_2
 62
   250
100
AcDbSpline
210
0.0
220
0.0
230
1.0
 70
    24
 71
     3
 72
     8
 73
     4
 74
     0
 42
0.0000000001
 43
0.0000000001
 40
0.0
 40
0.0
 40
0.0
 40
0.0
 40
1.0
 40
1.0
 40
1.0
 40
1.0
 10
36.3141
 20
6.3693
 30
0.0
 10
36.3141
 20
6.3693
 30
0.0
 10
36.5354
 20
6.5241
 30
0.0
 10
36.5354
 20
6.5241
 30
0.0
  0
SPLINE
  5
17A
330
1F
100
AcDbEntity
  8
DEFAULT_2
 62
   250
100
AcDbSpline
210
0.0
220
0.0
230
1.0
 70
    24
 71
     3
 72
     8
 73
     4
 74
     0
 42
0.0000000001
 43
0.0000000001
 40
0.0
 40
0.0
 40
0.0
 40
0.0
 40
1.0
 40
1.0
 40
1.0
 40
1.0
 10
31.2527
 20
7.2354
 30
0.0
 10
31.2527
 20
7.2354
 30
0.0
 10
30.0333
 20
6.016
 30
0.0
 10
30.0333
 20
6.016
 30
0.0
  0
SPLINE
  5
17B
330
1F
100
AcDbEntity
  8
DEFAULT_2
 62
   250
100
AcDbSpline
210
0.0
220
0.0
230
1.0
 70
    24
 71
     3
 72
     8
 73
     4
 74
     0
 42
0.0000000001
 43
0.0000000001
 40
0.0
 40
0.0
 40
0.0
 40
0.0
 40
1.0
 40
1.0
 40
1.0
 40
1.0
 10
24.703
 20
0.6857
 30
0.0
 10
24.703
 20
0.6857
 30
0.0
 10
24.4592
 20
0.4418
 30
0.0
 10
24.4592
 20
0.4418
 30
0.0
  0
SPLINE
  5
17C
330
1F
100
AcDbEntity
  8
DEFAULT_2
 62
   250
100
AcDbSpline
210
0.0
220
0.0
230
1.0
 70
    24
 71
     3
 72
     8
 73
     4
 74
     0
 42
0.0000000001
 43
0.0000000001
 40
0.0
 40
0.0
 40
0.0
 40
0.0
 40
1.0
 40
1.0
 40
1.0
 40
1.0
 10
23.7624
 20
-0.255
 30
0.0
 10
23.7624
 20
-0.255
 30
0.0
 10
23.7202
 20
-0.2972
 30
0.0
 10
23.7202
 20
-0.2972
 30
0.0
  0
SPLINE
  5
17D
330
1F
100
AcDbEntity
  8
DEFAULT_2
 62
   250
100
AcDbSpline
210
0.0
220
0.0
230
1.0
 70
    24
 71
     3
 72
     8
 73
     4
 74
     0
 42
0.0000000001
 43
0.0000000001
 40
0.0
 40
0.0
 40
0.0
 40
0.0
 40
1.0
 40
1.0
 40
1.0
 40
1.0
 10
31.3847
 20
-20.1552
 30
0.0
 10
31.3847
 20
-20.1552
 30
0.0
 10
31.3423
 20
-20.1129
 30
0.0
 10
31.3423
 20
-20.1129
 30
0.0
  0
SPLINE
  5
17E
330
1F
100
AcDbEntity
  8
DEFAULT_2
 62
   250
100
AcDbSpline
210
0.0
220
0.0
230
1.0
 70
    24
 71
     3
 72
     8
 73
     4
 74
     0
 42
0.0000000001
 43
0.0000000001
 40
0.0
 40
0.0
 40
0.0
 40
0.0
 40
1.0
 40
1.0
 40
1.0
 40
1.0
 10
30.6456
 20
-19.4162
 30
0.0
 10
30.6456
 20
-19.4162
 30
0.0
 10
30.1926
 20
-18.9633
 30
0.0
 10
30.1926
 20
-18.9633
 30
0.0
  0
SPLINE
  5
17F
330
1F
100
AcDbEntity
  8
DEFAULT_2
 62
   250
100
AcDbSpline
210
0.0
220
0.0
230
1.0
 70
    24
 71
     3
 72
     8
 73
     4
 74
     0
 42
0.0000000001
 43
0.0000000001
 40
0.0
 40
0.0
 40
0.0
 40
0.0
 40
1.0
 40
1.0
 40
1.0
 40
1.0
 10
25.0713
 20
-13.842
 30
0.0
 10
25.0713
 20
-13.842
 30
0.0
 10
23.7202
 20
-12.4906
 30
0.0
 10
23.7202
 20
-12.4906
 30
0.0
  0
SPLINE
  5
180
330
1F
100
AcDbEntity
  8
DEFAULT_2
 62
   250
100
AcDbSpline
210
0.0
220
0.0
230
1.0
 70
    24
 71
     3
 72
     8
 73
     4
 74
     0
 42
0.0000000001
 43
0.0000000001
 40
0.0
 40
0.0
 40
0.0
 40
0.0
 40
1.0
 40
1.0
 40
1.0
 40
1.0
 10
18.7656
 20
-7.5362
 30
0.0
 10
18.7656
 20
-7.5362
 30
0.0
 10
18.3202
 20
-7.0907
 30
0.0
 10
18.3202
 20
-7.0907
 30
0.0
  0
SPLINE
  5
181
330
1F
100
AcDbEntity
  8
DEFAULT_2
 62
   250
100
AcDbSpline
210
0.0
220
0.0
230
1.0
 70
    24
 71
     3
 72
     8
 73
     4
 74
     0
 42
0.0000000001
 43
0.0000000001
 40
0.0
 40
0.0
 40
0.0
 40
0.0
 40
1.0
 40
1.0
 40
1.0
 40
1.0
 10
17.5843
 20
-4.4704
 30
0.0
 10
17.5843
 20
-4.4704
 30
0.0
 10
40.0979
 20
-4.4704
 30
0.0
 10
40.0979
 20
-4.4704
 30
0.0
  0
SPLINE
  5
182
330
1F
100
AcDbEntity
  8
DEFAULT_2
 62
   250
100
AcDbSpline
210
0.0
220
0.0
230
1.0
 70
    24
 71
     3
 72
     8
 73
     4
 74
     0
 42
0.0000000001
 43
0.0000000001
 40
0.0
 40
0.0
 40
0.0
 40
0.0
 40
1.0
 40
1.0
 40
1.0
 40
1.0
 10
21.5526
 20
-0.9866
 30
0.0
 10
21.5526
 20
-0.9866
 30
0.0
 10
22.2843
 20
-0.255
 30
0.0
 10
22.2843
 20
-0.255
 30
0.0
  0
SPLINE
  5
183
330
1F
100
AcDbEntity
  8
DEFAULT_2
 62
   250
100
AcDbSpline
210
0.0
220
0.0
230
1.0
 70
    24
 71
     3
 72
     8
 73
     4
 74
     0
 42
0.0000000001
 43
0.0000000001
 40
0.0
 40
0.0
 40
0.0
 40
0.0
 40
1.0
 40
1.0
 40
1.0
 40
1.0
 10
22.981
 20
0.4418
 30
0.0
 10
22.981
 20
0.4418
 30
0.0
 10
23.0234
 20
0.4841
 30
0.0
 10
23.0234
 20
0.4841
 30
0.0
  0
SPLINE
  5
184
330
1F
100
AcDbEntity
  8
DEFAULT_2
 62
   250
100
AcDbSpline
210
0.0
220
0.0
230
1.0
 70
    24
 71
     3
 72
     8
 73
     4
 74
     0
 42
0.0000000001
 43
0.0000000001
 40
0.0
 40
0.0
 40
0.0
 40
0.0
 40
1.0
 40
1.0
 40
1.0
 40
1.0
 10
28.5552
 20
6.016
 30
0.0
 10
28.5552
 20
6.016
 30
0.0
 10
28.5976
 20
6.0583
 30
0.0
 10
28.5976
 20
6.0583
 30
0.0
  0
SPLINE
  5
185
330
1F
100
AcDbEntity
  8
DEFAULT_2
 62
   250
100
AcDbSpline
210
0.0
220
0.0
230
1.0
 70
    24
 71
     3
 72
     8
 73
     4
 74
     0
 42
0.0000000001
 43
0.0000000001
 40
0.0
 40
0.0
 40
0.0
 40
0.0
 40
1.0
 40
1.0
 40
1.0
 40
1.0
 10
29.2943
 20
6.7551
 30
0.0
 10
29.2943
 20
6.7551
 30
0.0
 10
29.7745
 20
7.2354
 30
0.0
 10
29.7745
 20
7.2354
 30
0.0
  0
SPLINE
  5
186
330
1F
100
AcDbEntity
  8
DEFAULT_2
 62
   250
100
AcDbSpline
210
0.0
220
0.0
230
1.0
 70
    24
 71
     3
 72
     8
 73
     4
 74
     0
 42
0.0000000001
 43
0.0000000001
 40
0.0
 40
0.0
 40
0.0
 40
0.0
 40
1.0
 40
1.0
 40
1.0
 40
1.0
 10
18.3202
 20
13.7849
 30
0.0
 10
18.3202
 20
13.7849
 30
0.0
 10
18.3202
 20
11.0942
 30
0.0
 10
18.3202
 20
11.0942
 30
0.0
  0
SPLINE
  5
187
330
1F
100
AcDbEntity
  8
DEFAULT_2
 62
   250
100
AcDbSpline
210
0.0
220
0.0
230
1.0
 70
    24
 71
     3
 72
     8
 73
     4
 74
     0
 42
0.0000000001
 43
0.0000000001
 40
0.0
 40
0.0
 40
0.0
 40
0.0
 40
1.0
 40
1.0
 40
1.0
 40
1.0
 10
18.3202
 20
7.2354
 30
0.0
 10
18.3202
 20
7.2354
 30
0.0
 10
18.3202
 20
4.5446
 30
0.0
 10
18.3202
 20
4.5446
 30
0.0
  0
SPLINE
  5
188
330
1F
100
AcDbEntity
  8
DEFAULT_2
 62
   250
100
AcDbSpline
210
0.0
220
0.0
230
1.0
 70
    24
 71
     3
 72
     8
 73
     4
 74
     0
 42
0.0000000001
 43
0.0000000001
 40
0.0
 40
0.0
 40
0.0
 40
0.0
 40
1.0
 40
1.0
 40
1.0
 40
1.0
 10
18.3202
 20
0.6857
 30
0.0
 10
18.3202
 20
0.6857
 30
0.0
 10
18.3202
 20
-2.0051
 30
0.0
 10
18.3202
 20
-2.0051
 30
0.0
  0
SPLINE
  5
189
330
1F
100
AcDbEntity
  8
DEFAULT_2
 62
   250
100
AcDbSpline
210
0.0
220
0.0
230
1.0
 70
    24
 71
     3
 72
     8
 73
     4
 74
     0
 42
0.0000000001
 43
0.0000000001
 40
0.0
 40
0.0
 40
0.0
 40
0.0
 40
1.0
 40
1.0
 40
1.0
 40
1.0
 10
18.3202
 20
-5.864
 30
0.0
 10
18.3202
 20
-5.864
 30
0.0
 10
18.3202
 20
-8.5548
 30
0.0
 10
18.3202
 20
-8.5548
 30
0.0
  0
SPLINE
  5
18A
330
1F
100
AcDbEntity
  8
DEFAULT_2
 62
   250
100
AcDbSpline
210
0.0
220
0.0
230
1.0
 70
    24
 71
     3
 72
     8
 73
     4
 74
     0
 42
0.0000000001
 43
0.0000000001
 40
0.0
 40
0.0
 40
0.0
 40
0.0
 40
1.0
 40
1.0
 40
1.0
 40
1.0
 10
18.3202
 20
-12.4136
 30
0.0
 10
18.3202
 20
-12.4136
 30
0.0
 10
18.3202
 20
-15.1044
 30
0.0
 10
18.3202
 20
-15.1044
 30
0.0
  0
SPLINE
  5
18B
330
1F
100
AcDbEntity
  8
DEFAULT_2
 62
   250
100
AcDbSpline
210
0.0
220
0.0
230
1.0
 70
    24
 71
     3
 72
     8
 73
     4
 74
     0
 42
0.0000000001
 43
0.0000000001
 40
0.0
 40
0.0
 40
0.0
 40
0.0
 40
1.0
 40
1.0
 40
1.0
 40
1.0
 10
18.3202
 20
-18.9633
 30
0.0
 10
18.3202
 20
-18.9633
 30
0.0
 10
18.3202
 20
-21.6541
 30
0.0
 10
18.3202
 20
-21.6541
 30
0.0
  0
SPLINE
  5
18C
330
1F
100
AcDbEntity
  8
DEFAULT_2
 62
   250
100
AcDbSpline
210
0.0
220
0.0
230
1.0
 70
    24
 71
     3
 72
     8
 73
     4
 74
     0
 42
0.0000000001
 43
0.0000000001
 40
0.0
 40
0.0
 40
0.0
 40
0.0
 40
1.0
 40
1.0
 40
1.0
 40
1.0
 10
18.3202
 20
-25.513
 30
0.0
 10
18.3202
 20
-25.513
 30
0.0
 10
18.3202
 20
-28.1393
 30
0.0
 10
18.3202
 20
-28.1393
 30
0.0
  0
SPLINE
  5
18D
330
1F
100
AcDbEntity
  8
DEFAULT_2
 62
   250
100
AcDbSpline
210
0.0
220
0.0
230
1.0
 70
    24
 71
     3
 72
     8
 73
     4
 74
     0
 42
0.0000000001
 43
0.0000000001
 40
0.0
 40
0.0
 40
0.0
 40
0.0
 40
1.0
 40
1.0
 40
1.0
 40
1.0
 10
20.2363
 20
13.6804
 30
0.0
 10
20.2363
 20
13.6804
 30
0.0
 10
20.2363
 20
12.1127
 30
0.0
 10
20.2363
 20
12.1127
 30
0.0
  0
SPLINE
  5
18E
330
1F
100
AcDbEntity
  8
DEFAULT_2
 62
   250
100
AcDbSpline
210
0.0
220
0.0
230
1.0
 70
    24
 71
     3
 72
     8
 73
     4
 74
     0
 42
0.0000000001
 43
0.0000000001
 40
0.0
 40
0.0
 40
0.0
 40
0.0
 40
1.0
 40
1.0
 40
1.0
 40
1.0
 10
20.2363
 20
7.2354
 30
0.0
 10
20.2363
 20
7.2354
 30
0.0
 10
20.2363
 20
6.016
 30
0.0
 10
20.2363
 20
6.016
 30
0.0
  0
SPLINE
  5
18F
330
1F
100
AcDbEntity
  8
DEFAULT_2
 62
   250
100
AcDbSpline
210
0.0
220
0.0
230
1.0
 70
    24
 71
     3
 72
     8
 73
     4
 74
     0
 42
0.0000000001
 43
0.0000000001
 40
0.0
 40
0.0
 40
0.0
 40
0.0
 40
1.0
 40
1.0
 40
1.0
 40
1.0
 10
20.2363
 20
0.6857
 30
0.0
 10
20.2363
 20
0.6857
 30
0.0
 10
20.2363
 20
0.4418
 30
0.0
 10
20.2363
 20
0.4418
 30
0.0
  0
SPLINE
  5
190
330
1F
100
AcDbEntity
  8
DEFAULT_2
 62
   250
100
AcDbSpline
210
0.0
220
0.0
230
1.0
 70
    24
 71
     3
 72
     8
 73
     4
 74
     0
 42
0.0000000001
 43
0.0000000001
 40
0.0
 40
0.0
 40
0.0
 40
0.0
 40
1.0
 40
1.0
 40
1.0
 40
1.0
 10
20.2363
 20
-0.255
 30
0.0
 10
20.2363
 20
-0.255
 30
0.0
 10
20.2363
 20
-0.9866
 30
0.0
 10
20.2363
 20
-0.9866
 30
0.0
  0
SPLINE
  5
191
330
1F
100
AcDbEntity
  8
DEFAULT_2
 62
   250
100
AcDbSpline
210
0.0
220
0.0
230
1.0
 70
    24
 71
     3
 72
     8
 73
     4
 74
     0
 42
0.0000000001
 43
0.0000000001
 40
0.0
 40
0.0
 40
0.0
 40
0.0
 40
1.0
 40
1.0
 40
1.0
 40
1.0
 10
20.2363
 20
-26.394
 30
0.0
 10
20.2363
 20
-26.394
 30
0.0
 10
20.2363
 20
-25.6871
 30
0.0
 10
20.2363
 20
-25.6871
 30
0.0
  0
SPLINE
  5
192
330
1F
100
AcDbEntity
  8
DEFAULT_2
 62
   250
100
AcDbSpline
210
0.0
220
0.0
230
1.0
 70
    24
 71
     3
 72
     8
 73
     4
 74
     0
 42
0.0000000001
 43
0.0000000001
 40
0.0
 40
0.0
 40
0.0
 40
0.0
 40
1.0
 40
1.0
 40
1.0
 40
1.0
 10
20.2363
 20
-20.6355
 30
0.0
 10
20.2363
 20
-20.6355
 30
0.0
 10
20.2363
 20
-20.1129
 30
0.0
 10
20.2363
 20
-20.1129
 30
0.0
  0
SPLINE
  5
193
330
1F
100
AcDbEntity
  8
DEFAULT_2
 62
   250
100
AcDbSpline
210
0.0
220
0.0
230
1.0
 70
    24
 71
     3
 72
     8
 73
     4
 74
     0
 42
0.0000000001
 43
0.0000000001
 40
0.0
 40
0.0
 40
0.0
 40
0.0
 40
1.0
 40
1.0
 40
1.0
 40
1.0
 10
20.2363
 20
-19.4162
 30
0.0
 10
20.2363
 20
-19.4162
 30
0.0
 10
20.2363
 20
-18.9633
 30
0.0
 10
20.2363
 20
-18.9633
 30
0.0
  0
SPLINE
  5
194
330
1F
100
AcDbEntity
  8
DEFAULT_2
 62
   250
100
AcDbSpline
210
0.0
220
0.0
230
1.0
 70
    24
 71
     3
 72
     8
 73
     4
 74
     0
 42
0.0000000001
 43
0.0000000001
 40
0.0
 40
0.0
 40
0.0
 40
0.0
 40
1.0
 40
1.0
 40
1.0
 40
1.0
 10
20.2363
 20
-13.842
 30
0.0
 10
20.2363
 20
-13.842
 30
0.0
 10
20.2363
 20
-12.4136
 30
0.0
 10
20.2363
 20
-12.4136
 30
0.0
  0
SPLINE
  5
195
330
1F
100
AcDbEntity
  8
DEFAULT_2
 62
   250
100
AcDbSpline
210
0.0
220
0.0
230
1.0
 70
    24
 71
     3
 72
     8
 73
     4
 74
     0
 42
0.0000000001
 43
0.0000000001
 40
0.0
 40
0.0
 40
0.0
 40
0.0
 40
1.0
 40
1.0
 40
1.0
 40
1.0
 10
20.2363
 20
-7.5287
 30
0.0
 10
20.2363
 20
-7.5287
 30
0.0
 10
20.2363
 20
-6.1775
 30
0.0
 10
20.2363
 20
-6.1775
 30
0.0
  0
SPLINE
  5
196
330
1F
100
AcDbEntity
  8
DEFAULT_2
 62
   250
100
AcDbSpline
210
0.0
220
0.0
230
1.0
 70
    24
 71
     3
 72
     8
 73
     4
 74
     0
 42
0.0000000001
 43
0.0000000001
 40
0.0
 40
0.0
 40
0.0
 40
0.0
 40
1.0
 40
1.0
 40
1.0
 40
1.0
 10
18.8849
 20
-6.1775
 30
0.0
 10
18.8849
 20
-6.1775
 30
0.0
 10
20.2363
 20
-7.5287
 30
0.0
 10
20.2363
 20
-7.5287
 30
0.0
  0
SPLINE
  5
197
330
1F
100
AcDbEntity
  8
DEFAULT_2
 62
   250
100
AcDbSpline
210
0.0
220
0.0
230
1.0
 70
    24
 71
     3
 72
     8
 73
     4
 74
     0
 42
0.0000000001
 43
0.0000000001
 40
0.0
 40
0.0
 40
0.0
 40
0.0
 40
1.0
 40
1.0
 40
1.0
 40
1.0
 10
25.1211
 20
-12.4136
 30
0.0
 10
25.1211
 20
-12.4136
 30
0.0
 10
25.8105
 20
-13.1029
 30
0.0
 10
25.8105
 20
-13.1029
 30
0.0
  0
SPLINE
  5
198
330
1F
100
AcDbEntity
  8
DEFAULT_2
 62
   250
100
AcDbSpline
210
0.0
220
0.0
230
1.0
 70
    24
 71
     3
 72
     8
 73
     4
 74
     0
 42
0.0000000001
 43
0.0000000001
 40
0.0
 40
0.0
 40
0.0
 40
0.0
 40
1.0
 40
1.0
 40
1.0
 40
1.0
 10
26.5073
 20
-13.7996
 30
0.0
 10
26.5073
 20
-13.7996
 30
0.0
 10
26.5495
 20
-13.842
 30
0.0
 10
26.5495
 20
-13.842
 30
0.0
  0
SPLINE
  5
199
330
1F
100
AcDbEntity
  8
DEFAULT_2
 62
   250
100
AcDbSpline
210
0.0
220
0.0
230
1.0
 70
    24
 71
     3
 72
     8
 73
     4
 74
     0
 42
0.0000000001
 43
0.0000000001
 40
0.0
 40
0.0
 40
0.0
 40
0.0
 40
1.0
 40
1.0
 40
1.0
 40
1.0
 10
32.0814
 20
-19.3739
 30
0.0
 10
32.0814
 20
-19.3739
 30
0.0
 10
32.1236
 20
-19.4162
 30
0.0
 10
32.1236
 20
-19.4162
 30
0.0
  0
SPLINE
  5
19A
330
1F
100
AcDbEntity
  8
DEFAULT_2
 62
   250
100
AcDbSpline
210
0.0
220
0.0
230
1.0
 70
    24
 71
     3
 72
     8
 73
     4
 74
     0
 42
0.0000000001
 43
0.0000000001
 40
0.0
 40
0.0
 40
0.0
 40
0.0
 40
1.0
 40
1.0
 40
1.0
 40
1.0
 10
18.3202
 20
-2.0051
 30
0.0
 10
18.3202
 20
-2.0051
 30
0.0
 10
17.5843
 20
-2.0051
 30
0.0
 10
17.5843
 20
-2.0051
 30
0.0
  0
SPLINE
  5
19B
330
1F
100
AcDbEntity
  8
DEFAULT_2
 62
   250
100
AcDbSpline
210
0.0
220
0.0
230
1.0
 70
    24
 71
     3
 72
     8
 73
     4
 74
     0
 42
0.0000000001
 43
0.0000000001
 40
0.0
 40
0.0
 40
0.0
 40
0.0
 40
1.0
 40
1.0
 40
1.0
 40
1.0
 10
18.3202
 20
-0.9866
 30
0.0
 10
18.3202
 20
-0.9866
 30
0.0
 10
39.6313
 20
-0.9866
 30
0.0
 10
39.6313
 20
-0.9866
 30
0.0
  0
SPLINE
  5
19C
330
1F
100
AcDbEntity
  8
DEFAULT_2
 62
   250
100
AcDbSpline
210
0.0
220
0.0
230
1.0
 70
    24
 71
     3
 72
     8
 73
     4
 74
     0
 42
0.0000000001
 43
0.0000000001
 40
0.0
 40
0.0
 40
0.0
 40
0.0
 40
1.0
 40
1.0
 40
1.0
 40
1.0
 10
37.8169
 20
-0.255
 30
0.0
 10
37.8169
 20
-0.255
 30
0.0
 10
37.6556
 20
-0.255
 30
0.0
 10
37.6556
 20
-0.255
 30
0.0
  0
SPLINE
  5
19D
330
1F
100
AcDbEntity
  8
DEFAULT_2
 62
   250
100
AcDbSpline
210
0.0
220
0.0
230
1.0
 70
    24
 71
     3
 72
     8
 73
     4
 74
     0
 42
0.0000000001
 43
0.0000000001
 40
0.0
 40
0.0
 40
0.0
 40
0.0
 40
1.0
 40
1.0
 40
1.0
 40
1.0
 10
18.3202
 20
-0.255
 30
0.0
 10
18.3202
 20
-0.255
 30
0.0
 10
20.2363
 20
-0.255
 30
0.0
 10
20.2363
 20
-0.255
 30
0.0
  0
SPLINE
  5
19E
330
1F
100
AcDbEntity
  8
DEFAULT_2
 62
   250
100
AcDbSpline
210
0.0
220
0.0
230
1.0
 70
    24
 71
     3
 72
     8
 73
     4
 74
     0
 42
0.0000000001
 43
0.0000000001
 40
0.0
 40
0.0
 40
0.0
 40
0.0
 40
1.0
 40
1.0
 40
1.0
 40
1.0
 10
20.933
 20
-0.255
 30
0.0
 10
20.933
 20
-0.255
 30
0.0
 10
22.2843
 20
-0.255
 30
0.0
 10
22.2843
 20
-0.255
 30
0.0
  0
SPLINE
  5
19F
330
1F
100
AcDbEntity
  8
DEFAULT_2
 62
   250
100
AcDbSpline
210
0.0
220
0.0
230
1.0
 70
    24
 71
     3
 72
     8
 73
     4
 74
     0
 42
0.0000000001
 43
0.0000000001
 40
0.0
 40
0.0
 40
0.0
 40
0.0
 40
1.0
 40
1.0
 40
1.0
 40
1.0
 10
23.7624
 20
-0.255
 30
0.0
 10
23.7624
 20
-0.255
 30
0.0
 10
25.8105
 20
-0.255
 30
0.0
 10
25.8105
 20
-0.255
 30
0.0
  0
SPLINE
  5
1A0
330
1F
100
AcDbEntity
  8
DEFAULT_2
 62
   250
100
AcDbSpline
210
0.0
220
0.0
230
1.0
 70
    24
 71
     3
 72
     8
 73
     4
 74
     0
 42
0.0000000001
 43
0.0000000001
 40
0.0
 40
0.0
 40
0.0
 40
0.0
 40
1.0
 40
1.0
 40
1.0
 40
1.0
 10
26.5073
 20
-0.255
 30
0.0
 10
26.5073
 20
-0.255
 30
0.0
 10
28.5976
 20
-0.255
 30
0.0
 10
28.5976
 20
-0.255
 30
0.0
  0
SPLINE
  5
1A1
330
1F
100
AcDbEntity
  8
DEFAULT_2
 62
   250
100
AcDbSpline
210
0.0
220
0.0
230
1.0
 70
    24
 71
     3
 72
     8
 73
     4
 74
     0
 42
0.0000000001
 43
0.0000000001
 40
0.0
 40
0.0
 40
0.0
 40
0.0
 40
1.0
 40
1.0
 40
1.0
 40
1.0
 10
29.2943
 20
-0.255
 30
0.0
 10
29.2943
 20
-0.255
 30
0.0
 10
31.3847
 20
-0.255
 30
0.0
 10
31.3847
 20
-0.255
 30
0.0
  0
SPLINE
  5
1A2
330
1F
100
AcDbEntity
  8
DEFAULT_2
 62
   250
100
AcDbSpline
210
0.0
220
0.0
230
1.0
 70
    24
 71
     3
 72
     8
 73
     4
 74
     0
 42
0.0000000001
 43
0.0000000001
 40
0.0
 40
0.0
 40
0.0
 40
0.0
 40
1.0
 40
1.0
 40
1.0
 40
1.0
 10
32.0814
 20
-0.255
 30
0.0
 10
32.0814
 20
-0.255
 30
0.0
 10
34.1717
 20
-0.255
 30
0.0
 10
34.1717
 20
-0.255
 30
0.0
  0
SPLINE
  5
1A3
330
1F
100
AcDbEntity
  8
DEFAULT_2
 62
   250
100
AcDbSpline
210
0.0
220
0.0
230
1.0
 70
    24
 71
     3
 72
     8
 73
     4
 74
     0
 42
0.0000000001
 43
0.0000000001
 40
0.0
 40
0.0
 40
0.0
 40
0.0
 40
1.0
 40
1.0
 40
1.0
 40
1.0
 10
34.8686
 20
-0.255
 30
0.0
 10
34.8686
 20
-0.255
 30
0.0
 10
36.9588
 20
-0.255
 30
0.0
 10
36.9588
 20
-0.255
 30
0.0
  0
SPLINE
  5
1A4
330
1F
100
AcDbEntity
  8
DEFAULT_2
 62
   250
100
AcDbSpline
210
0.0
220
0.0
230
1.0
 70
    24
 71
     3
 72
     8
 73
     4
 74
     0
 42
0.0000000001
 43
0.0000000001
 40
0.0
 40
0.0
 40
0.0
 40
0.0
 40
1.0
 40
1.0
 40
1.0
 40
1.0
 10
20.933
 20
-6.1775
 30
0.0
 10
20.933
 20
-6.1775
 30
0.0
 10
20.933
 20
-7.5362
 30
0.0
 10
20.933
 20
-7.5362
 30
0.0
  0
SPLINE
  5
1A5
330
1F
100
AcDbEntity
  8
DEFAULT_2
 62
   250
100
AcDbSpline
210
0.0
220
0.0
230
1.0
 70
    24
 71
     3
 72
     8
 73
     4
 74
     0
 42
0.0000000001
 43
0.0000000001
 40
0.0
 40
0.0
 40
0.0
 40
0.0
 40
1.0
 40
1.0
 40
1.0
 40
1.0
 10
20.933
 20
-12.4136
 30
0.0
 10
20.933
 20
-12.4136
 30
0.0
 10
20.933
 20
-13.842
 30
0.0
 10
20.933
 20
-13.842
 30
0.0
  0
SPLINE
  5
1A6
330
1F
100
AcDbEntity
  8
DEFAULT_2
 62
   250
100
AcDbSpline
210
0.0
220
0.0
230
1.0
 70
    24
 71
     3
 72
     8
 73
     4
 74
     0
 42
0.0000000001
 43
0.0000000001
 40
0.0
 40
0.0
 40
0.0
 40
0.0
 40
1.0
 40
1.0
 40
1.0
 40
1.0
 10
20.933
 20
-18.9633
 30
0.0
 10
20.933
 20
-18.9633
 30
0.0
 10
20.933
 20
-19.4162
 30
0.0
 10
20.933
 20
-19.4162
 30
0.0
  0
SPLINE
  5
1A7
330
1F
100
AcDbEntity
  8
DEFAULT_2
 62
   250
100
AcDbSpline
210
0.0
220
0.0
230
1.0
 70
    24
 71
     3
 72
     8
 73
     4
 74
     0
 42
0.0000000001
 43
0.0000000001
 40
0.0
 40
0.0
 40
0.0
 40
0.0
 40
1.0
 40
1.0
 40
1.0
 40
1.0
 10
20.933
 20
-20.1129
 30
0.0
 10
20.933
 20
-20.1129
 30
0.0
 10
20.933
 20
-20.6355
 30
0.0
 10
20.933
 20
-20.6355
 30
0.0
  0
SPLINE
  5
1A8
330
1F
100
AcDbEntity
  8
DEFAULT_2
 62
   250
100
AcDbSpline
210
0.0
220
0.0
230
1.0
 70
    24
 71
     3
 72
     8
 73
     4
 74
     0
 42
0.0000000001
 43
0.0000000001
 40
0.0
 40
0.0
 40
0.0
 40
0.0
 40
1.0
 40
1.0
 40
1.0
 40
1.0
 10
20.933
 20
-25.6871
 30
0.0
 10
20.933
 20
-25.6871
 30
0.0
 10
20.933
 20
-26.2944
 30
0.0
 10
20.933
 20
-26.2944
 30
0.0
  0
SPLINE
  5
1A9
330
1F
100
AcDbEntity
  8
DEFAULT_2
 62
   250
100
AcDbSpline
210
0.0
220
0.0
230
1.0
 70
    24
 71
     3
 72
     8
 73
     4
 74
     0
 42
0.0000000001
 43
0.0000000001
 40
0.0
 40
0.0
 40
0.0
 40
0.0
 40
1.0
 40
1.0
 40
1.0
 40
1.0
 10
20.933
 20
-0.9866
 30
0.0
 10
20.933
 20
-0.9866
 30
0.0
 10
20.933
 20
-0.255
 30
0.0
 10
20.933
 20
-0.255
 30
0.0
  0
SPLINE
  5
1AA
330
1F
100
AcDbEntity
  8
DEFAULT_2
 62
   250
100
AcDbSpline
210
0.0
220
0.0
230
1.0
 70
    24
 71
     3
 72
     8
 73
     4
 74
     0
 42
0.0000000001
 43
0.0000000001
 40
0.0
 40
0.0
 40
0.0
 40
0.0
 40
1.0
 40
1.0
 40
1.0
 40
1.0
 10
20.933
 20
0.4418
 30
0.0
 10
20.933
 20
0.4418
 30
0.0
 10
20.933
 20
0.6857
 30
0.0
 10
20.933
 20
0.6857
 30
0.0
  0
SPLINE
  5
1AB
330
1F
100
AcDbEntity
  8
DEFAULT_2
 62
   250
100
AcDbSpline
210
0.0
220
0.0
230
1.0
 70
    24
 71
     3
 72
     8
 73
     4
 74
     0
 42
0.0000000001
 43
0.0000000001
 40
0.0
 40
0.0
 40
0.0
 40
0.0
 40
1.0
 40
1.0
 40
1.0
 40
1.0
 10
20.933
 20
6.016
 30
0.0
 10
20.933
 20
6.016
 30
0.0
 10
20.933
 20
7.2354
 30
0.0
 10
20.933
 20
7.2354
 30
0.0
  0
SPLINE
  5
1AC
330
1F
100
AcDbEntity
  8
DEFAULT_2
 62
   250
100
AcDbSpline
210
0.0
220
0.0
230
1.0
 70
    24
 71
     3
 72
     8
 73
     4
 74
     0
 42
0.0000000001
 43
0.0000000001
 40
0.0
 40
0.0
 40
0.0
 40
0.0
 40
1.0
 40
1.0
 40
1.0
 40
1.0
 10
20.933
 20
12.1127
 30
0.0
 10
20.933
 20
12.1127
 30
0.0
 10
20.933
 20
13.6804
 30
0.0
 10
20.933
 20
13.6804
 30
0.0
  0
SPLINE
  5
1AD
330
1F
100
AcDbEntity
  8
DEFAULT_2
 62
   250
100
AcDbSpline
210
0.0
220
0.0
230
1.0
 70
    24
 71
     3
 72
     8
 73
     4
 74
     0
 42
0.0000000001
 43
0.0000000001
 40
0.0
 40
0.0
 40
0.0
 40
0.0
 40
1.0
 40
1.0
 40
1.0
 40
1.0
 10
23.0234
 20
13.6804
 30
0.0
 10
23.0234
 20
13.6804
 30
0.0
 10
23.0234
 20
12.1127
 30
0.0
 10
23.0234
 20
12.1127
 30
0.0
  0
SPLINE
  5
1AE
330
1F
100
AcDbEntity
  8
DEFAULT_2
 62
   250
100
AcDbSpline
210
0.0
220
0.0
230
1.0
 70
    24
 71
     3
 72
     8
 73
     4
 74
     0
 42
0.0000000001
 43
0.0000000001
 40
0.0
 40
0.0
 40
0.0
 40
0.0
 40
1.0
 40
1.0
 40
1.0
 40
1.0
 10
23.0234
 20
7.2354
 30
0.0
 10
23.0234
 20
7.2354
 30
0.0
 10
23.0234
 20
6.016
 30
0.0
 10
23.0234
 20
6.016
 30
0.0
  0
SPLINE
  5
1AF
330
1F
100
AcDbEntity
  8
DEFAULT_2
 62
   250
100
AcDbSpline
210
0.0
220
0.0
230
1.0
 70
    24
 71
     3
 72
     8
 73
     4
 74
     0
 42
0.0000000001
 43
0.0000000001
 40
0.0
 40
0.0
 40
0.0
 40
0.0
 40
1.0
 40
1.0
 40
1.0
 40
1.0
 10
23.0234
 20
0.6857
 30
0.0
 10
23.0234
 20
0.6857
 30
0.0
 10
23.0234
 20
0.4841
 30
0.0
 10
23.0234
 20
0.4841
 30
0.0
  0
SPLINE
  5
1B0
330
1F
100
AcDbEntity
  8
DEFAULT_2
 62
   250
100
AcDbSpline
210
0.0
220
0.0
230
1.0
 70
    24
 71
     3
 72
     8
 73
     4
 74
     0
 42
0.0000000001
 43
0.0000000001
 40
0.0
 40
0.0
 40
0.0
 40
0.0
 40
1.0
 40
1.0
 40
1.0
 40
1.0
 10
23.0234
 20
-25.8485
 30
0.0
 10
23.0234
 20
-25.8485
 30
0.0
 10
23.0234
 20
-25.6871
 30
0.0
 10
23.0234
 20
-25.6871
 30
0.0
  0
SPLINE
  5
1B1
330
1F
100
AcDbEntity
  8
DEFAULT_2
 62
   250
100
AcDbSpline
210
0.0
220
0.0
230
1.0
 70
    24
 71
     3
 72
     8
 73
     4
 74
     0
 42
0.0000000001
 43
0.0000000001
 40
0.0
 40
0.0
 40
0.0
 40
0.0
 40
1.0
 40
1.0
 40
1.0
 40
1.0
 10
23.0234
 20
-20.6355
 30
0.0
 10
23.0234
 20
-20.6355
 30
0.0
 10
23.0234
 20
-20.1129
 30
0.0
 10
23.0234
 20
-20.1129
 30
0.0
  0
SPLINE
  5
1B2
330
1F
100
AcDbEntity
  8
DEFAULT_2
 62
   250
100
AcDbSpline
210
0.0
220
0.0
230
1.0
 70
    24
 71
     3
 72
     8
 73
     4
 74
     0
 42
0.0000000001
 43
0.0000000001
 40
0.0
 40
0.0
 40
0.0
 40
0.0
 40
1.0
 40
1.0
 40
1.0
 40
1.0
 10
23.0234
 20
-19.4162
 30
0.0
 10
23.0234
 20
-19.4162
 30
0.0
 10
23.0234
 20
-18.9633
 30
0.0
 10
23.0234
 20
-18.9633
 30
0.0
  0
SPLINE
  5
1B3
330
1F
100
AcDbEntity
  8
DEFAULT_2
 62
   250
100
AcDbSpline
210
0.0
220
0.0
230
1.0
 70
    24
 71
     3
 72
     8
 73
     4
 74
     0
 42
0.0000000001
 43
0.0000000001
 40
0.0
 40
0.0
 40
0.0
 40
0.0
 40
1.0
 40
1.0
 40
1.0
 40
1.0
 10
23.0234
 20
-13.842
 30
0.0
 10
23.0234
 20
-13.842
 30
0.0
 10
23.0234
 20
-12.4136
 30
0.0
 10
23.0234
 20
-12.4136
 30
0.0
  0
SPLINE
  5
1B4
330
1F
100
AcDbEntity
  8
DEFAULT_2
 62
   250
100
AcDbSpline
210
0.0
220
0.0
230
1.0
 70
    24
 71
     3
 72
     8
 73
     4
 74
     0
 42
0.0000000001
 43
0.0000000001
 40
0.0
 40
0.0
 40
0.0
 40
0.0
 40
1.0
 40
1.0
 40
1.0
 40
1.0
 10
23.0234
 20
-7.5362
 30
0.0
 10
23.0234
 20
-7.5362
 30
0.0
 10
23.0234
 20
-6.1775
 30
0.0
 10
23.0234
 20
-6.1775
 30
0.0
  0
SPLINE
  5
1B5
330
1F
100
AcDbEntity
  8
DEFAULT_2
 62
   250
100
AcDbSpline
210
0.0
220
0.0
230
1.0
 70
    24
 71
     3
 72
     8
 73
     4
 74
     0
 42
0.0000000001
 43
0.0000000001
 40
0.0
 40
0.0
 40
0.0
 40
0.0
 40
1.0
 40
1.0
 40
1.0
 40
1.0
 10
36.9588
 20
0.4418
 30
0.0
 10
36.9588
 20
0.4418
 30
0.0
 10
34.8686
 20
0.4418
 30
0.0
 10
34.8686
 20
0.4418
 30
0.0
  0
SPLINE
  5
1B6
330
1F
100
AcDbEntity
  8
DEFAULT_2
 62
   250
100
AcDbSpline
210
0.0
220
0.0
230
1.0
 70
    24
 71
     3
 72
     8
 73
     4
 74
     0
 42
0.0000000001
 43
0.0000000001
 40
0.0
 40
0.0
 40
0.0
 40
0.0
 40
1.0
 40
1.0
 40
1.0
 40
1.0
 10
34.1717
 20
0.4418
 30
0.0
 10
34.1717
 20
0.4418
 30
0.0
 10
32.0814
 20
0.4418
 30
0.0
 10
32.0814
 20
0.4418
 30
0.0
  0
SPLINE
  5
1B7
330
1F
100
AcDbEntity
  8
DEFAULT_2
 62
   250
100
AcDbSpline
210
0.0
220
0.0
230
1.0
 70
    24
 71
     3
 72
     8
 73
     4
 74
     0
 42
0.0000000001
 43
0.0000000001
 40
0.0
 40
0.0
 40
0.0
 40
0.0
 40
1.0
 40
1.0
 40
1.0
 40
1.0
 10
31.3847
 20
0.4418
 30
0.0
 10
31.3847
 20
0.4418
 30
0.0
 10
29.2943
 20
0.4418
 30
0.0
 10
29.2943
 20
0.4418
 30
0.0
  0
SPLINE
  5
1B8
330
1F
100
AcDbEntity
  8
DEFAULT_2
 62
   250
100
AcDbSpline
210
0.0
220
0.0
230
1.0
 70
    24
 71
     3
 72
     8
 73
     4
 74
     0
 42
0.0000000001
 43
0.0000000001
 40
0.0
 40
0.0
 40
0.0
 40
0.0
 40
1.0
 40
1.0
 40
1.0
 40
1.0
 10
28.5976
 20
0.4418
 30
0.0
 10
28.5976
 20
0.4418
 30
0.0
 10
26.5073
 20
0.4418
 30
0.0
 10
26.5073
 20
0.4418
 30
0.0
  0
SPLINE
  5
1B9
330
1F
100
AcDbEntity
  8
DEFAULT_2
 62
   250
100
AcDbSpline
210
0.0
220
0.0
230
1.0
 70
    24
 71
     3
 72
     8
 73
     4
 74
     0
 42
0.0000000001
 43
0.0000000001
 40
0.0
 40
0.0
 40
0.0
 40
0.0
 40
1.0
 40
1.0
 40
1.0
 40
1.0
 10
25.8105
 20
0.4418
 30
0.0
 10
25.8105
 20
0.4418
 30
0.0
 10
24.4592
 20
0.4418
 30
0.0
 10
24.4592
 20
0.4418
 30
0.0
  0
SPLINE
  5
1BA
330
1F
100
AcDbEntity
  8
DEFAULT_2
 62
   250
100
AcDbSpline
210
0.0
220
0.0
230
1.0
 70
    24
 71
     3
 72
     8
 73
     4
 74
     0
 42
0.0000000001
 43
0.0000000001
 40
0.0
 40
0.0
 40
0.0
 40
0.0
 40
1.0
 40
1.0
 40
1.0
 40
1.0
 10
22.981
 20
0.4418
 30
0.0
 10
22.981
 20
0.4418
 30
0.0
 10
20.933
 20
0.4418
 30
0.0
 10
20.933
 20
0.4418
 30
0.0
  0
SPLINE
  5
1BB
330
1F
100
AcDbEntity
  8
DEFAULT_2
 62
   250
100
AcDbSpline
210
0.0
220
0.0
230
1.0
 70
    24
 71
     3
 72
     8
 73
     4
 74
     0
 42
0.0000000001
 43
0.0000000001
 40
0.0
 40
0.0
 40
0.0
 40
0.0
 40
1.0
 40
1.0
 40
1.0
 40
1.0
 10
20.2363
 20
0.4418
 30
0.0
 10
20.2363
 20
0.4418
 30
0.0
 10
18.3202
 20
0.4418
 30
0.0
 10
18.3202
 20
0.4418
 30
0.0
  0
SPLINE
  5
1BC
330
1F
100
AcDbEntity
  8
DEFAULT_2
 62
   250
100
AcDbSpline
210
0.0
220
0.0
230
1.0
 70
    24
 71
     3
 72
     8
 73
     4
 74
     0
 42
0.0000000001
 43
0.0000000001
 40
0.0
 40
0.0
 40
0.0
 40
0.0
 40
1.0
 40
1.0
 40
1.0
 40
1.0
 10
17.6626
 20
0.6857
 30
0.0
 10
17.6626
 20
0.6857
 30
0.0
 10
39.2175
 20
0.6857
 30
0.0
 10
39.2175
 20
0.6857
 30
0.0
  0
SPLINE
  5
1BD
330
1F
100
AcDbEntity
  8
DEFAULT_2
 62
   250
100
AcDbSpline
210
0.0
220
0.0
230
1.0
 70
    24
 71
     3
 72
     8
 73
     4
 74
     0
 42
0.0000000001
 43
0.0000000001
 40
0.0
 40
0.0
 40
0.0
 40
0.0
 40
1.0
 40
1.0
 40
1.0
 40
1.0
 10
17.6626
 20
2.0793
 30
0.0
 10
17.6626
 20
2.0793
 30
0.0
 10
38.7585
 20
2.0793
 30
0.0
 10
38.7585
 20
2.0793
 30
0.0
  0
SPLINE
  5
1BE
330
1F
100
AcDbEntity
  8
DEFAULT_2
 62
   250
100
AcDbSpline
210
0.0
220
0.0
230
1.0
 70
    24
 71
     3
 72
     8
 73
     4
 74
     0
 42
0.0000000001
 43
0.0000000001
 40
0.0
 40
0.0
 40
0.0
 40
0.0
 40
1.0
 40
1.0
 40
1.0
 40
1.0
 10
23.7202
 20
-6.1775
 30
0.0
 10
23.7202
 20
-6.1775
 30
0.0
 10
23.7202
 20
-7.5362
 30
0.0
 10
23.7202
 20
-7.5362
 30
0.0
  0
SPLINE
  5
1BF
330
1F
100
AcDbEntity
  8
DEFAULT_2
 62
   250
100
AcDbSpline
210
0.0
220
0.0
230
1.0
 70
    24
 71
     3
 72
     8
 73
     4
 74
     0
 42
0.0000000001
 43
0.0000000001
 40
0.0
 40
0.0
 40
0.0
 40
0.0
 40
1.0
 40
1.0
 40
1.0
 40
1.0
 10
23.7202
 20
-12.4906
 30
0.0
 10
23.7202
 20
-12.4906
 30
0.0
 10
23.7202
 20
-13.842
 30
0.0
 10
23.7202
 20
-13.842
 30
0.0
  0
SPLINE
  5
1C0
330
1F
100
AcDbEntity
  8
DEFAULT_2
 62
   250
100
AcDbSpline
210
0.0
220
0.0
230
1.0
 70
    24
 71
     3
 72
     8
 73
     4
 74
     0
 42
0.0000000001
 43
0.0000000001
 40
0.0
 40
0.0
 40
0.0
 40
0.0
 40
1.0
 40
1.0
 40
1.0
 40
1.0
 10
23.7202
 20
-18.9633
 30
0.0
 10
23.7202
 20
-18.9633
 30
0.0
 10
23.7202
 20
-19.4162
 30
0.0
 10
23.7202
 20
-19.4162
 30
0.0
  0
SPLINE
  5
1C1
330
1F
100
AcDbEntity
  8
DEFAULT_2
 62
   250
100
AcDbSpline
210
0.0
220
0.0
230
1.0
 70
    24
 71
     3
 72
     8
 73
     4
 74
     0
 42
0.0000000001
 43
0.0000000001
 40
0.0
 40
0.0
 40
0.0
 40
0.0
 40
1.0
 40
1.0
 40
1.0
 40
1.0
 10
23.7202
 20
-20.1129
 30
0.0
 10
23.7202
 20
-20.1129
 30
0.0
 10
23.7202
 20
-20.6355
 30
0.0
 10
23.7202
 20
-20.6355
 30
0.0
  0
SPLINE
  5
1C2
330
1F
100
AcDbEntity
  8
DEFAULT_2
 62
   250
100
AcDbSpline
210
0.0
220
0.0
230
1.0
 70
    24
 71
     3
 72
     8
 73
     4
 74
     0
 42
0.0000000001
 43
0.0000000001
 40
0.0
 40
0.0
 40
0.0
 40
0.0
 40
1.0
 40
1.0
 40
1.0
 40
1.0
 10
23.7202
 20
-0.9866
 30
0.0
 10
23.7202
 20
-0.9866
 30
0.0
 10
23.7202
 20
-0.2972
 30
0.0
 10
23.7202
 20
-0.2972
 30
0.0
  0
SPLINE
  5
1C3
330
1F
100
AcDbEntity
  8
DEFAULT_2
 62
   250
100
AcDbSpline
210
0.0
220
0.0
230
1.0
 70
    24
 71
     3
 72
     8
 73
     4
 74
     0
 42
0.0000000001
 43
0.0000000001
 40
0.0
 40
0.0
 40
0.0
 40
0.0
 40
1.0
 40
1.0
 40
1.0
 40
1.0
 10
23.7202
 20
6.016
 30
0.0
 10
23.7202
 20
6.016
 30
0.0
 10
23.7202
 20
7.2354
 30
0.0
 10
23.7202
 20
7.2354
 30
0.0
  0
SPLINE
  5
1C4
330
1F
100
AcDbEntity
  8
DEFAULT_2
 62
   250
100
AcDbSpline
210
0.0
220
0.0
230
1.0
 70
    24
 71
     3
 72
     8
 73
     4
 74
     0
 42
0.0000000001
 43
0.0000000001
 40
0.0
 40
0.0
 40
0.0
 40
0.0
 40
1.0
 40
1.0
 40
1.0
 40
1.0
 10
23.7202
 20
12.1127
 30
0.0
 10
23.7202
 20
12.1127
 30
0.0
 10
23.7202
 20
13.6804
 30
0.0
 10
23.7202
 20
13.6804
 30
0.0
  0
SPLINE
  5
1C5
330
1F
100
AcDbEntity
  8
DEFAULT_2
 62
   250
100
AcDbSpline
210
0.0
220
0.0
230
1.0
 70
    24
 71
     3
 72
     8
 73
     4
 74
     0
 42
0.0000000001
 43
0.0000000001
 40
0.0
 40
0.0
 40
0.0
 40
0.0
 40
1.0
 40
1.0
 40
1.0
 40
1.0
 10
25.8105
 20
13.5781
 30
0.0
 10
25.8105
 20
13.5781
 30
0.0
 10
25.8105
 20
12.1127
 30
0.0
 10
25.8105
 20
12.1127
 30
0.0
  0
SPLINE
  5
1C6
330
1F
100
AcDbEntity
  8
DEFAULT_2
 62
   250
100
AcDbSpline
210
0.0
220
0.0
230
1.0
 70
    24
 71
     3
 72
     8
 73
     4
 74
     0
 42
0.0000000001
 43
0.0000000001
 40
0.0
 40
0.0
 40
0.0
 40
0.0
 40
1.0
 40
1.0
 40
1.0
 40
1.0
 10
25.8105
 20
7.2354
 30
0.0
 10
25.8105
 20
7.2354
 30
0.0
 10
25.8105
 20
6.016
 30
0.0
 10
25.8105
 20
6.016
 30
0.0
  0
SPLINE
  5
1C7
330
1F
100
AcDbEntity
  8
DEFAULT_2
 62
   250
100
AcDbSpline
210
0.0
220
0.0
230
1.0
 70
    24
 71
     3
 72
     8
 73
     4
 74
     0
 42
0.0000000001
 43
0.0000000001
 40
0.0
 40
0.0
 40
0.0
 40
0.0
 40
1.0
 40
1.0
 40
1.0
 40
1.0
 10
25.8105
 20
0.6857
 30
0.0
 10
25.8105
 20
0.6857
 30
0.0
 10
25.8105
 20
0.4418
 30
0.0
 10
25.8105
 20
0.4418
 30
0.0
  0
SPLINE
  5
1C8
330
1F
100
AcDbEntity
  8
DEFAULT_2
 62
   250
100
AcDbSpline
210
0.0
220
0.0
230
1.0
 70
    24
 71
     3
 72
     8
 73
     4
 74
     0
 42
0.0000000001
 43
0.0000000001
 40
0.0
 40
0.0
 40
0.0
 40
0.0
 40
1.0
 40
1.0
 40
1.0
 40
1.0
 10
25.8105
 20
-0.255
 30
0.0
 10
25.8105
 20
-0.255
 30
0.0
 10
25.8105
 20
-0.9866
 30
0.0
 10
25.8105
 20
-0.9866
 30
0.0
  0
SPLINE
  5
1C9
330
1F
100
AcDbEntity
  8
DEFAULT_2
 62
   250
100
AcDbSpline
210
0.0
220
0.0
230
1.0
 70
    24
 71
     3
 72
     8
 73
     4
 74
     0
 42
0.0000000001
 43
0.0000000001
 40
0.0
 40
0.0
 40
0.0
 40
0.0
 40
1.0
 40
1.0
 40
1.0
 40
1.0
 10
25.8105
 20
-20.6355
 30
0.0
 10
25.8105
 20
-20.6355
 30
0.0
 10
25.8105
 20
-20.1129
 30
0.0
 10
25.8105
 20
-20.1129
 30
0.0
  0
SPLINE
  5
1CA
330
1F
100
AcDbEntity
  8
DEFAULT_2
 62
   250
100
AcDbSpline
210
0.0
220
0.0
230
1.0
 70
    24
 71
     3
 72
     8
 73
     4
 74
     0
 42
0.0000000001
 43
0.0000000001
 40
0.0
 40
0.0
 40
0.0
 40
0.0
 40
1.0
 40
1.0
 40
1.0
 40
1.0
 10
25.8105
 20
-19.4162
 30
0.0
 10
25.8105
 20
-19.4162
 30
0.0
 10
25.8105
 20
-18.9633
 30
0.0
 10
25.8105
 20
-18.9633
 30
0.0
  0
SPLINE
  5
1CB
330
1F
100
AcDbEntity
  8
DEFAULT_2
 62
   250
100
AcDbSpline
210
0.0
220
0.0
230
1.0
 70
    24
 71
     3
 72
     8
 73
     4
 74
     0
 42
0.0000000001
 43
0.0000000001
 40
0.0
 40
0.0
 40
0.0
 40
0.0
 40
1.0
 40
1.0
 40
1.0
 40
1.0
 10
25.8105
 20
-13.1029
 30
0.0
 10
25.8105
 20
-13.1029
 30
0.0
 10
25.8105
 20
-12.4136
 30
0.0
 10
25.8105
 20
-12.4136
 30
0.0
  0
SPLINE
  5
1CC
330
1F
100
AcDbEntity
  8
DEFAULT_2
 62
   250
100
AcDbSpline
210
0.0
220
0.0
230
1.0
 70
    24
 71
     3
 72
     8
 73
     4
 74
     0
 42
0.0000000001
 43
0.0000000001
 40
0.0
 40
0.0
 40
0.0
 40
0.0
 40
1.0
 40
1.0
 40
1.0
 40
1.0
 10
25.8105
 20
-7.5362
 30
0.0
 10
25.8105
 20
-7.5362
 30
0.0
 10
25.8105
 20
-6.1775
 30
0.0
 10
25.8105
 20
-6.1775
 30
0.0
  0
SPLINE
  5
1CD
330
1F
100
AcDbEntity
  8
DEFAULT_2
 62
   250
100
AcDbSpline
210
0.0
220
0.0
230
1.0
 70
    24
 71
     3
 72
     8
 73
     4
 74
     0
 42
0.0000000001
 43
0.0000000001
 40
0.0
 40
0.0
 40
0.0
 40
0.0
 40
1.0
 40
1.0
 40
1.0
 40
1.0
 10
18.3202
 20
4.5446
 30
0.0
 10
18.3202
 20
4.5446
 30
0.0
 10
17.5451
 20
4.5446
 30
0.0
 10
17.5451
 20
4.5446
 30
0.0
  0
SPLINE
  5
1CE
330
1F
100
AcDbEntity
  8
DEFAULT_2
 62
   250
100
AcDbSpline
210
0.0
220
0.0
230
1.0
 70
    24
 71
     3
 72
     8
 73
     4
 74
     0
 42
0.0000000001
 43
0.0000000001
 40
0.0
 40
0.0
 40
0.0
 40
0.0
 40
1.0
 40
1.0
 40
1.0
 40
1.0
 10
18.3202
 20
5.5631
 30
0.0
 10
18.3202
 20
5.5631
 30
0.0
 10
37.1214
 20
5.5631
 30
0.0
 10
37.1214
 20
5.5631
 30
0.0
  0
SPLINE
  5
1CF
330
1F
100
AcDbEntity
  8
DEFAULT_2
 62
   250
100
AcDbSpline
210
0.0
220
0.0
230
1.0
 70
    24
 71
     3
 72
     8
 73
     4
 74
     0
 42
0.0000000001
 43
0.0000000001
 40
0.0
 40
0.0
 40
0.0
 40
0.0
 40
1.0
 40
1.0
 40
1.0
 40
1.0
 10
26.5073
 20
-6.1775
 30
0.0
 10
26.5073
 20
-6.1775
 30
0.0
 10
26.5073
 20
-7.5362
 30
0.0
 10
26.5073
 20
-7.5362
 30
0.0
  0
SPLINE
  5
1D0
330
1F
100
AcDbEntity
  8
DEFAULT_2
 62
   250
100
AcDbSpline
210
0.0
220
0.0
230
1.0
 70
    24
 71
     3
 72
     8
 73
     4
 74
     0
 42
0.0000000001
 43
0.0000000001
 40
0.0
 40
0.0
 40
0.0
 40
0.0
 40
1.0
 40
1.0
 40
1.0
 40
1.0
 10
26.5073
 20
-12.4136
 30
0.0
 10
26.5073
 20
-12.4136
 30
0.0
 10
26.5073
 20
-13.7996
 30
0.0
 10
26.5073
 20
-13.7996
 30
0.0
  0
SPLINE
  5
1D1
330
1F
100
AcDbEntity
  8
DEFAULT_2
 62
   250
100
AcDbSpline
210
0.0
220
0.0
230
1.0
 70
    24
 71
     3
 72
     8
 73
     4
 74
     0
 42
0.0000000001
 43
0.0000000001
 40
0.0
 40
0.0
 40
0.0
 40
0.0
 40
1.0
 40
1.0
 40
1.0
 40
1.0
 10
26.5073
 20
-18.9633
 30
0.0
 10
26.5073
 20
-18.9633
 30
0.0
 10
26.5073
 20
-19.4162
 30
0.0
 10
26.5073
 20
-19.4162
 30
0.0
  0
SPLINE
  5
1D2
330
1F
100
AcDbEntity
  8
DEFAULT_2
 62
   250
100
AcDbSpline
210
0.0
220
0.0
230
1.0
 70
    24
 71
     3
 72
     8
 73
     4
 74
     0
 42
0.0000000001
 43
0.0000000001
 40
0.0
 40
0.0
 40
0.0
 40
0.0
 40
1.0
 40
1.0
 40
1.0
 40
1.0
 10
26.5073
 20
-20.1129
 30
0.0
 10
26.5073
 20
-20.1129
 30
0.0
 10
26.5073
 20
-20.6355
 30
0.0
 10
26.5073
 20
-20.6355
 30
0.0
  0
SPLINE
  5
1D3
330
1F
100
AcDbEntity
  8
DEFAULT_2
 62
   250
100
AcDbSpline
210
0.0
220
0.0
230
1.0
 70
    24
 71
     3
 72
     8
 73
     4
 74
     0
 42
0.0000000001
 43
0.0000000001
 40
0.0
 40
0.0
 40
0.0
 40
0.0
 40
1.0
 40
1.0
 40
1.0
 40
1.0
 10
26.5073
 20
-0.9866
 30
0.0
 10
26.5073
 20
-0.9866
 30
0.0
 10
26.5073
 20
-0.255
 30
0.0
 10
26.5073
 20
-0.255
 30
0.0
  0
SPLINE
  5
1D4
330
1F
100
AcDbEntity
  8
DEFAULT_2
 62
   250
100
AcDbSpline
210
0.0
220
0.0
230
1.0
 70
    24
 71
     3
 72
     8
 73
     4
 74
     0
 42
0.0000000001
 43
0.0000000001
 40
0.0
 40
0.0
 40
0.0
 40
0.0
 40
1.0
 40
1.0
 40
1.0
 40
1.0
 10
26.5073
 20
0.4418
 30
0.0
 10
26.5073
 20
0.4418
 30
0.0
 10
26.5073
 20
0.6857
 30
0.0
 10
26.5073
 20
0.6857
 30
0.0
  0
SPLINE
  5
1D5
330
1F
100
AcDbEntity
  8
DEFAULT_2
 62
   250
100
AcDbSpline
210
0.0
220
0.0
230
1.0
 70
    24
 71
     3
 72
     8
 73
     4
 74
     0
 42
0.0000000001
 43
0.0000000001
 40
0.0
 40
0.0
 40
0.0
 40
0.0
 40
1.0
 40
1.0
 40
1.0
 40
1.0
 10
26.5073
 20
6.016
 30
0.0
 10
26.5073
 20
6.016
 30
0.0
 10
26.5073
 20
7.2354
 30
0.0
 10
26.5073
 20
7.2354
 30
0.0
  0
SPLINE
  5
1D6
330
1F
100
AcDbEntity
  8
DEFAULT_2
 62
   250
100
AcDbSpline
210
0.0
220
0.0
230
1.0
 70
    24
 71
     3
 72
     8
 73
     4
 74
     0
 42
0.0000000001
 43
0.0000000001
 40
0.0
 40
0.0
 40
0.0
 40
0.0
 40
1.0
 40
1.0
 40
1.0
 40
1.0
 10
26.5073
 20
12.1127
 30
0.0
 10
26.5073
 20
12.1127
 30
0.0
 10
26.5073
 20
13.2664
 30
0.0
 10
26.5073
 20
13.2664
 30
0.0
  0
SPLINE
  5
1D7
330
1F
100
AcDbEntity
  8
DEFAULT_2
 62
   250
100
AcDbSpline
210
0.0
220
0.0
230
1.0
 70
    24
 71
     3
 72
     8
 73
     4
 74
     0
 42
0.0000000001
 43
0.0000000001
 40
0.0
 40
0.0
 40
0.0
 40
0.0
 40
1.0
 40
1.0
 40
1.0
 40
1.0
 10
28.5976
 20
12.1359
 30
0.0
 10
28.5976
 20
12.1359
 30
0.0
 10
28.5976
 20
12.1127
 30
0.0
 10
28.5976
 20
12.1127
 30
0.0
  0
SPLINE
  5
1D8
330
1F
100
AcDbEntity
  8
DEFAULT_2
 62
   250
100
AcDbSpline
210
0.0
220
0.0
230
1.0
 70
    24
 71
     3
 72
     8
 73
     4
 74
     0
 42
0.0000000001
 43
0.0000000001
 40
0.0
 40
0.0
 40
0.0
 40
0.0
 40
1.0
 40
1.0
 40
1.0
 40
1.0
 10
28.5976
 20
7.2354
 30
0.0
 10
28.5976
 20
7.2354
 30
0.0
 10
28.5976
 20
6.0583
 30
0.0
 10
28.5976
 20
6.0583
 30
0.0
  0
SPLINE
  5
1D9
330
1F
100
AcDbEntity
  8
DEFAULT_2
 62
   250
100
AcDbSpline
210
0.0
220
0.0
230
1.0
 70
    24
 71
     3
 72
     8
 73
     4
 74
     0
 42
0.0000000001
 43
0.0000000001
 40
0.0
 40
0.0
 40
0.0
 40
0.0
 40
1.0
 40
1.0
 40
1.0
 40
1.0
 10
28.5976
 20
0.6857
 30
0.0
 10
28.5976
 20
0.6857
 30
0.0
 10
28.5976
 20
0.4418
 30
0.0
 10
28.5976
 20
0.4418
 30
0.0
  0
SPLINE
  5
1DA
330
1F
100
AcDbEntity
  8
DEFAULT_2
 62
   250
100
AcDbSpline
210
0.0
220
0.0
230
1.0
 70
    24
 71
     3
 72
     8
 73
     4
 74
     0
 42
0.0000000001
 43
0.0000000001
 40
0.0
 40
0.0
 40
0.0
 40
0.0
 40
1.0
 40
1.0
 40
1.0
 40
1.0
 10
28.5976
 20
-0.255
 30
0.0
 10
28.5976
 20
-0.255
 30
0.0
 10
28.5976
 20
-0.9866
 30
0.0
 10
28.5976
 20
-0.9866
 30
0.0
  0
SPLINE
  5
1DB
330
1F
100
AcDbEntity
  8
DEFAULT_2
 62
   250
100
AcDbSpline
210
0.0
220
0.0
230
1.0
 70
    24
 71
     3
 72
     8
 73
     4
 74
     0
 42
0.0000000001
 43
0.0000000001
 40
0.0
 40
0.0
 40
0.0
 40
0.0
 40
1.0
 40
1.0
 40
1.0
 40
1.0
 10
28.5976
 20
-20.6355
 30
0.0
 10
28.5976
 20
-20.6355
 30
0.0
 10
28.5976
 20
-20.1129
 30
0.0
 10
28.5976
 20
-20.1129
 30
0.0
  0
SPLINE
  5
1DC
330
1F
100
AcDbEntity
  8
DEFAULT_2
 62
   250
100
AcDbSpline
210
0.0
220
0.0
230
1.0
 70
    24
 71
     3
 72
     8
 73
     4
 74
     0
 42
0.0000000001
 43
0.0000000001
 40
0.0
 40
0.0
 40
0.0
 40
0.0
 40
1.0
 40
1.0
 40
1.0
 40
1.0
 10
28.5976
 20
-19.4162
 30
0.0
 10
28.5976
 20
-19.4162
 30
0.0
 10
28.5976
 20
-18.9633
 30
0.0
 10
28.5976
 20
-18.9633
 30
0.0
  0
SPLINE
  5
1DD
330
1F
100
AcDbEntity
  8
DEFAULT_2
 62
   250
100
AcDbSpline
210
0.0
220
0.0
230
1.0
 70
    24
 71
     3
 72
     8
 73
     4
 74
     0
 42
0.0000000001
 43
0.0000000001
 40
0.0
 40
0.0
 40
0.0
 40
0.0
 40
1.0
 40
1.0
 40
1.0
 40
1.0
 10
28.5976
 20
-13.842
 30
0.0
 10
28.5976
 20
-13.842
 30
0.0
 10
28.5976
 20
-12.4136
 30
0.0
 10
28.5976
 20
-12.4136
 30
0.0
  0
SPLINE
  5
1DE
330
1F
100
AcDbEntity
  8
DEFAULT_2
 62
   250
100
AcDbSpline
210
0.0
220
0.0
230
1.0
 70
    24
 71
     3
 72
     8
 73
     4
 74
     0
 42
0.0000000001
 43
0.0000000001
 40
0.0
 40
0.0
 40
0.0
 40
0.0
 40
1.0
 40
1.0
 40
1.0
 40
1.0
 10
28.5976
 20
-7.5362
 30
0.0
 10
28.5976
 20
-7.5362
 30
0.0
 10
28.5976
 20
-6.1775
 30
0.0
 10
28.5976
 20
-6.1775
 30
0.0
  0
SPLINE
  5
1DF
330
1F
100
AcDbEntity
  8
DEFAULT_2
 62
   250
100
AcDbSpline
210
0.0
220
0.0
230
1.0
 70
    24
 71
     3
 72
     8
 73
     4
 74
     0
 42
0.0000000001
 43
0.0000000001
 40
0.0
 40
0.0
 40
0.0
 40
0.0
 40
1.0
 40
1.0
 40
1.0
 40
1.0
 10
34.9649
 20
6.016
 30
0.0
 10
34.9649
 20
6.016
 30
0.0
 10
34.8686
 20
6.016
 30
0.0
 10
34.8686
 20
6.016
 30
0.0
  0
SPLINE
  5
1E0
330
1F
100
AcDbEntity
  8
DEFAULT_2
 62
   250
100
AcDbSpline
210
0.0
220
0.0
230
1.0
 70
    24
 71
     3
 72
     8
 73
     4
 74
     0
 42
0.0000000001
 43
0.0000000001
 40
0.0
 40
0.0
 40
0.0
 40
0.0
 40
1.0
 40
1.0
 40
1.0
 40
1.0
 10
34.1717
 20
6.016
 30
0.0
 10
34.1717
 20
6.016
 30
0.0
 10
32.0814
 20
6.016
 30
0.0
 10
32.0814
 20
6.016
 30
0.0
  0
SPLINE
  5
1E1
330
1F
100
AcDbEntity
  8
DEFAULT_2
 62
   250
100
AcDbSpline
210
0.0
220
0.0
230
1.0
 70
    24
 71
     3
 72
     8
 73
     4
 74
     0
 42
0.0000000001
 43
0.0000000001
 40
0.0
 40
0.0
 40
0.0
 40
0.0
 40
1.0
 40
1.0
 40
1.0
 40
1.0
 10
31.3847
 20
6.016
 30
0.0
 10
31.3847
 20
6.016
 30
0.0
 10
30.0333
 20
6.016
 30
0.0
 10
30.0333
 20
6.016
 30
0.0
  0
SPLINE
  5
1E2
330
1F
100
AcDbEntity
  8
DEFAULT_2
 62
   250
100
AcDbSpline
210
0.0
220
0.0
230
1.0
 70
    24
 71
     3
 72
     8
 73
     4
 74
     0
 42
0.0000000001
 43
0.0000000001
 40
0.0
 40
0.0
 40
0.0
 40
0.0
 40
1.0
 40
1.0
 40
1.0
 40
1.0
 10
28.5552
 20
6.016
 30
0.0
 10
28.5552
 20
6.016
 30
0.0
 10
26.5073
 20
6.016
 30
0.0
 10
26.5073
 20
6.016
 30
0.0
  0
SPLINE
  5
1E3
330
1F
100
AcDbEntity
  8
DEFAULT_2
 62
   250
100
AcDbSpline
210
0.0
220
0.0
230
1.0
 70
    24
 71
     3
 72
     8
 73
     4
 74
     0
 42
0.0000000001
 43
0.0000000001
 40
0.0
 40
0.0
 40
0.0
 40
0.0
 40
1.0
 40
1.0
 40
1.0
 40
1.0
 10
25.8105
 20
6.016
 30
0.0
 10
25.8105
 20
6.016
 30
0.0
 10
23.7202
 20
6.016
 30
0.0
 10
23.7202
 20
6.016
 30
0.0
  0
SPLINE
  5
1E4
330
1F
100
AcDbEntity
  8
DEFAULT_2
 62
   250
100
AcDbSpline
210
0.0
220
0.0
230
1.0
 70
    24
 71
     3
 72
     8
 73
     4
 74
     0
 42
0.0000000001
 43
0.0000000001
 40
0.0
 40
0.0
 40
0.0
 40
0.0
 40
1.0
 40
1.0
 40
1.0
 40
1.0
 10
23.0234
 20
6.016
 30
0.0
 10
23.0234
 20
6.016
 30
0.0
 10
20.933
 20
6.016
 30
0.0
 10
20.933
 20
6.016
 30
0.0
  0
SPLINE
  5
1E5
330
1F
100
AcDbEntity
  8
DEFAULT_2
 62
   250
100
AcDbSpline
210
0.0
220
0.0
230
1.0
 70
    24
 71
     3
 72
     8
 73
     4
 74
     0
 42
0.0000000001
 43
0.0000000001
 40
0.0
 40
0.0
 40
0.0
 40
0.0
 40
1.0
 40
1.0
 40
1.0
 40
1.0
 10
20.2363
 20
6.016
 30
0.0
 10
20.2363
 20
6.016
 30
0.0
 10
18.3202
 20
6.016
 30
0.0
 10
18.3202
 20
6.016
 30
0.0
  0
SPLINE
  5
1E6
330
1F
100
AcDbEntity
  8
DEFAULT_2
 62
   250
100
AcDbSpline
210
0.0
220
0.0
230
1.0
 70
    24
 71
     3
 72
     8
 73
     4
 74
     0
 42
0.0000000001
 43
0.0000000001
 40
0.0
 40
0.0
 40
0.0
 40
0.0
 40
1.0
 40
1.0
 40
1.0
 40
1.0
 10
17.5843
 20
7.2354
 30
0.0
 10
17.5843
 20
7.2354
 30
0.0
 10
36.0718
 20
7.2354
 30
0.0
 10
36.0718
 20
7.2354
 30
0.0
  0
SPLINE
  5
1E7
330
1F
100
AcDbEntity
  8
DEFAULT_2
 62
   250
100
AcDbSpline
210
0.0
220
0.0
230
1.0
 70
    24
 71
     3
 72
     8
 73
     4
 74
     0
 42
0.0000000001
 43
0.0000000001
 40
0.0
 40
0.0
 40
0.0
 40
0.0
 40
1.0
 40
1.0
 40
1.0
 40
1.0
 10
29.2943
 20
-6.1775
 30
0.0
 10
29.2943
 20
-6.1775
 30
0.0
 10
29.2943
 20
-7.5362
 30
0.0
 10
29.2943
 20
-7.5362
 30
0.0
  0
SPLINE
  5
1E8
330
1F
100
AcDbEntity
  8
DEFAULT_2
 62
   250
100
AcDbSpline
210
0.0
220
0.0
230
1.0
 70
    24
 71
     3
 72
     8
 73
     4
 74
     0
 42
0.0000000001
 43
0.0000000001
 40
0.0
 40
0.0
 40
0.0
 40
0.0
 40
1.0
 40
1.0
 40
1.0
 40
1.0
 10
29.2943
 20
-12.4136
 30
0.0
 10
29.2943
 20
-12.4136
 30
0.0
 10
29.2943
 20
-13.842
 30
0.0
 10
29.2943
 20
-13.842
 30
0.0
  0
SPLINE
  5
1E9
330
1F
100
AcDbEntity
  8
DEFAULT_2
 62
   250
100
AcDbSpline
210
0.0
220
0.0
230
1.0
 70
    24
 71
     3
 72
     8
 73
     4
 74
     0
 42
0.0000000001
 43
0.0000000001
 40
0.0
 40
0.0
 40
0.0
 40
0.0
 40
1.0
 40
1.0
 40
1.0
 40
1.0
 10
29.2943
 20
-18.9633
 30
0.0
 10
29.2943
 20
-18.9633
 30
0.0
 10
29.2943
 20
-19.4162
 30
0.0
 10
29.2943
 20
-19.4162
 30
0.0
  0
SPLINE
  5
1EA
330
1F
100
AcDbEntity
  8
DEFAULT_2
 62
   250
100
AcDbSpline
210
0.0
220
0.0
230
1.0
 70
    24
 71
     3
 72
     8
 73
     4
 74
     0
 42
0.0000000001
 43
0.0000000001
 40
0.0
 40
0.0
 40
0.0
 40
0.0
 40
1.0
 40
1.0
 40
1.0
 40
1.0
 10
29.2943
 20
-20.1129
 30
0.0
 10
29.2943
 20
-20.1129
 30
0.0
 10
29.2943
 20
-20.6355
 30
0.0
 10
29.2943
 20
-20.6355
 30
0.0
  0
SPLINE
  5
1EB
330
1F
100
AcDbEntity
  8
DEFAULT_2
 62
   250
100
AcDbSpline
210
0.0
220
0.0
230
1.0
 70
    24
 71
     3
 72
     8
 73
     4
 74
     0
 42
0.0000000001
 43
0.0000000001
 40
0.0
 40
0.0
 40
0.0
 40
0.0
 40
1.0
 40
1.0
 40
1.0
 40
1.0
 10
29.2943
 20
-0.9866
 30
0.0
 10
29.2943
 20
-0.9866
 30
0.0
 10
29.2943
 20
-0.255
 30
0.0
 10
29.2943
 20
-0.255
 30
0.0
  0
SPLINE
  5
1EC
330
1F
100
AcDbEntity
  8
DEFAULT_2
 62
   250
100
AcDbSpline
210
0.0
220
0.0
230
1.0
 70
    24
 71
     3
 72
     8
 73
     4
 74
     0
 42
0.0000000001
 43
0.0000000001
 40
0.0
 40
0.0
 40
0.0
 40
0.0
 40
1.0
 40
1.0
 40
1.0
 40
1.0
 10
29.2943
 20
0.4418
 30
0.0
 10
29.2943
 20
0.4418
 30
0.0
 10
29.2943
 20
0.6857
 30
0.0
 10
29.2943
 20
0.6857
 30
0.0
  0
SPLINE
  5
1ED
330
1F
100
AcDbEntity
  8
DEFAULT_2
 62
   250
100
AcDbSpline
210
0.0
220
0.0
230
1.0
 70
    24
 71
     3
 72
     8
 73
     4
 74
     0
 42
0.0000000001
 43
0.0000000001
 40
0.0
 40
0.0
 40
0.0
 40
0.0
 40
1.0
 40
1.0
 40
1.0
 40
1.0
 10
29.2943
 20
6.7551
 30
0.0
 10
29.2943
 20
6.7551
 30
0.0
 10
29.2943
 20
7.2354
 30
0.0
 10
29.2943
 20
7.2354
 30
0.0
  0
SPLINE
  5
1EE
330
1F
100
AcDbEntity
  8
DEFAULT_2
 62
   250
100
AcDbSpline
210
0.0
220
0.0
230
1.0
 70
    24
 71
     3
 72
     8
 73
     4
 74
     0
 42
0.0000000001
 43
0.0000000001
 40
0.0
 40
0.0
 40
0.0
 40
0.0
 40
1.0
 40
1.0
 40
1.0
 40
1.0
 10
31.3847
 20
7.2354
 30
0.0
 10
31.3847
 20
7.2354
 30
0.0
 10
31.3847
 20
6.016
 30
0.0
 10
31.3847
 20
6.016
 30
0.0
  0
SPLINE
  5
1EF
330
1F
100
AcDbEntity
  8
DEFAULT_2
 62
   250
100
AcDbSpline
210
0.0
220
0.0
230
1.0
 70
    24
 71
     3
 72
     8
 73
     4
 74
     0
 42
0.0000000001
 43
0.0000000001
 40
0.0
 40
0.0
 40
0.0
 40
0.0
 40
1.0
 40
1.0
 40
1.0
 40
1.0
 10
31.3847
 20
0.6857
 30
0.0
 10
31.3847
 20
0.6857
 30
0.0
 10
31.3847
 20
0.4418
 30
0.0
 10
31.3847
 20
0.4418
 30
0.0
  0
SPLINE
  5
1F0
330
1F
100
AcDbEntity
  8
DEFAULT_2
 62
   250
100
AcDbSpline
210
0.0
220
0.0
230
1.0
 70
    24
 71
     3
 72
     8
 73
     4
 74
     0
 42
0.0000000001
 43
0.0000000001
 40
0.0
 40
0.0
 40
0.0
 40
0.0
 40
1.0
 40
1.0
 40
1.0
 40
1.0
 10
31.3847
 20
-0.255
 30
0.0
 10
31.3847
 20
-0.255
 30
0.0
 10
31.3847
 20
-0.9866
 30
0.0
 10
31.3847
 20
-0.9866
 30
0.0
  0
SPLINE
  5
1F1
330
1F
100
AcDbEntity
  8
DEFAULT_2
 62
   250
100
AcDbSpline
210
0.0
220
0.0
230
1.0
 70
    24
 71
     3
 72
     8
 73
     4
 74
     0
 42
0.0000000001
 43
0.0000000001
 40
0.0
 40
0.0
 40
0.0
 40
0.0
 40
1.0
 40
1.0
 40
1.0
 40
1.0
 10
31.3847
 20
-20.6355
 30
0.0
 10
31.3847
 20
-20.6355
 30
0.0
 10
31.3847
 20
-20.1552
 30
0.0
 10
31.3847
 20
-20.1552
 30
0.0
  0
SPLINE
  5
1F2
330
1F
100
AcDbEntity
  8
DEFAULT_2
 62
   250
100
AcDbSpline
210
0.0
220
0.0
230
1.0
 70
    24
 71
     3
 72
     8
 73
     4
 74
     0
 42
0.0000000001
 43
0.0000000001
 40
0.0
 40
0.0
 40
0.0
 40
0.0
 40
1.0
 40
1.0
 40
1.0
 40
1.0
 10
31.3847
 20
-13.842
 30
0.0
 10
31.3847
 20
-13.842
 30
0.0
 10
31.3847
 20
-12.4136
 30
0.0
 10
31.3847
 20
-12.4136
 30
0.0
  0
SPLINE
  5
1F3
330
1F
100
AcDbEntity
  8
DEFAULT_2
 62
   250
100
AcDbSpline
210
0.0
220
0.0
230
1.0
 70
    24
 71
     3
 72
     8
 73
     4
 74
     0
 42
0.0000000001
 43
0.0000000001
 40
0.0
 40
0.0
 40
0.0
 40
0.0
 40
1.0
 40
1.0
 40
1.0
 40
1.0
 10
31.3847
 20
-7.5362
 30
0.0
 10
31.3847
 20
-7.5362
 30
0.0
 10
31.3847
 20
-6.1775
 30
0.0
 10
31.3847
 20
-6.1775
 30
0.0
  0
SPLINE
  5
1F4
330
1F
100
AcDbEntity
  8
DEFAULT_2
 62
   250
100
AcDbSpline
210
0.0
220
0.0
230
1.0
 70
    24
 71
     3
 72
     8
 73
     4
 74
     0
 42
0.0000000001
 43
0.0000000001
 40
0.0
 40
0.0
 40
0.0
 40
0.0
 40
1.0
 40
1.0
 40
1.0
 40
1.0
 10
17.5843
 20
8.6288
 30
0.0
 10
17.5843
 20
8.6288
 30
0.0
 10
35.0154
 20
8.6288
 30
0.0
 10
35.0154
 20
8.6288
 30
0.0
  0
SPLINE
  5
1F5
330
1F
100
AcDbEntity
  8
DEFAULT_2
 62
   250
100
AcDbSpline
210
0.0
220
0.0
230
1.0
 70
    24
 71
     3
 72
     8
 73
     4
 74
     0
 42
0.0000000001
 43
0.0000000001
 40
0.0
 40
0.0
 40
0.0
 40
0.0
 40
1.0
 40
1.0
 40
1.0
 40
1.0
 10
18.3202
 20
11.0942
 30
0.0
 10
18.3202
 20
11.0942
 30
0.0
 10
17.5843
 20
11.0942
 30
0.0
 10
17.5843
 20
11.0942
 30
0.0
  0
SPLINE
  5
1F6
330
1F
100
AcDbEntity
  8
DEFAULT_2
 62
   250
100
AcDbSpline
210
0.0
220
0.0
230
1.0
 70
    24
 71
     3
 72
     8
 73
     4
 74
     0
 42
0.0000000001
 43
0.0000000001
 40
0.0
 40
0.0
 40
0.0
 40
0.0
 40
1.0
 40
1.0
 40
1.0
 40
1.0
 10
32.0814
 20
-6.1775
 30
0.0
 10
32.0814
 20
-6.1775
 30
0.0
 10
32.0814
 20
-7.5362
 30
0.0
 10
32.0814
 20
-7.5362
 30
0.0
  0
SPLINE
  5
1F7
330
1F
100
AcDbEntity
  8
DEFAULT_2
 62
   250
100
AcDbSpline
210
0.0
220
0.0
230
1.0
 70
    24
 71
     3
 72
     8
 73
     4
 74
     0
 42
0.0000000001
 43
0.0000000001
 40
0.0
 40
0.0
 40
0.0
 40
0.0
 40
1.0
 40
1.0
 40
1.0
 40
1.0
 10
32.0814
 20
-12.4136
 30
0.0
 10
32.0814
 20
-12.4136
 30
0.0
 10
32.0814
 20
-13.842
 30
0.0
 10
32.0814
 20
-13.842
 30
0.0
  0
SPLINE
  5
1F8
330
1F
100
AcDbEntity
  8
DEFAULT_2
 62
   250
100
AcDbSpline
210
0.0
220
0.0
230
1.0
 70
    24
 71
     3
 72
     8
 73
     4
 74
     0
 42
0.0000000001
 43
0.0000000001
 40
0.0
 40
0.0
 40
0.0
 40
0.0
 40
1.0
 40
1.0
 40
1.0
 40
1.0
 10
32.0814
 20
-18.9633
 30
0.0
 10
32.0814
 20
-18.9633
 30
0.0
 10
32.0814
 20
-19.3739
 30
0.0
 10
32.0814
 20
-19.3739
 30
0.0
  0
SPLINE
  5
1F9
330
1F
100
AcDbEntity
  8
DEFAULT_2
 62
   250
100
AcDbSpline
210
0.0
220
0.0
230
1.0
 70
    24
 71
     3
 72
     8
 73
     4
 74
     0
 42
0.0000000001
 43
0.0000000001
 40
0.0
 40
0.0
 40
0.0
 40
0.0
 40
1.0
 40
1.0
 40
1.0
 40
1.0
 10
32.0814
 20
-0.9866
 30
0.0
 10
32.0814
 20
-0.9866
 30
0.0
 10
32.0814
 20
-0.255
 30
0.0
 10
32.0814
 20
-0.255
 30
0.0
  0
SPLINE
  5
1FA
330
1F
100
AcDbEntity
  8
DEFAULT_2
 62
   250
100
AcDbSpline
210
0.0
220
0.0
230
1.0
 70
    24
 71
     3
 72
     8
 73
     4
 74
     0
 42
0.0000000001
 43
0.0000000001
 40
0.0
 40
0.0
 40
0.0
 40
0.0
 40
1.0
 40
1.0
 40
1.0
 40
1.0
 10
32.0814
 20
0.4418
 30
0.0
 10
32.0814
 20
0.4418
 30
0.0
 10
32.0814
 20
0.6857
 30
0.0
 10
32.0814
 20
0.6857
 30
0.0
  0
SPLINE
  5
1FB
330
1F
100
AcDbEntity
  8
DEFAULT_2
 62
   250
100
AcDbSpline
210
0.0
220
0.0
230
1.0
 70
    24
 71
     3
 72
     8
 73
     4
 74
     0
 42
0.0000000001
 43
0.0000000001
 40
0.0
 40
0.0
 40
0.0
 40
0.0
 40
1.0
 40
1.0
 40
1.0
 40
1.0
 10
32.0814
 20
6.016
 30
0.0
 10
32.0814
 20
6.016
 30
0.0
 10
32.0814
 20
7.2354
 30
0.0
 10
32.0814
 20
7.2354
 30
0.0
  0
SPLINE
  5
1FC
330
1F
100
AcDbEntity
  8
DEFAULT_2
 62
   250
100
AcDbSpline
210
0.0
220
0.0
230
1.0
 70
    24
 71
     3
 72
     8
 73
     4
 74
     0
 42
0.0000000001
 43
0.0000000001
 40
0.0
 40
0.0
 40
0.0
 40
0.0
 40
1.0
 40
1.0
 40
1.0
 40
1.0
 10
34.1717
 20
7.1159
 30
0.0
 10
34.1717
 20
7.1159
 30
0.0
 10
34.1717
 20
6.016
 30
0.0
 10
34.1717
 20
6.016
 30
0.0
  0
SPLINE
  5
1FD
330
1F
100
AcDbEntity
  8
DEFAULT_2
 62
   250
100
AcDbSpline
210
0.0
220
0.0
230
1.0
 70
    24
 71
     3
 72
     8
 73
     4
 74
     0
 42
0.0000000001
 43
0.0000000001
 40
0.0
 40
0.0
 40
0.0
 40
0.0
 40
1.0
 40
1.0
 40
1.0
 40
1.0
 10
34.1717
 20
0.6857
 30
0.0
 10
34.1717
 20
0.6857
 30
0.0
 10
34.1717
 20
0.4418
 30
0.0
 10
34.1717
 20
0.4418
 30
0.0
  0
SPLINE
  5
1FE
330
1F
100
AcDbEntity
  8
DEFAULT_2
 62
   250
100
AcDbSpline
210
0.0
220
0.0
230
1.0
 70
    24
 71
     3
 72
     8
 73
     4
 74
     0
 42
0.0000000001
 43
0.0000000001
 40
0.0
 40
0.0
 40
0.0
 40
0.0
 40
1.0
 40
1.0
 40
1.0
 40
1.0
 10
34.1717
 20
-0.255
 30
0.0
 10
34.1717
 20
-0.255
 30
0.0
 10
34.1717
 20
-0.9866
 30
0.0
 10
34.1717
 20
-0.9866
 30
0.0
  0
SPLINE
  5
1FF
330
1F
100
AcDbEntity
  8
DEFAULT_2
 62
   250
100
AcDbSpline
210
0.0
220
0.0
230
1.0
 70
    24
 71
     3
 72
     8
 73
     4
 74
     0
 42
0.0000000001
 43
0.0000000001
 40
0.0
 40
0.0
 40
0.0
 40
0.0
 40
1.0
 40
1.0
 40
1.0
 40
1.0
 10
34.1717
 20
-13.842
 30
0.0
 10
34.1717
 20
-13.842
 30
0.0
 10
34.1717
 20
-12.4136
 30
0.0
 10
34.1717
 20
-12.4136
 30
0.0
  0
SPLINE
  5
200
330
1F
100
AcDbEntity
  8
DEFAULT_2
 62
   250
100
AcDbSpline
210
0.0
220
0.0
230
1.0
 70
    24
 71
     3
 72
     8
 73
     4
 74
     0
 42
0.0000000001
 43
0.0000000001
 40
0.0
 40
0.0
 40
0.0
 40
0.0
 40
1.0
 40
1.0
 40
1.0
 40
1.0
 10
34.1717
 20
-7.5362
 30
0.0
 10
34.1717
 20
-7.5362
 30
0.0
 10
34.1717
 20
-6.1775
 30
0.0
 10
34.1717
 20
-6.1775
 30
0.0
  0
SPLINE
  5
201
330
1F
100
AcDbEntity
  8
DEFAULT_2
 62
   250
100
AcDbSpline
210
0.0
220
0.0
230
1.0
 70
    24
 71
     3
 72
     8
 73
     4
 74
     0
 42
0.0000000001
 43
0.0000000001
 40
0.0
 40
0.0
 40
0.0
 40
0.0
 40
1.0
 40
1.0
 40
1.0
 40
1.0
 10
18.3202
 20
12.1127
 30
0.0
 10
18.3202
 20
12.1127
 30
0.0
 10
31.4255
 20
12.1127
 30
0.0
 10
31.4255
 20
12.1127
 30
0.0
  0
SPLINE
  5
202
330
1F
100
AcDbEntity
  8
DEFAULT_2
 62
   250
100
AcDbSpline
210
0.0
220
0.0
230
1.0
 70
    24
 71
     3
 72
     8
 73
     4
 74
     0
 42
0.0000000001
 43
0.0000000001
 40
0.0
 40
0.0
 40
0.0
 40
0.0
 40
1.0
 40
1.0
 40
1.0
 40
1.0
 10
18.3202
 20
13.6804
 30
0.0
 10
18.3202
 20
13.6804
 30
0.0
 10
20.2363
 20
13.6804
 30
0.0
 10
20.2363
 20
13.6804
 30
0.0
  0
SPLINE
  5
203
330
1F
100
AcDbEntity
  8
DEFAULT_2
 62
   250
100
AcDbSpline
210
0.0
220
0.0
230
1.0
 70
    24
 71
     3
 72
     8
 73
     4
 74
     0
 42
0.0000000001
 43
0.0000000001
 40
0.0
 40
0.0
 40
0.0
 40
0.0
 40
1.0
 40
1.0
 40
1.0
 40
1.0
 10
20.933
 20
13.6804
 30
0.0
 10
20.933
 20
13.6804
 30
0.0
 10
23.0234
 20
13.6804
 30
0.0
 10
23.0234
 20
13.6804
 30
0.0
  0
SPLINE
  5
204
330
1F
100
AcDbEntity
  8
DEFAULT_2
 62
   250
100
AcDbSpline
210
0.0
220
0.0
230
1.0
 70
    24
 71
     3
 72
     8
 73
     4
 74
     0
 42
0.0000000001
 43
0.0000000001
 40
0.0
 40
0.0
 40
0.0
 40
0.0
 40
1.0
 40
1.0
 40
1.0
 40
1.0
 10
23.7202
 20
13.6804
 30
0.0
 10
23.7202
 20
13.6804
 30
0.0
 10
25.5659
 20
13.6804
 30
0.0
 10
25.5659
 20
13.6804
 30
0.0
  0
SPLINE
  5
205
330
1F
100
AcDbEntity
  8
DEFAULT_2
 62
   250
100
AcDbSpline
210
0.0
220
0.0
230
1.0
 70
    24
 71
     3
 72
     8
 73
     4
 74
     0
 42
0.0000000001
 43
0.0000000001
 40
0.0
 40
0.0
 40
0.0
 40
0.0
 40
1.0
 40
1.0
 40
1.0
 40
1.0
 10
17.6234
 20
13.7849
 30
0.0
 10
17.6234
 20
13.7849
 30
0.0
 10
28.9634
 20
13.7849
 30
0.0
 10
28.9634
 20
13.7849
 30
0.0
  0
SPLINE
  5
206
330
1F
100
AcDbEntity
  8
DEFAULT_2
 62
   250
100
AcDbSpline
210
0.0
220
0.0
230
1.0
 70
    24
 71
     3
 72
     8
 73
     4
 74
     0
 42
0.0000000001
 43
0.0000000001
 40
0.0
 40
0.0
 40
0.0
 40
0.0
 40
1.0
 40
1.0
 40
1.0
 40
1.0
 10
34.8686
 20
-6.1775
 30
0.0
 10
34.8686
 20
-6.1775
 30
0.0
 10
34.8686
 20
-7.5362
 30
0.0
 10
34.8686
 20
-7.5362
 30
0.0
  0
SPLINE
  5
207
330
1F
100
AcDbEntity
  8
DEFAULT_2
 62
   250
100
AcDbSpline
210
0.0
220
0.0
230
1.0
 70
    24
 71
     3
 72
     8
 73
     4
 74
     0
 42
0.0000000001
 43
0.0000000001
 40
0.0
 40
0.0
 40
0.0
 40
0.0
 40
1.0
 40
1.0
 40
1.0
 40
1.0
 10
34.8686
 20
-12.4136
 30
0.0
 10
34.8686
 20
-12.4136
 30
0.0
 10
34.8686
 20
-13.842
 30
0.0
 10
34.8686
 20
-13.842
 30
0.0
  0
SPLINE
  5
208
330
1F
100
AcDbEntity
  8
DEFAULT_2
 62
   250
100
AcDbSpline
210
0.0
220
0.0
230
1.0
 70
    24
 71
     3
 72
     8
 73
     4
 74
     0
 42
0.0000000001
 43
0.0000000001
 40
0.0
 40
0.0
 40
0.0
 40
0.0
 40
1.0
 40
1.0
 40
1.0
 40
1.0
 10
34.8686
 20
-0.9866
 30
0.0
 10
34.8686
 20
-0.9866
 30
0.0
 10
34.8686
 20
-0.255
 30
0.0
 10
34.8686
 20
-0.255
 30
0.0
  0
SPLINE
  5
209
330
1F
100
AcDbEntity
  8
DEFAULT_2
 62
   250
100
AcDbSpline
210
0.0
220
0.0
230
1.0
 70
    24
 71
     3
 72
     8
 73
     4
 74
     0
 42
0.0000000001
 43
0.0000000001
 40
0.0
 40
0.0
 40
0.0
 40
0.0
 40
1.0
 40
1.0
 40
1.0
 40
1.0
 10
34.8686
 20
0.4418
 30
0.0
 10
34.8686
 20
0.4418
 30
0.0
 10
34.8686
 20
0.6857
 30
0.0
 10
34.8686
 20
0.6857
 30
0.0
  0
SPLINE
  5
20A
330
1F
100
AcDbEntity
  8
DEFAULT_2
 62
   250
100
AcDbSpline
210
0.0
220
0.0
230
1.0
 70
    24
 71
     3
 72
     8
 73
     4
 74
     0
 42
0.0000000001
 43
0.0000000001
 40
0.0
 40
0.0
 40
0.0
 40
0.0
 40
1.0
 40
1.0
 40
1.0
 40
1.0
 10
34.8686
 20
6.016
 30
0.0
 10
34.8686
 20
6.016
 30
0.0
 10
34.8686
 20
6.1582
 30
0.0
 10
34.8686
 20
6.1582
 30
0.0
  0
SPLINE
  5
20B
330
1F
100
AcDbEntity
  8
DEFAULT_2
 62
   250
100
AcDbSpline
210
0.0
220
0.0
230
1.0
 70
    24
 71
     3
 72
     8
 73
     4
 74
     0
 42
0.0000000001
 43
0.0000000001
 40
0.0
 40
0.0
 40
0.0
 40
0.0
 40
1.0
 40
1.0
 40
1.0
 40
1.0
 10
36.9588
 20
0.6857
 30
0.0
 10
36.9588
 20
0.6857
 30
0.0
 10
36.9588
 20
0.4418
 30
0.0
 10
36.9588
 20
0.4418
 30
0.0
  0
SPLINE
  5
20C
330
1F
100
AcDbEntity
  8
DEFAULT_2
 62
   250
100
AcDbSpline
210
0.0
220
0.0
230
1.0
 70
    24
 71
     3
 72
     8
 73
     4
 74
     0
 42
0.0000000001
 43
0.0000000001
 40
0.0
 40
0.0
 40
0.0
 40
0.0
 40
1.0
 40
1.0
 40
1.0
 40
1.0
 10
36.9588
 20
-0.255
 30
0.0
 10
36.9588
 20
-0.255
 30
0.0
 10
36.9588
 20
-0.9866
 30
0.0
 10
36.9588
 20
-0.9866
 30
0.0
  0
SPLINE
  5
20D
330
1F
100
AcDbEntity
  8
DEFAULT_2
 62
   250
100
AcDbSpline
210
0.0
220
0.0
230
1.0
 70
    24
 71
     3
 72
     8
 73
     4
 74
     0
 42
0.0000000001
 43
0.0000000001
 40
0.0
 40
0.0
 40
0.0
 40
0.0
 40
1.0
 40
1.0
 40
1.0
 40
1.0
 10
36.9588
 20
-13.5975
 30
0.0
 10
36.9588
 20
-13.5975
 30
0.0
 10
36.9588
 20
-12.4136
 30
0.0
 10
36.9588
 20
-12.4136
 30
0.0
  0
SPLINE
  5
20E
330
1F
100
AcDbEntity
  8
DEFAULT_2
 62
   250
100
AcDbSpline
210
0.0
220
0.0
230
1.0
 70
    24
 71
     3
 72
     8
 73
     4
 74
     0
 42
0.0000000001
 43
0.0000000001
 40
0.0
 40
0.0
 40
0.0
 40
0.0
 40
1.0
 40
1.0
 40
1.0
 40
1.0
 10
36.9588
 20
-7.5362
 30
0.0
 10
36.9588
 20
-7.5362
 30
0.0
 10
36.9588
 20
-6.1775
 30
0.0
 10
36.9588
 20
-6.1775
 30
0.0
  0
SPLINE
  5
20F
330
1F
100
AcDbEntity
  8
DEFAULT_2
 62
   250
100
AcDbSpline
210
0.0
220
0.0
230
1.0
 70
    24
 71
     3
 72
     8
 73
     4
 74
     0
 42
0.0000000001
 43
0.0000000001
 40
0.0
 40
0.0
 40
0.0
 40
0.0
 40
1.0
 40
1.0
 40
1.0
 40
1.0
 10
17.5843
 20
15.1785
 30
0.0
 10
17.5843
 20
15.1785
 30
0.0
 10
26.1367
 20
15.1785
 30
0.0
 10
26.1367
 20
15.1785
 30
0.0
  0
SPLINE
  5
210
330
1F
100
AcDbEntity
  8
DEFAULT_2
 62
   250
100
AcDbSpline
210
0.0
220
0.0
230
1.0
 70
    24
 71
     3
 72
     8
 73
     4
 74
     0
 42
0.0000000001
 43
0.0000000001
 40
0.0
 40
0.0
 40
0.0
 40
0.0
 40
1.0
 40
1.0
 40
1.0
 40
1.0
 10
37.6556
 20
-6.1775
 30
0.0
 10
37.6556
 20
-6.1775
 30
0.0
 10
37.6556
 20
-7.5362
 30
0.0
 10
37.6556
 20
-7.5362
 30
0.0
  0
SPLINE
  5
211
330
1F
100
AcDbEntity
  8
DEFAULT_2
 62
   250
100
AcDbSpline
210
0.0
220
0.0
230
1.0
 70
    24
 71
     3
 72
     8
 73
     4
 74
     0
 42
0.0000000001
 43
0.0000000001
 40
0.0
 40
0.0
 40
0.0
 40
0.0
 40
1.0
 40
1.0
 40
1.0
 40
1.0
 10
37.6556
 20
-0.9866
 30
0.0
 10
37.6556
 20
-0.9866
 30
0.0
 10
37.6556
 20
-0.255
 30
0.0
 10
37.6556
 20
-0.255
 30
0.0
  0
SPLINE
  5
212
330
1F
100
AcDbEntity
  8
DEFAULT_2
 62
   250
100
AcDbSpline
210
0.0
220
0.0
230
1.0
 70
     8
 71
     3
 72
    12
 73
     8
 74
     0
 42
0.0000000001
 43
0.0000000001
 40
0.0
 40
0.0
 40
0.0
 40
0.0
 40
0.3333333333333333
 40
0.3333333333333333
 40
0.3333333333333333
 40
0.3333333333333333
 40
1.0
 40
1.0
 40
1.0
 40
1.0
 10
17.6234
 20
23.6094
 30
0.0
 10
33.7856
 20
23.6094
 30
0.0
 10
46.8878
 20
10.5074
 30
0.0
 10
46.8878
 20
-5.6549
 30
0.0
 10
46.8878
 20
-5.6549
 30
0.0
 10
46.8878
 20
-21.8172
 30
0.0
 10
33.7857
 20
-34.9193
 30
0.0
 10
17.6234
 20
-34.9193
 30
0.0
  0
SPLINE
  5
213
330
1F
100
AcDbEntity
  8
DEFAULT_2
 62
   250
100
AcDbSpline
210
0.0
220
0.0
230
1.0
 70
     8
 71
     3
 72
    12
 73
     8
 74
     0
 42
0.0000000001
 43
0.0000000001
 40
0.0
 40
0.0
 40
0.0
 40
0.0
 40
0.3333333333333333
 40
0.3333333333333333
 40
0.3333333333333333
 40
0.3333333333333333
 40
1.0
 40
1.0
 40
1.0
 40
1.0
 10
17.6234
 20
18.732
 30
0.0
 10
31.092
 20
18.732
 30
0.0
 10
42.0104
 20
7.8136
 30
0.0
 10
42.0104
 20
-5.6549
 30
0.0
 10
42.0104
 20
-5.6549
 30
0.0
 10
42.0104
 20
-19.1235
 30
0.0
 10
31.092
 20
-30.0419
 30
0.0
 10
17.6234
 20
-30.0419
 30
0.0
  0
SPLINE
  5
214
330
1F
100
AcDbEntity
  8
DEFAULT_2
 62
   250
100
AcDbSpline
210
0.0
220
0.0
230
1.0
 70
     8
 71
     3
 72
    12
 73
     8
 74
     0
 42
0.0000000001
 43
0.0000000001
 40
0.0
 40
0.0
 40
0.0
 40
0.0
 40
0.3333333333333333
 40
0.3333333333333333
 40
0.3333333333333333
 40
0.3333333333333333
 40
1.0
 40
1.0
 40
1.0
 40
1.0
 10
17.6234
 20
18.3836
 30
0.0
 10
30.8996
 20
18.3836
 30
0.0
 10
41.6621
 20
7.6212
 30
0.0
 10
41.6621
 20
-5.6549
 30
0.0
 10
41.6621
 20
-5.6549
 30
0.0
 10
41.6621
 20
-18.9311
 30
0.0
 10
30.8996
 20
-29.6935
 30
0.0
 10
17.6234
 20
-29.6935
 30
0.0
  0
SPLINE
  5
215
330
1F
100
AcDbEntity
  8
DEFAULT_2
 62
   250
100
AcDbSpline
210
0.0
220
0.0
230
1.0
 70
     8
 71
     3
 72
     8
 73
     4
 74
     0
 42
0.0000000001
 43
0.0000000001
 40
0.0
 40
0.0
 40
0.0
 40
0.0
 40
1.0
 40
1.0
 40
1.0
 40
1.0
 10
36.0718
 20
7.2354
 30
0.0
 10
37.1866
 20
5.64
 30
0.0
 10
38.0896
 20
3.9069
 30
0.0
 10
38.7585
 20
2.0793
 30
0.0
  0
SPLINE
  5
216
330
1F
100
AcDbEntity
  8
DEFAULT_2
 62
   250
100
AcDbSpline
210
0.0
220
0.0
230
1.0
 70
     8
 71
     3
 72
     8
 73
     4
 74
     0
 42
0.0000000001
 43
0.0000000001
 40
0.0
 40
0.0
 40
0.0
 40
0.0
 40
1.0
 40
1.0
 40
1.0
 40
1.0
 10
28.9634
 20
13.7849
 30
0.0
 10
31.2706
 20
12.4391
 30
0.0
 10
33.32
 20
10.6931
 30
0.0
 10
35.0154
 20
8.6288
 30
0.0
  0
SPLINE
  5
217
330
1F
100
AcDbEntity
  8
DEFAULT_2
 62
   250
100
AcDbSpline
210
0.0
220
0.0
230
1.0
 70
     8
 71
     3
 72
     8
 73
     4
 74
     0
 42
0.0000000001
 43
0.0000000001
 40
0.0
 40
0.0
 40
0.0
 40
0.0
 40
1.0
 40
1.0
 40
1.0
 40
1.0
 10
39.2175
 20
0.6857
 30
0.0
 10
39.7104
 20
-0.9929
 30
0.0
 10
40.0058
 20
-2.7234
 30
0.0
 10
40.0979
 20
-4.4704
 30
0.0
  0
SPLINE
  5
218
330
1F
100
AcDbEntity
  8
DEFAULT_2
 62
   250
100
AcDbSpline
210
0.0
220
0.0
230
1.0
 70
     8
 71
     3
 72
     8
 73
     4
 74
     0
 42
0.0000000001
 43
0.0000000001
 40
0.0
 40
0.0
 40
0.0
 40
0.0
 40
1.0
 40
1.0
 40
1.0
 40
1.0
 10
40.1282
 20
-5.864
 30
0.0
 10
40.112
 20
-7.6019
 30
0.0
 10
39.8946
 20
-9.3321
 30
0.0
 10
39.4803
 20
-11.0201
 30
0.0
  0
SPLINE
  5
219
330
1F
100
AcDbEntity
  8
DEFAULT_2
 62
   250
100
AcDbSpline
210
0.0
220
0.0
230
1.0
 70
     8
 71
     3
 72
     8
 73
     4
 74
     0
 42
0.0000000001
 43
0.0000000001
 40
0.0
 40
0.0
 40
0.0
 40
0.0
 40
1.0
 40
1.0
 40
1.0
 40
1.0
 10
39.0902
 20
-12.4136
 30
0.0
 10
38.5197
 20
-14.2257
 30
0.0
 10
37.7222
 20
-15.9581
 30
0.0
 10
36.7165
 20
-17.5697
 30
0.0
  0
SPLINE
  5
21A
330
1F
100
AcDbEntity
  8
DEFAULT_2
 62
   250
100
AcDbSpline
210
0.0
220
0.0
230
1.0
 70
     8
 71
     3
 72
     8
 73
     4
 74
     0
 42
0.0000000001
 43
0.0000000001
 40
0.0
 40
0.0
 40
0.0
 40
0.0
 40
1.0
 40
1.0
 40
1.0
 40
1.0
 10
35.7726
 20
-18.9633
 30
0.0
 10
34.3077
 20
-20.9609
 30
0.0
 10
32.5232
 20
-22.703
 30
0.0
 10
30.4908
 20
-24.1194
 30
0.0
  0
SPLINE
  5
21B
330
1F
100
AcDbEntity
  8
DEFAULT_2
 62
   250
100
AcDbSpline
210
0.0
220
0.0
230
1.0
 70
     8
 71
     3
 72
     8
 73
     4
 74
     0
 42
0.0000000001
 43
0.0000000001
 40
0.0
 40
0.0
 40
0.0
 40
0.0
 40
1.0
 40
1.0
 40
1.0
 40
1.0
 10
28.2144
 20
-25.513
 30
0.0
 10
24.881
 20
-27.2907
 30
0.0
 10
21.2117
 20
-28.1732
 30
0.0
 10
17.5453
 20
-28.1605
 30
0.0
  0
SPLINE
  5
21C
330
1F
100
AcDbEntity
  8
DEFAULT_2
 62
   250
100
AcDbSpline
210
0.0
220
0.0
230
1.0
 70
     8
 71
     3
 72
     8
 73
     4
 74
     0
 42
0.0000000001
 43
0.0000000001
 40
0.0
 40
0.0
 40
0.0
 40
0.0
 40
1.0
 40
1.0
 40
1.0
 40
1.0
 10
17.5448
 20
16.8506
 30
0.0
 10
20.4633
 20
16.8608
 30
0.0
 10
23.3837
 20
16.3034
 30
0.0
 10
26.1365
 20
15.1785
 30
0.0
  0
SPLINE
  5
21D
330
1F
100
AcDbEntity
  8
DEFAULT_2
 62
   250
100
AcDbSpline
210
0.0
220
0.0
230
1.0
 70
     8
 71
     3
 72
     8
 73
     4
 74
     0
 42
0.0000000001
 43
0.0000000001
 40
0.0
 40
0.0
 40
0.0
 40
0.0
 40
1.0
 40
1.0
 40
1.0
 40
1.0
 10
28.3803
 20
13.7957
 30
0.0
 10
29.2798
 20
13.2982
 30
0.0
 10
30.1438
 20
12.739
 30
0.0
 10
30.9658
 20
12.1219
 30
0.0
  0
SPLINE
  5
21E
330
1F
100
AcDbEntity
  8
DEFAULT_2
 62
   250
100
AcDbSpline
210
0.0
220
0.0
230
1.0
 70
     8
 71
     3
 72
     8
 73
     4
 74
     0
 42
0.0000000001
 43
0.0000000001
 40
0.0
 40
0.0
 40
0.0
 40
0.0
 40
1.0
 40
1.0
 40
1.0
 40
1.0
 10
35.727
 20
7.2406
 30
0.0
 10
36.1122
 20
6.6999
 30
0.0
 10
36.473
 20
6.1422
 30
0.0
 10
36.8082
 20
5.5692
 30
0.0
  0
SPLINE
  5
21F
330
1F
100
AcDbEntity
  8
DEFAULT_2
 62
   250
100
AcDbSpline
210
0.0
220
0.0
230
1.0
 70
     8
 71
     3
 72
     8
 73
     4
 74
     0
 42
0.0000000001
 43
0.0000000001
 40
0.0
 40
0.0
 40
0.0
 40
0.0
 40
1.0
 40
1.0
 40
1.0
 40
1.0
 10
38.9263
 20
0.6877
 30
0.0
 10
39.0904
 20
0.1361
 30
0.0
 10
39.2333
 20
-0.4216
 30
0.0
 10
39.354
 20
-0.9842
 30
0.0
  0
SPLINE
  5
220
330
1F
100
AcDbEntity
  8
DEFAULT_2
 62
   250
100
AcDbSpline
210
0.0
220
0.0
230
1.0
 70
     8
 71
     3
 72
     8
 73
     4
 74
     0
 42
0.0000000001
 43
0.0000000001
 40
0.0
 40
0.0
 40
0.0
 40
0.0
 40
1.0
 40
1.0
 40
1.0
 40
1.0
 10
39.8494
 20
-5.8641
 30
0.0
 10
39.8442
 20
-6.4225
 30
0.0
 10
39.8178
 20
-6.9805
 30
0.0
 10
39.7706
 20
-7.5369
 30
0.0
  0
SPLINE
  5
221
330
1F
100
AcDbEntity
  8
DEFAULT_2
 62
   250
100
AcDbSpline
210
0.0
220
0.0
230
1.0
 70
     8
 71
     3
 72
     8
 73
     4
 74
     0
 42
0.0000000001
 43
0.0000000001
 40
0.0
 40
0.0
 40
0.0
 40
0.0
 40
1.0
 40
1.0
 40
1.0
 40
1.0
 10
38.7973
 20
-12.4153
 30
0.0
 10
38.6166
 20
-12.9813
 30
0.0
 10
38.4133
 20
-13.5401
 30
0.0
 10
38.1877
 20
-14.0899
 30
0.0
  0
SPLINE
  5
222
330
1F
100
AcDbEntity
  8
DEFAULT_2
 62
   250
100
AcDbSpline
210
0.0
220
0.0
230
1.0
 70
     8
 71
     3
 72
     8
 73
     4
 74
     0
 42
0.0000000001
 43
0.0000000001
 40
0.0
 40
0.0
 40
0.0
 40
0.0
 40
1.0
 40
1.0
 40
1.0
 40
1.0
 10
35.4237
 20
-18.966
 30
0.0
 10
34.9889
 20
-19.5476
 30
0.0
 10
34.5256
 20
-20.1075
 30
0.0
 10
34.036
 20
-20.6437
 30
0.0
  0
SPLINE
  5
223
330
1F
100
AcDbEntity
  8
DEFAULT_2
 62
   250
100
AcDbSpline
210
0.0
220
0.0
230
1.0
 70
     8
 71
     3
 72
     8
 73
     4
 74
     0
 42
0.0000000001
 43
0.0000000001
 40
0.0
 40
0.0
 40
0.0
 40
0.0
 40
1.0
 40
1.0
 40
1.0
 40
1.0
 10
27.6057
 20
-25.5143
 30
0.0
 10
24.7188
 20
-26.9653
 30
0.0
 10
21.5504
 20
-27.7696
 30
0.0
 10
18.321
 20
-27.8709
 30
0.0
  0
SPLINE
  5
224
330
1F
100
AcDbEntity
  8
DEFAULT_2
 62
   250
100
AcDbSpline
210
0.0
220
0.0
230
1.0
 70
     8
 71
     3
 72
     8
 73
     4
 74
     0
 42
0.0000000001
 43
0.0000000001
 40
0.0
 40
0.0
 40
0.0
 40
0.0
 40
1.0
 40
1.0
 40
1.0
 40
1.0
 10
33.7423
 20
-18.9636
 30
0.0
 10
33.6162
 20
-19.1163
 30
0.0
 10
33.488
 20
-19.2672
 30
0.0
 10
33.3578
 20
-19.4162
 30
0.0
  0
SPLINE
  5
225
330
1F
100
AcDbEntity
  8
DEFAULT_2
 62
   250
100
AcDbSpline
210
0.0
220
0.0
230
1.0
 70
     8
 71
     3
 72
     8
 73
     4
 74
     0
 42
0.0000000001
 43
0.0000000001
 40
0.0
 40
0.0
 40
0.0
 40
0.0
 40
1.0
 40
1.0
 40
1.0
 40
1.0
 10
34.078
 20
7.2364
 30
0.0
 10
34.1093
 20
7.1964
 30
0.0
 10
34.1406
 20
7.1562
 30
0.0
 10
34.1717
 20
7.1159
 30
0.0
  0
SPLINE
  5
226
330
1F
100
AcDbEntity
  8
DEFAULT_2
 62
   250
100
AcDbSpline
210
0.0
220
0.0
230
1.0
 70
     8
 71
     3
 72
     8
 73
     4
 74
     0
 42
0.0000000001
 43
0.0000000001
 40
0.0
 40
0.0
 40
0.0
 40
0.0
 40
1.0
 40
1.0
 40
1.0
 40
1.0
 10
36.9588
 20
-13.5975
 30
0.0
 10
36.9252
 20
-13.6791
 30
0.0
 10
36.8911
 20
-13.7606
 30
0.0
 10
36.8566
 20
-13.842
 30
0.0
  0
SPLINE
  5
227
330
1F
100
AcDbEntity
  8
DEFAULT_2
 62
   250
100
AcDbSpline
210
0.0
220
0.0
230
1.0
 70
     8
 71
     3
 72
     8
 73
     4
 74
     0
 42
0.0000000001
 43
0.0000000001
 40
0.0
 40
0.0
 40
0.0
 40
0.0
 40
1.0
 40
1.0
 40
1.0
 40
1.0
 10
23.0234
 20
-25.8485
 30
0.0
 10
22.3347
 20
-26.0327
 30
0.0
 10
21.637
 20
-26.1815
 30
0.0
 10
20.933
 20
-26.2944
 30
0.0
  0
SPLINE
  5
228
330
1F
100
AcDbEntity
  8
DEFAULT_2
 62
   250
100
AcDbSpline
210
0.0
220
0.0
230
1.0
 70
     8
 71
     3
 72
     8
 73
     4
 74
     0
 42
0.0000000001
 43
0.0000000001
 40
0.0
 40
0.0
 40
0.0
 40
0.0
 40
1.0
 40
1.0
 40
1.0
 40
1.0
 10
20.2363
 20
-26.394
 30
0.0
 10
19.6003
 20
-26.4741
 30
0.0
 10
18.9611
 20
-26.5251
 30
0.0
 10
18.3205
 20
-26.5463
 30
0.0
  0
SPLINE
  5
229
330
1F
100
AcDbEntity
  8
DEFAULT_2
 62
   250
100
AcDbSpline
210
0.0
220
0.0
230
1.0
 70
     8
 71
     3
 72
     8
 73
     4
 74
     0
 42
0.0000000001
 43
0.0000000001
 40
0.0
 40
0.0
 40
0.0
 40
0.0
 40
1.0
 40
1.0
 40
1.0
 40
1.0
 10
25.5659
 20
13.6804
 30
0.0
 10
25.6475
 20
13.6469
 30
0.0
 10
25.7291
 20
13.6129
 30
0.0
 10
25.8105
 20
13.5781
 30
0.0
  0
SPLINE
  5
22A
330
1F
100
AcDbEntity
  8
DEFAULT_2
 62
   250
100
AcDbSpline
210
0.0
220
0.0
230
1.0
 70
     8
 71
     3
 72
     8
 73
     4
 74
     0
 42
0.0000000001
 43
0.0000000001
 40
0.0
 40
0.0
 40
0.0
 40
0.0
 40
1.0
 40
1.0
 40
1.0
 40
1.0
 10
26.5073
 20
13.2664
 30
0.0
 10
27.2249
 20
12.9295
 30
0.0
 10
27.9228
 20
12.552
 30
0.0
 10
28.5976
 20
12.1359
 30
0.0
  0
SPLINE
  5
22B
330
1F
100
AcDbEntity
  8
DEFAULT_2
 62
   250
100
AcDbSpline
210
0.0
220
0.0
230
1.0
 70
     8
 71
     3
 72
     8
 73
     4
 74
     0
 42
0.0000000001
 43
0.0000000001
 40
0.0
 40
0.0
 40
0.0
 40
0.0
 40
1.0
 40
1.0
 40
1.0
 40
1.0
 10
34.8686
 20
6.1582
 30
0.0
 10
34.9008
 20
6.1109
 30
0.0
 10
34.933
 20
6.0635
 30
0.0
 10
34.9649
 20
6.016
 30
0.0
  0
SPLINE
  5
22C
330
1F
100
AcDbEntity
  8
DEFAULT_2
 62
   250
100
AcDbSpline
210
0.0
220
0.0
230
1.0
 70
     8
 71
     3
 72
     8
 73
     4
 74
     0
 42
0.0000000001
 43
0.0000000001
 40
0.0
 40
0.0
 40
0.0
 40
0.0
 40
1.0
 40
1.0
 40
1.0
 40
1.0
 10
37.8169
 20
-0.255
 30
0.0
 10
37.8818
 20
-0.4973
 30
0.0
 10
37.9422
 20
-0.7408
 30
0.0
 10
37.9982
 20
-0.9854
 30
0.0
  0
SPLINE
  5
22D
330
1F
100
AcDbEntity
  8
DEFAULT_2
 62
   250
100
AcDbSpline
210
0.0
220
0.0
230
1.0
 70
     8
 71
     3
 72
     8
 73
     4
 74
     0
 42
0.0000000001
 43
0.0000000001
 40
0.0
 40
0.0
 40
0.0
 40
0.0
 40
1.0
 40
1.0
 40
1.0
 40
1.0
 10
38.5201
 20
-6.1775
 30
0.0
 10
38.5086
 20
-6.6313
 30
0.0
 10
38.4825
 20
-7.0845
 30
0.0
 10
38.4417
 20
-7.5367
 30
0.0
  0
ENDSEC
  0
SECTION
  2
OBJECTS
  0
DICTIONARY
  5
C
330
0
100
AcDbDictionary
  3
ACAD_GROUP
350
D
  3
ACAD_LAYOUT
350
1A
  3
ACAD_MATERIAL
350
3B
  3
ACAD_MLEADERSTYLE
350
250
  3
ACAD_MLINESTYLE
350
17
  3
ACAD_PLOTSETTINGS
350
19
  3
ACAD_VISUALSTYLE
350
2A
  3
ACDBHEADERROUNDTRIPXREC
350
22E
  3
ACDBVARIABLEDICTIONARY
350
24E
  0
DICTIONARY
  5
D
102
{ACAD_REACTORS
330
C
102
}
330
C
100
AcDbDictionary
  0
DICTIONARY
  5
1A
102
{ACAD_REACTORS
330
C
102
}
330
C
100
AcDbDictionary
  0
DICTIONARY
  5
3B
102
{ACAD_REACTORS
330
C
102
}
330
C
100
AcDbDictionary
  3
BYBLOCK
350
3D
  3
BYLAYER
350
3C
  3
GLOBAL
350
3E
  0
DICTIONARY
  5
250
102
{ACAD_REACTORS
330
C
102
}
330
C
100
AcDbDictionary
  0
DICTIONARY
  5
17
102
{ACAD_REACTORS
330
C
102
}
330
C
100
AcDbDictionary
  3
STANDARD
350
18
  0
DICTIONARY
  5
19
102
{ACAD_REACTORS
330
C
102
}
330
C
100
AcDbDictionary
  0
DICTIONARY
  5
2A
102
{ACAD_REACTORS
330
C
102
}
330
C
100
AcDbDictionary
  3
2DWIREFRAME
350
2F
  3
3D_HIDDEN
350
31
  3
3DWIREFRAME
350
30
  3
BASIC
350
32
  3
BRIGHTEN
350
36
  3
COLORCHANGE
350
3A
  3
CONCEPTUAL
350
34
  3
DIM
350
35
  3
FACEPATTERN
350
39
  3
FLAT
350
2B
  3
FLATWITHEDGES
350
2C
  3
GOURAUD
350
2D
  3
GOURAUDWITHEDGES
350
2E
  3
LINEPATTERN
350
38
  3
REALISTIC
350
33
  3
THICKEN
350
37
  0
DICTIONARY
  5
22E
102
{ACAD_REACTORS
330
C
102
}
330
C
100
AcDbDictionary
  3
CEPSNTYPE
350
237
  3
DIMSTYLEDATA
350
24D
  3
FINGERPRINTGUID
350
238
  3
HYPERLINKBASE
350
231
  3
INSUNITS
350
236
  3
LAYOUTDICT
350
233
  3
LWETCUNION
350
235
  3
PLOTSETDICT
350
234
  3
PSVPSCALE
350
23A
  3
PUCSBASE
350
23D
  3
PUCSORGBACK
350
243
  3
PUCSORGBOTTOM
350
23F
  3
PUCSORGFRONT
350
242
  3
PUCSORGLEFT
350
240
  3
PUCSORGRIGHT
350
241
  3
PUCSORGTOP
350
23E
  3
PUCSORTHOREF
350
23B
  3
PUCSORTHOVIEW
350
23C
  3
STYLESHEET
350
232
  3
TSTACKALIGN
350
22F
  3
TSTACKSIZE
350
230
  3
UCSBASE
350
246
  3
UCSORGBACK
350
24C
  3
UCSORGBOTTOM
350
248
  3
UCSORGFRONT
350
24B
  3
UCSORGLEFT
350
249
  3
UCSORGRIGHT
350
24A
  3
UCSORGTOP
350
247
  3
UCSORTHOREF
350
244
  3
UCSORTHOVIEW
350
245
  3
VERSIONGUID
350
239
  0
DICTIONARY
  5
24E
102
{ACAD_REACTORS
330
C
102
}
330
C
100
AcDbDictionary
  3
DIMASSOC
350
251
  3
HIDETEXT
350
252
  0
MATERIAL
  5
3D
102
{ACAD_REACTORS
330
3B
102
}
102
{ACAD_XDICTIONARY
360
255
102
}
330
3B
100
AcDbMaterial
  1
ByBlock
  0
MATERIAL
  5
3C
102
{ACAD_REACTORS
330
3B
102
}
102
{ACAD_XDICTIONARY
360
253
102
}
330
3B
100
AcDbMaterial
  1
ByLayer
  0
MATERIAL
  5
3E
102
{ACAD_REACTORS
330
3B
102
}
102
{ACAD_XDICTIONARY
360
257
102
}
330
3B
100
AcDbMaterial
  1
Global
  0
MLINESTYLE
  5
18
102
{ACAD_REACTORS
330
17
102
}
330
17
100
AcDbMlineStyle
  2
Standard
 70
     0
  3

 62
   256
 51
90.0
 52
90.0
 71
     2
 49
0.5
 62
   256
  6
BYLAYER
 49
-0.5
 62
   256
  6
BYLAYER
  0
ACAD_PROXY_OBJECT
  5
2F
102
{ACAD_REACTORS
330
2A
102
}
330
2A
100
AcDbProxyObject
 90
      499
 91
      501
 93
      436
310
42CC9915DA5C99599C985B595049028333333333333E3BF0000000000000FB0107901411070040501600405405064090741402480A0340
1001
ACAD
1000
AcDbSavedByObjectVersion
1070
     0
  0
ACAD_PROXY_OBJECT
  5
31
102
{ACAD_REACTORS
330
2A
102
}
330
2A
100
AcDbProxyObject
 90
      499
 91
      501
 93
      500
310
424CD108121A5919195B90640502408333333333333E3BF0000000000000FB01079024090700405020000000000001110200405405064090740C02480A0340
1001
ACAD
1000
AcDbSavedByObjectVersion
1070
     0
  0
ACAD_PROXY_OBJECT
  5
30
102
{ACAD_REACTORS
330
2A
102
}
330
2A
100
AcDbProxyObject
 90
      499
 91
      501
 93
      436
310
42CCD915DA5C99599C985B595059028333333333333E3BF0000000000000FB0107901411070040501600405405064090741402480A0340
1001
ACAD
1000
AcDbSavedByObjectVersion
1070
     0
  0
ACAD_PROXY_OBJECT
  5
32
102
{ACAD_REACTORS
330
2A
102
}
330
2A
100
AcDbProxyObject
 90
      499
 91
      501
 93
      388
310
4150985CDA58D07406404333333333333E3BF0000000000000FB0107A41107004050150841D405064090741402480A0350
1001
ACAD
1000
AcDbSavedByObjectVersion
1070
     0
  0
ACAD_PROXY_OBJECT
  5
36
102
{ACAD_REACTORS
330
2A
102
}
330
2A
100
AcDbProxyObject
 90
      499
 91
      501
 93
      428
310
42109C9A59DA1D195B90C409028333333333333E3BF0000000000000FB010790141107004050150841D405064090741402480A029950
1001
ACAD
1000
AcDbSavedByObjectVersion
1070
     0
  0
ACAD_PROXY_OBJECT
  5
3A
102
{ACAD_REACTORS
330
2A
102
}
330
2A
100
AcDbProxyObject
 90
      499
 91
      501
 93
      452
310
42D0DBDB1BDC90DA185B99D95104090240C333333333333E3BF0000000000000FB0108901411070040501508421405064090741402480A0350
1001
ACAD
1000
AcDbSavedByObjectVersion
1070
     0
  0
ACAD_PROXY_OBJECT
  5
34
102
{ACAD_REACTORS
330
2A
102
}
330
2A
100
AcDbProxyObject
 90
      499
 91
      501
 93
      500
310
4290DBDB98D95C1D1D585B10940D028333333333333E3BF0000000000000FB0107902409070040501000000000000111010841D405064090740C02480A0340
1001
ACAD
1000
AcDbSavedByObjectVersion
1070
     0
  0
ACAD_PROXY_OBJECT
  5
35
102
{ACAD_REACTORS
330
2A
102
}
330
2A
100
AcDbProxyObject
 90
      499
 91
      501
 93
      412
310
40D11A5B50B409028333333333333E3BF0000000000000FB010790141107004050150841D405064090741402480A02677FFFFFD0
1001
ACAD
1000
AcDbSavedByObjectVersion
1070
     0
  0
ACAD_PROXY_OBJECT
  5
39
102
{ACAD_REACTORS
330
2A
102
}
330
2A
100
AcDbProxyObject
 90
      499
 91
      501
 93
      444
310
42D19858D95C185D1D195C9B90F409028333333333333E3BF0000000000000FB010790141107004050150841D405064090741402480A0350
1001
ACAD
1000
AcDbSavedByObjectVersion
1070
     0
  0
ACAD_PROXY_OBJECT
  5
2B
102
{ACAD_REACTORS
330
2A
102
}
330
2A
100
AcDbProxyObject
 90
      499
 91
      501
 93
      388
310
41119B185D240901404333333333333E3BF0000000000000F9010740A41107004050150841D405064090741402480A1B50
1001
ACAD
1000
AcDbSavedByObjectVersion
1070
     0
  0
ACAD_PROXY_OBJECT
  5
2C
102
{ACAD_REACTORS
330
2A
102
}
330
2A
100
AcDbProxyObject
 90
      499
 91
      501
 93
      476
310
43519B185D15DA5D1A115919D95CD0140901404333333333333E3BF0000000000000F9010740901411070040501600405405064090741402480A1B50
1001
ACAD
1000
AcDbSavedByObjectVersion
1070
     0
  0
ACAD_PROXY_OBJECT
  5
2D
102
{ACAD_REACTORS
330
2A
102
}
330
2A
100
AcDbProxyObject
 90
      499
 91
      501
 93
      412
310
41D1DBDD5C985D5910240902404333333333333E3BF0000000000000F9010740A411070040501641D405064090741402480A1B50
1001
ACAD
1000
AcDbSavedByObjectVersion
1070
     0
  0
ACAD_PROXY_OBJECT
  5
2E
102
{ACAD_REACTORS
330
2A
102
}
330
2A
100
AcDbProxyObject
 90
      499
 91
      501
 93
      500
310
4411DBDD5C985D5915DA5D1A115919D95CD0340902404333333333333E3BF0000000000000F9010740901411070040501600405405064090741402480A1B50
1001
ACAD
1000
AcDbSavedByObjectVersion
1070
     0
  0
ACAD_PROXY_OBJECT
  5
38
102
{ACAD_REACTORS
330
2A
102
}
330
2A
100
AcDbProxyObject
 90
      499
 91
      501
 93
      444
310
42D31A5B995C185D1D195C9B90E409028333333333333E3BF0000000000000FB010790141107004050750841D405064090741402483A0350
1001
ACAD
1000
AcDbSavedByObjectVersion
1070
     0
  0
ACAD_PROXY_OBJECT
  5
33
102
{ACAD_REACTORS
330
2A
102
}
330
2A
100
AcDbProxyObject
 90
      499
 91
      501
 93
      420
310
425499585B1A5CDD1A58D08409028333333333333E3BF0000000000000FB01079019070040501508421405064090741402480A1B40
1001
ACAD
1000
AcDbSavedByObjectVersion
1070
     0
  0
ACAD_PROXY_OBJECT
  5
37
102
{ACAD_REACTORS
330
2A
102
}
330
2A
100
AcDbProxyObject
 90
      499
 91
      501
 93
      412
310
41D51A1A58DAD95B90D409028333333333333E3BF0000000000000FB010790141107004050150C41D405064090741402480A0350
1001
ACAD
1000
AcDbSavedByObjectVersion
1070
     0
  0
XRECORD
  5
237
102
{ACAD_REACTORS
330
22E
102
}
330
22E
100
AcDbXrecord
 90
        0
  0
XRECORD
  5
24D
102
{ACAD_REACTORS
330
22E
102
}
330
22E
100
AcDbXrecord
1000
DSTYLE
1002
{
1070
   340
340
11
1002
}
  0
XRECORD
  5
238
102
{ACAD_REACTORS
330
22E
102
}
330
22E
100
AcDbXrecord
  1
{FD14E2DE-2841-4513-8019-85E4C0A289F8}
  0
XRECORD
  5
231
102
{ACAD_REACTORS
330
22E
102
}
330
22E
100
AcDbXrecord
  1

  0
XRECORD
  5
236
102
{ACAD_REACTORS
330
22E
102
}
330
22E
100
AcDbXrecord
 90
        4
  0
XRECORD
  5
233
102
{ACAD_REACTORS
330
22E
102
}
330
22E
100
AcDbXrecord
340
1A
  0
XRECORD
  5
235
102
{ACAD_REACTORS
330
22E
102
}
330
22E
100
AcDbXrecord
 90
    10781
  0
XRECORD
  5
234
102
{ACAD_REACTORS
330
22E
102
}
330
22E
100
AcDbXrecord
340
19
  0
XRECORD
  5
23A
102
{ACAD_REACTORS
330
22E
102
}
330
22E
100
AcDbXrecord
 40
0.0
  0
XRECORD
  5
23D
102
{ACAD_REACTORS
330
22E
102
}
330
22E
100
AcDbXrecord
340
0
  0
XRECORD
  5
243
102
{ACAD_REACTORS
330
22E
102
}
330
22E
100
AcDbXrecord
 10
0.0
 20
0.0
 30
0.0
  0
XRECORD
  5
23F
102
{ACAD_REACTORS
330
22E
102
}
330
22E
100
AcDbXrecord
 10
0.0
 20
0.0
 30
0.0
  0
XRECORD
  5
242
102
{ACAD_REACTORS
330
22E
102
}
330
22E
100
AcDbXrecord
 10
0.0
 20
0.0
 30
0.0
  0
XRECORD
  5
240
102
{ACAD_REACTORS
330
22E
102
}
330
22E
100
AcDbXrecord
 10
0.0
 20
0.0
 30
0.0
  0
XRECORD
  5
241
102
{ACAD_REACTORS
330
22E
102
}
330
22E
100
AcDbXrecord
 10
0.0
 20
0.0
 30
0.0
  0
XRECORD
  5
23E
102
{ACAD_REACTORS
330
22E
102
}
330
22E
100
AcDbXrecord
 10
0.0
 20
0.0
 30
0.0
  0
XRECORD
  5
23B
102
{ACAD_REACTORS
330
22E
102
}
330
22E
100
AcDbXrecord
340
0
  0
XRECORD
  5
23C
102
{ACAD_REACTORS
330
22E
102
}
330
22E
100
AcDbXrecord
 70
     0
  0
XRECORD
  5
232
102
{ACAD_REACTORS
330
22E
102
}
330
22E
100
AcDbXrecord
  1

  0
XRECORD
  5
22F
102
{ACAD_REACTORS
330
22E
102
}
330
22E
100
AcDbXrecord
 90
        1
  0
XRECORD
  5
230
102
{ACAD_REACTORS
330
22E
102
}
330
22E
100
AcDbXrecord
 90
       70
  0
XRECORD
  5
246
102
{ACAD_REACTORS
330
22E
102
}
330
22E
100
AcDbXrecord
340
0
  0
XRECORD
  5
24C
102
{ACAD_REACTORS
330
22E
102
}
330
22E
100
AcDbXrecord
 10
0.0
 20
0.0
 30
0.0
  0
XRECORD
  5
248
102
{ACAD_REACTORS
330
22E
102
}
330
22E
100
AcDbXrecord
 10
0.0
 20
0.0
 30
0.0
  0
XRECORD
  5
24B
102
{ACAD_REACTORS
330
22E
102
}
330
22E
100
AcDbXrecord
 10
0.0
 20
0.0
 30
0.0
  0
XRECORD
  5
249
102
{ACAD_REACTORS
330
22E
102
}
330
22E
100
AcDbXrecord
 10
0.0
 20
0.0
 30
0.0
  0
XRECORD
  5
24A
102
{ACAD_REACTORS
330
22E
102
}
330
22E
100
AcDbXrecord
 10
0.0
 20
0.0
 30
0.0
  0
XRECORD
  5
247
102
{ACAD_REACTORS
330
22E
102
}
330
22E
100
AcDbXrecord
 10
0.0
 20
0.0
 30
0.0
  0
XRECORD
  5
244
102
{ACAD_REACTORS
330
22E
102
}
330
22E
100
AcDbXrecord
340
0
  0
XRECORD
  5
245
102
{ACAD_REACTORS
330
22E
102
}
330
22E
100
AcDbXrecord
 70
     0
  0
XRECORD
  5
239
102
{ACAD_REACTORS
330
22E
102
}
330
22E
100
AcDbXrecord
  1
{FAEB1C32-E019-11D5-929B-00C0DF256EC4}
  0
DICTIONARYVAR
  5
251
102
{ACAD_REACTORS
330
24E
102
}
330
24E
100
DictionaryVariables
280
     0
  1
2
  0
DICTIONARYVAR
  5
252
102
{ACAD_REACTORS
330
24E
102
}
330
24E
100
DictionaryVariables
280
     0
  1
1
  0
DICTIONARY
  5
255
330
3D
100
AcDbDictionary
280
     1
  3
ACAD_XREC_ROUNDTRIP
360
256
  0
DICTIONARY
  5
253
330
3C
100
AcDbDictionary
280
     1
  3
ACAD_XREC_ROUNDTRIP
360
254
  0
DICTIONARY
  5
257
330
3E
100
AcDbDictionary
280
     1
  3
ACAD_XREC_ROUNDTRIP
360
258
  0
XRECORD
  5
256
102
{ACAD_REACTORS
330
255
102
}
330
255
100
AcDbXrecord
102
MATERIAL
148
0.0
149
0.0
149
0.0
 93
        0
 94
      127
282
     0
 72
     1
 77
     1
171
     1
175
     1
179
     1
273
     0
  0
XRECORD
  5
254
102
{ACAD_REACTORS
330
253
102
}
330
253
100
AcDbXrecord
102
MATERIAL
148
0.0
149
0.0
149
0.0
 93
        0
 94
      127
282
     0
 72
     1
 77
     1
171
     1
175
     1
179
     1
273
     0
  0
XRECORD
  5
258
102
{ACAD_REACTORS
330
257
102
}
330
257
100
AcDbXrecord
102
MATERIAL
148
0.0
149
0.0
149
0.0
 93
        0
 94
      127
282
     0
 72
     1
 77
     1
171
     1
175
     1
179
     1
273
     0
  0
ENDSEC
  0
EOF
