  0
SECTION
  2
HEADER
  9
$ACADVER
  1
AC1014
  9
$ACADMAINTVER
 70
     9
  9
$DWGCODEPAGE
  3
ANSI_1250
  9
$INSBASE
 10
0.0
 20
0.0
 30
0.0
  9
$EXTMIN
 10
-37.9453
 20
-44.9111
 30
0.0
  9
$EXTMAX
 10
38.0864
 20
44.9111
 30
0.0
  9
$LIMMIN
 10
0.0
 20
0.0
  9
$LIMMAX
 10
12.0
 20
9.0
  9
$ORTHOMODE
 70
     0
  9
$REGENMODE
 70
     1
  9
$FILLMODE
 70
     1
  9
$QTEXTMODE
 70
     0
  9
$MIRRTEXT
 70
     1
  9
$DRAGMODE
 70
     2
  9
$LTSCALE
 40
1.0
  9
$OSMODE
 70
    37
  9
$ATTMODE
 70
     1
  9
$TEXTSIZE
 40
0.2
  9
$TRACEWID
 40
0.05
  9
$TEXTSTYLE
  7
STANDARD
  9
$CLAYER
  8
0
  9
$CELTYPE
  6
BYLAYER
  9
$CECOLOR
 62
   256
  9
$CELTSCALE
 40
1.0
  9
$DELOBJ
 70
     1
  9
$DISPSILH
 70
     0
  9
$DIMSCALE
 40
1.0
  9
$DIMASZ
 40
0.18
  9
$DIMEXO
 40
0.0625
  9
$DIMDLI
 40
0.38
  9
$DIMRND
 40
0.0
  9
$DIMDLE
 40
0.0
  9
$DIMEXE
 40
0.18
  9
$DIMTP
 40
0.0
  9
$DIMTM
 40
0.0
  9
$DIMTXT
 40
0.18
  9
$DIMCEN
 40
0.09
  9
$DIMTSZ
 40
0.0
  9
$DIMTOL
 70
     0
  9
$DIMLIM
 70
     0
  9
$DIMTIH
 70
     1
  9
$DIMTOH
 70
     1
  9
$DIMSE1
 70
     0
  9
$DIMSE2
 70
     0
  9
$DIMTAD
 70
     0
  9
$DIMZIN
 70
     0
  9
$DIMBLK
  1

  9
$DIMASO
 70
     1
  9
$DIMSHO
 70
     1
  9
$DIMPOST
  1

  9
$DIMAPOST
  1

  9
$DIMALT
 70
     0
  9
$DIMALTD
 70
     2
  9
$DIMALTF
 40
25.4
  9
$DIMLFAC
 40
1.0
  9
$DIMTOFL
 70
     0
  9
$DIMTVP
 40
0.0
  9
$DIMTIX
 70
     0
  9
$DIMSOXD
 70
     0
  9
$DIMSAH
 70
     0
  9
$DIMBLK1
  1

  9
$DIMBLK2
  1

  9
$DIMSTYLE
  2
STANDARD
  9
$DIMCLRD
 70
     0
  9
$DIMCLRE
 70
     0
  9
$DIMCLRT
 70
     0
  9
$DIMTFAC
 40
1.0
  9
$DIMGAP
 40
0.09
  9
$DIMJUST
 70
     0
  9
$DIMSD1
 70
     0
  9
$DIMSD2
 70
     0
  9
$DIMTOLJ
 70
     1
  9
$DIMTZIN
 70
     0
  9
$DIMALTZ
 70
     0
  9
$DIMALTTZ
 70
     0
  9
$DIMFIT
 70
     3
  9
$DIMUPT
 70
     0
  9
$DIMUNIT
 70
     2
  9
$DIMDEC
 70
     4
  9
$DIMTDEC
 70
     4
  9
$DIMALTU
 70
     2
  9
$DIMALTTD
 70
     2
  9
$DIMTXSTY
  7
STANDARD
  9
$DIMAUNIT
 70
     0
  9
$LUNITS
 70
     2
  9
$LUPREC
 70
     4
  9
$SKETCHINC
 40
0.1
  9
$FILLETRAD
 40
0.5
  9
$AUNITS
 70
     0
  9
$AUPREC
 70
     0
  9
$MENU
  1
.
  9
$ELEVATION
 40
0.0
  9
$PELEVATION
 40
0.0
  9
$THICKNESS
 40
0.0
  9
$LIMCHECK
 70
     0
  9
$CHAMFERA
 40
0.5
  9
$CHAMFERB
 40
0.5
  9
$CHAMFERC
 40
1.0
  9
$CHAMFERD
 40
0.0
  9
$SKPOLY
 70
     0
  9
$TDCREATE
 40
2456535.304660555
  9
$TDUPDATE
 40
2456535.304660567
  9
$TDINDWG
 40
0.0000000116
  9
$TDUSRTIMER
 40
0.0000000116
  9
$USRTIMER
 70
     1
  9
$ANGBASE
 50
0.0
  9
$ANGDIR
 70
     0
  9
$PDMODE
 70
     0
  9
$PDSIZE
 40
0.0
  9
$PLINEWID
 40
0.0
  9
$COORDS
 70
     1
  9
$SPLFRAME
 70
     0
  9
$SPLINETYPE
 70
     6
  9
$SPLINESEGS
 70
     8
  9
$ATTDIA
 70
     0
  9
$ATTREQ
 70
     1
  9
$HANDLING
 70
     1
  9
$HANDSEED
  5
213
  9
$SURFTAB1
 70
     6
  9
$SURFTAB2
 70
     6
  9
$SURFTYPE
 70
     6
  9
$SURFU
 70
     6
  9
$SURFV
 70
     6
  9
$UCSNAME
  2

  9
$UCSORG
 10
0.0
 20
0.0
 30
0.0
  9
$UCSXDIR
 10
1.0
 20
0.0
 30
0.0
  9
$UCSYDIR
 10
0.0
 20
1.0
 30
0.0
  9
$PUCSNAME
  2

  9
$PUCSORG
 10
0.0
 20
0.0
 30
0.0
  9
$PUCSXDIR
 10
1.0
 20
0.0
 30
0.0
  9
$PUCSYDIR
 10
0.0
 20
1.0
 30
0.0
  9
$USERI1
 70
     0
  9
$USERI2
 70
     0
  9
$USERI3
 70
     0
  9
$USERI4
 70
     0
  9
$USERI5
 70
     0
  9
$USERR1
 40
0.0
  9
$USERR2
 40
0.0
  9
$USERR3
 40
0.0
  9
$USERR4
 40
0.0
  9
$USERR5
 40
0.0
  9
$WORLDVIEW
 70
     1
  9
$SHADEDGE
 70
     3
  9
$SHADEDIF
 70
    70
  9
$TILEMODE
 70
     1
  9
$MAXACTVP
 70
    64
  9
$PINSBASE
 10
0.0
 20
0.0
 30
0.0
  9
$PLIMCHECK
 70
     0
  9
$PEXTMIN
 10
1.000000000000000E+20
 20
1.000000000000000E+20
 30
1.000000000000000E+20
  9
$PEXTMAX
 10
-1.000000000000000E+20
 20
-1.000000000000000E+20
 30
-1.000000000000000E+20
  9
$PLIMMIN
 10
0.0
 20
0.0
  9
$PLIMMAX
 10
12.0
 20
9.0
  9
$UNITMODE
 70
     0
  9
$VISRETAIN
 70
     1
  9
$PLINEGEN
 70
     0
  9
$PSLTSCALE
 70
     1
  9
$TREEDEPTH
 70
  3020
  9
$PICKSTYLE
 70
     1
  9
$CMLSTYLE
  2
STANDARD
  9
$CMLJUST
 70
     0
  9
$CMLSCALE
 40
1.0
  9
$PROXYGRAPHICS
 70
     1
  9
$MEASUREMENT
 70
     0
  0
ENDSEC
  0
SECTION
  2
CLASSES
  0
CLASS
  1
ACDBDICTIONARYWDFLT
  2
AcDbDictionaryWithDefault
  3
ObjectDBX Classes
 90
        0
280
     0
281
     0
  0
CLASS
  1
VISUALSTYLE
  2
AcDbVisualStyle
  3
ObjectDBX Classes
 90
     4095
280
     0
281
     0
  0
CLASS
  1
MATERIAL
  2
AcDbMaterial
  3
ObjectDBX Classes
 90
     1153
280
     0
281
     0
  0
CLASS
  1
DICTIONARYVAR
  2
AcDbDictionaryVar
  3
ObjectDBX Classes
 90
        0
280
     0
281
     0
  0
CLASS
  1
XRECORD
  2
AcDbXrecord
  3
AutoCAD 2000
 90
        0
280
     0
281
     0
  0
CLASS
  1
LWPOLYLINE
  2
AcDbPolyline
  3
AutoCAD 2000
 90
        0
280
     0
281
     1
  0
CLASS
  1
HATCH
  2
AcDbHatch
  3
AutoCAD 2000
 90
        0
280
     0
281
     1
  0
CLASS
  1
ACDBPLACEHOLDER
  2
AcDbPlaceHolder
  3
ObjectDBX Classes
 90
        0
280
     0
281
     0
  0
CLASS
  1
LAYOUT
  2
AcDbLayout
  3
ObjectDBX Classes
 90
        0
280
     0
281
     0
  0
ENDSEC
  0
SECTION
  2
TABLES
  0
TABLE
  2
VPORT
  5
8
330
0
100
AcDbSymbolTable
 70
     1
  0
VPORT
  5
29
330
8
100
AcDbSymbolTableRecord
100
AcDbViewportTableRecord
  2
*ACTIVE
 70
     0
 10
0.0
 20
0.0
 11
1.0
 21
1.0
 12
10.42990654205607
 22
4.5
 13
0.0
 23
0.0
 14
0.5
 24
0.5
 15
0.5
 25
0.5
 16
0.0
 26
0.0
 36
1.0
 17
0.0
 27
0.0
 37
0.0
 40
9.0
 41
1.972972972850329
 42
50.0
 43
0.0
 44
0.0
 50
0.0
 51
0.0
 71
     0
 72
   100
 73
     1
 74
     3
 75
     0
 76
     0
 77
     0
 78
     0
  0
ENDTAB
  0
TABLE
  2
LTYPE
  5
5
330
0
100
AcDbSymbolTable
 70
    20
  0
LTYPE
  5
14
330
5
100
AcDbSymbolTableRecord
100
AcDbLinetypeTableRecord
  2
BYBLOCK
 70
     0
  3

 72
    65
 73
     0
 40
0.0
  0
LTYPE
  5
15
330
5
100
AcDbSymbolTableRecord
100
AcDbLinetypeTableRecord
  2
BYLAYER
 70
     0
  3

 72
    65
 73
     0
 40
0.0
  0
LTYPE
  5
16
330
5
100
AcDbSymbolTableRecord
100
AcDbLinetypeTableRecord
  2
CONTINUOUS
 70
     0
  3
Solid line
 72
    65
 73
     0
 40
0.0
  0
LTYPE
  5
4A
330
5
100
AcDbSymbolTableRecord
100
AcDbLinetypeTableRecord
  2
NEW_LINE1
 70
     0
  3

 72
    65
 73
     4
 40
1.2
 49
0.5
 74
     4
 75
     0
340
0
 46
1.0
 50
0.0
 44
0.0
 45
0.0
 49
-0.3
 74
     4
 75
     0
340
0
 46
1.0
 50
0.0
 44
0.0
 45
0.0
 49
0.1
 74
     4
 75
     0
340
0
 46
1.0
 50
0.0
 44
0.0
 45
0.0
 49
-0.3
 74
     4
 75
     0
340
0
 46
1.0
 50
0.0
 44
0.0
 45
0.0
  0
LTYPE
  5
4C
330
5
100
AcDbSymbolTableRecord
100
AcDbLinetypeTableRecord
  2
NEW_LINE2
 70
     0
  3

 72
    65
 73
     4
 40
1.2
 49
0.5
 74
     4
 75
     0
340
0
 46
1.0
 50
0.0
 44
0.0
 45
0.0
 49
-0.3
 74
     4
 75
     0
340
0
 46
1.0
 50
0.0
 44
0.0
 45
0.0
 49
0.1
 74
     4
 75
     0
340
0
 46
1.0
 50
0.0
 44
0.0
 45
0.0
 49
-0.3
 74
     4
 75
     0
340
0
 46
1.0
 50
0.0
 44
0.0
 45
0.0
  0
LTYPE
  5
55
330
5
100
AcDbSymbolTableRecord
100
AcDbLinetypeTableRecord
  2
NEW_LINE3
 70
     0
  3

 72
    65
 73
     4
 40
1.2
 49
0.5
 74
     4
 75
     0
340
0
 46
1.0
 50
0.0
 44
0.0
 45
0.0
 49
-0.3
 74
     4
 75
     0
340
0
 46
1.0
 50
0.0
 44
0.0
 45
0.0
 49
0.1
 74
     4
 75
     0
340
0
 46
1.0
 50
0.0
 44
0.0
 45
0.0
 49
-0.3
 74
     4
 75
     0
340
0
 46
1.0
 50
0.0
 44
0.0
 45
0.0
  0
LTYPE
  5
57
330
5
100
AcDbSymbolTableRecord
100
AcDbLinetypeTableRecord
  2
NEW_LINE4
 70
     0
  3

 72
    65
 73
     4
 40
1.2
 49
0.5
 74
     4
 75
     0
340
0
 46
1.0
 50
0.0
 44
0.0
 45
0.0
 49
-0.3
 74
     4
 75
     0
340
0
 46
1.0
 50
0.0
 44
0.0
 45
0.0
 49
0.1
 74
     4
 75
     0
340
0
 46
1.0
 50
0.0
 44
0.0
 45
0.0
 49
-0.3
 74
     4
 75
     0
340
0
 46
1.0
 50
0.0
 44
0.0
 45
0.0
  0
LTYPE
  5
59
330
5
100
AcDbSymbolTableRecord
100
AcDbLinetypeTableRecord
  2
NEW_LINE5
 70
     0
  3

 72
    65
 73
     4
 40
1.2
 49
0.5
 74
     4
 75
     0
340
0
 46
1.0
 50
0.0
 44
0.0
 45
0.0
 49
-0.3
 74
     4
 75
     0
340
0
 46
1.0
 50
0.0
 44
0.0
 45
0.0
 49
0.1
 74
     4
 75
     0
340
0
 46
1.0
 50
0.0
 44
0.0
 45
0.0
 49
-0.3
 74
     4
 75
     0
340
0
 46
1.0
 50
0.0
 44
0.0
 45
0.0
  0
LTYPE
  5
5B
330
5
100
AcDbSymbolTableRecord
100
AcDbLinetypeTableRecord
  2
NEW_LINE6
 70
     0
  3

 72
    65
 73
     4
 40
1.2
 49
0.5
 74
     4
 75
     0
340
0
 46
1.0
 50
0.0
 44
0.0
 45
0.0
 49
-0.3
 74
     4
 75
     0
340
0
 46
1.0
 50
0.0
 44
0.0
 45
0.0
 49
0.1
 74
     4
 75
     0
340
0
 46
1.0
 50
0.0
 44
0.0
 45
0.0
 49
-0.3
 74
     4
 75
     0
340
0
 46
1.0
 50
0.0
 44
0.0
 45
0.0
  0
LTYPE
  5
5D
330
5
100
AcDbSymbolTableRecord
100
AcDbLinetypeTableRecord
  2
NEW_LINE7
 70
     0
  3

 72
    65
 73
     4
 40
1.2
 49
0.5
 74
     4
 75
     0
340
0
 46
1.0
 50
0.0
 44
0.0
 45
0.0
 49
-0.3
 74
     4
 75
     0
340
0
 46
1.0
 50
0.0
 44
0.0
 45
0.0
 49
0.1
 74
     4
 75
     0
340
0
 46
1.0
 50
0.0
 44
0.0
 45
0.0
 49
-0.3
 74
     4
 75
     0
340
0
 46
1.0
 50
0.0
 44
0.0
 45
0.0
  0
LTYPE
  5
5F
330
5
100
AcDbSymbolTableRecord
100
AcDbLinetypeTableRecord
  2
NEW_LINE8
 70
     0
  3

 72
    65
 73
     4
 40
1.2
 49
0.5
 74
     4
 75
     0
340
0
 46
1.0
 50
0.0
 44
0.0
 45
0.0
 49
-0.3
 74
     4
 75
     0
340
0
 46
1.0
 50
0.0
 44
0.0
 45
0.0
 49
0.1
 74
     4
 75
     0
340
0
 46
1.0
 50
0.0
 44
0.0
 45
0.0
 49
-0.3
 74
     4
 75
     0
340
0
 46
1.0
 50
0.0
 44
0.0
 45
0.0
  0
LTYPE
  5
68
330
5
100
AcDbSymbolTableRecord
100
AcDbLinetypeTableRecord
  2
NEW_LINE9
 70
     0
  3

 72
    65
 73
     4
 40
1.2
 49
0.5
 74
     4
 75
     0
340
0
 46
1.0
 50
0.0
 44
0.0
 45
0.0
 49
-0.3
 74
     4
 75
     0
340
0
 46
1.0
 50
0.0
 44
0.0
 45
0.0
 49
0.1
 74
     4
 75
     0
340
0
 46
1.0
 50
0.0
 44
0.0
 45
0.0
 49
-0.3
 74
     4
 75
     0
340
0
 46
1.0
 50
0.0
 44
0.0
 45
0.0
  0
LTYPE
  5
6A
330
5
100
AcDbSymbolTableRecord
100
AcDbLinetypeTableRecord
  2
NEW_LINE10
 70
     0
  3

 72
    65
 73
     4
 40
1.2
 49
0.5
 74
     4
 75
     0
340
0
 46
1.0
 50
0.0
 44
0.0
 45
0.0
 49
-0.3
 74
     4
 75
     0
340
0
 46
1.0
 50
0.0
 44
0.0
 45
0.0
 49
0.1
 74
     4
 75
     0
340
0
 46
1.0
 50
0.0
 44
0.0
 45
0.0
 49
-0.3
 74
     4
 75
     0
340
0
 46
1.0
 50
0.0
 44
0.0
 45
0.0
  0
LTYPE
  5
76
330
5
100
AcDbSymbolTableRecord
100
AcDbLinetypeTableRecord
  2
NEW_LINE11
 70
     0
  3

 72
    65
 73
     4
 40
1.2
 49
0.5
 74
     4
 75
     0
340
0
 46
1.0
 50
0.0
 44
0.0
 45
0.0
 49
-0.3
 74
     4
 75
     0
340
0
 46
1.0
 50
0.0
 44
0.0
 45
0.0
 49
0.1
 74
     4
 75
     0
340
0
 46
1.0
 50
0.0
 44
0.0
 45
0.0
 49
-0.3
 74
     4
 75
     0
340
0
 46
1.0
 50
0.0
 44
0.0
 45
0.0
  0
LTYPE
  5
78
330
5
100
AcDbSymbolTableRecord
100
AcDbLinetypeTableRecord
  2
NEW_LINE12
 70
     0
  3

 72
    65
 73
     4
 40
1.2
 49
0.5
 74
     4
 75
     0
340
0
 46
1.0
 50
0.0
 44
0.0
 45
0.0
 49
-0.3
 74
     4
 75
     0
340
0
 46
1.0
 50
0.0
 44
0.0
 45
0.0
 49
0.1
 74
     4
 75
     0
340
0
 46
1.0
 50
0.0
 44
0.0
 45
0.0
 49
-0.3
 74
     4
 75
     0
340
0
 46
1.0
 50
0.0
 44
0.0
 45
0.0
  0
LTYPE
  5
7A
330
5
100
AcDbSymbolTableRecord
100
AcDbLinetypeTableRecord
  2
NEW_LINE13
 70
     0
  3

 72
    65
 73
     4
 40
1.2
 49
0.5
 74
     4
 75
     0
340
0
 46
1.0
 50
0.0
 44
0.0
 45
0.0
 49
-0.3
 74
     4
 75
     0
340
0
 46
1.0
 50
0.0
 44
0.0
 45
0.0
 49
0.1
 74
     4
 75
     0
340
0
 46
1.0
 50
0.0
 44
0.0
 45
0.0
 49
-0.3
 74
     4
 75
     0
340
0
 46
1.0
 50
0.0
 44
0.0
 45
0.0
  0
LTYPE
  5
84
330
5
100
AcDbSymbolTableRecord
100
AcDbLinetypeTableRecord
  2
NEW_LINE14
 70
     0
  3

 72
    65
 73
     4
 40
1.2
 49
0.5
 74
     4
 75
     0
340
0
 46
1.0
 50
0.0
 44
0.0
 45
0.0
 49
-0.3
 74
     4
 75
     0
340
0
 46
1.0
 50
0.0
 44
0.0
 45
0.0
 49
0.1
 74
     4
 75
     0
340
0
 46
1.0
 50
0.0
 44
0.0
 45
0.0
 49
-0.3
 74
     4
 75
     0
340
0
 46
1.0
 50
0.0
 44
0.0
 45
0.0
  0
LTYPE
  5
86
330
5
100
AcDbSymbolTableRecord
100
AcDbLinetypeTableRecord
  2
NEW_LINE15
 70
     0
  3

 72
    65
 73
     4
 40
1.2
 49
0.5
 74
     4
 75
     0
340
0
 46
1.0
 50
0.0
 44
0.0
 45
0.0
 49
-0.3
 74
     4
 75
     0
340
0
 46
1.0
 50
0.0
 44
0.0
 45
0.0
 49
0.1
 74
     4
 75
     0
340
0
 46
1.0
 50
0.0
 44
0.0
 45
0.0
 49
-0.3
 74
     4
 75
     0
340
0
 46
1.0
 50
0.0
 44
0.0
 45
0.0
  0
LTYPE
  5
97
330
5
100
AcDbSymbolTableRecord
100
AcDbLinetypeTableRecord
  2
NEW_LINE16
 70
     0
  3

 72
    65
 73
     4
 40
1.2
 49
0.5
 74
     4
 75
     0
340
0
 46
1.0
 50
0.0
 44
0.0
 45
0.0
 49
-0.3
 74
     4
 75
     0
340
0
 46
1.0
 50
0.0
 44
0.0
 45
0.0
 49
0.1
 74
     4
 75
     0
340
0
 46
1.0
 50
0.0
 44
0.0
 45
0.0
 49
-0.3
 74
     4
 75
     0
340
0
 46
1.0
 50
0.0
 44
0.0
 45
0.0
  0
LTYPE
  5
99
330
5
100
AcDbSymbolTableRecord
100
AcDbLinetypeTableRecord
  2
NEW_LINE17
 70
     0
  3

 72
    65
 73
     4
 40
1.2
 49
0.5
 74
     4
 75
     0
340
0
 46
1.0
 50
0.0
 44
0.0
 45
0.0
 49
-0.3
 74
     4
 75
     0
340
0
 46
1.0
 50
0.0
 44
0.0
 45
0.0
 49
0.1
 74
     4
 75
     0
340
0
 46
1.0
 50
0.0
 44
0.0
 45
0.0
 49
-0.3
 74
     4
 75
     0
340
0
 46
1.0
 50
0.0
 44
0.0
 45
0.0
  0
LTYPE
  5
A6
330
5
100
AcDbSymbolTableRecord
100
AcDbLinetypeTableRecord
  2
NEW_LINE18
 70
     0
  3

 72
    65
 73
     4
 40
1.2
 49
0.5
 74
     4
 75
     0
340
0
 46
1.0
 50
0.0
 44
0.0
 45
0.0
 49
-0.3
 74
     4
 75
     0
340
0
 46
1.0
 50
0.0
 44
0.0
 45
0.0
 49
0.1
 74
     4
 75
     0
340
0
 46
1.0
 50
0.0
 44
0.0
 45
0.0
 49
-0.3
 74
     4
 75
     0
340
0
 46
1.0
 50
0.0
 44
0.0
 45
0.0
  0
LTYPE
  5
A8
330
5
100
AcDbSymbolTableRecord
100
AcDbLinetypeTableRecord
  2
NEW_LINE19
 70
     0
  3

 72
    65
 73
     4
 40
1.2
 49
0.5
 74
     4
 75
     0
340
0
 46
1.0
 50
0.0
 44
0.0
 45
0.0
 49
-0.3
 74
     4
 75
     0
340
0
 46
1.0
 50
0.0
 44
0.0
 45
0.0
 49
0.1
 74
     4
 75
     0
340
0
 46
1.0
 50
0.0
 44
0.0
 45
0.0
 49
-0.3
 74
     4
 75
     0
340
0
 46
1.0
 50
0.0
 44
0.0
 45
0.0
  0
ENDTAB
  0
TABLE
  2
LAYER
  5
2
330
0
100
AcDbSymbolTable
 70
     2
  0
LAYER
  5
10
330
2
100
AcDbSymbolTableRecord
100
AcDbLayerTableRecord
  2
0
 70
     0
 62
     7
  6
CONTINUOUS
  0
LAYER
  5
40
330
2
100
AcDbSymbolTableRecord
100
AcDbLayerTableRecord
  2
DATUMS
 70
     0
 62
     7
  6
CONTINUOUS
  0
ENDTAB
  0
TABLE
  2
STYLE
  5
3
330
0
100
AcDbSymbolTable
 70
     1
  0
STYLE
  5
11
330
3
100
AcDbSymbolTableRecord
100
AcDbTextStyleTableRecord
  2
STANDARD
 70
     0
 40
0.0
 41
1.0
 50
0.0
 71
     0
 42
0.2
  3
txt
  4

  0
ENDTAB
  0
TABLE
  2
VIEW
  5
6
330
0
100
AcDbSymbolTable
 70
     0
  0
ENDTAB
  0
TABLE
  2
UCS
  5
7
330
0
100
AcDbSymbolTable
 70
     0
  0
ENDTAB
  0
TABLE
  2
APPID
  5
9
330
0
100
AcDbSymbolTable
 70
     2
  0
APPID
  5
12
330
9
100
AcDbSymbolTableRecord
100
AcDbRegAppTableRecord
  2
ACAD
 70
     0
  0
APPID
  5
3F
330
9
100
AcDbSymbolTableRecord
100
AcDbRegAppTableRecord
  2
ODA
 70
     0
  0
ENDTAB
  0
TABLE
  2
DIMSTYLE
  5
A
330
0
100
AcDbSymbolTable
 70
     1
  0
DIMSTYLE
105
27
330
A
100
AcDbSymbolTableRecord
100
AcDbDimStyleTableRecord
  2
STANDARD
 70
     0
  3

  4

  5

  6

  7

 40
1.0
 41
0.18
 42
0.0625
 43
0.38
 44
0.18
 45
0.0
 46
0.0
 47
0.0
 48
0.0
140
0.18
141
0.09
142
0.0
143
25.4
144
1.0
145
0.0
146
1.0
147
0.09
 71
     0
 72
     0
 73
     1
 74
     1
 75
     0
 76
     0
 77
     0
 78
     0
170
     0
171
     2
172
     0
173
     0
174
     0
175
     0
176
     0
177
     0
178
     0
270
     2
271
     4
272
     4
273
     2
274
     2
340
11
275
     0
280
     0
281
     0
282
     0
283
     1
284
     0
285
     0
286
     0
287
     3
288
     0
  0
ENDTAB
  0
TABLE
  2
BLOCK_RECORD
  5
1
330
0
100
AcDbSymbolTable
 70
     1
  0
BLOCK_RECORD
  5
1F
330
1
100
AcDbSymbolTableRecord
100
AcDbBlockTableRecord
  2
*MODEL_SPACE
  0
BLOCK_RECORD
  5
1B
330
1
100
AcDbSymbolTableRecord
100
AcDbBlockTableRecord
  2
*PAPER_SPACE
  0
ENDTAB
  0
ENDSEC
  0
SECTION
  2
BLOCKS
  0
BLOCK
  5
20
330
1F
100
AcDbEntity
  8
0
100
AcDbBlockBegin
  2
*MODEL_SPACE
 70
     0
 10
0.0
 20
0.0
 30
0.0
  3
*MODEL_SPACE
  1

  0
ENDBLK
  5
21
330
1F
100
AcDbEntity
  8
0
100
AcDbBlockEnd
  0
BLOCK
  5
1C
330
1B
100
AcDbEntity
 67
     1
  8
0
100
AcDbBlockBegin
  2
*PAPER_SPACE
 70
     0
 10
0.0
 20
0.0
 30
0.0
  3
*PAPER_SPACE
  1

  0
ENDBLK
  5
1D
330
1B
100
AcDbEntity
 67
     1
  8
0
100
AcDbBlockEnd
  0
ENDSEC
  0
SECTION
  2
ENTITIES
  0
SPLINE
  5
41
330
1F
100
AcDbEntity
  8
DATUMS
 62
   250
100
AcDbSpline
210
0.0
220
0.0
230
1.0
 70
    11
 71
     3
 72
    40
 73
    36
 74
     0
 42
0.0000000001
 43
0.0000000001
 40
0.0
 40
0.0
 40
0.0
 40
0.0
 40
0.1
 40
0.1
 40
0.1
 40
0.1
 40
0.2
 40
0.2
 40
0.2
 40
0.2
 40
0.3
 40
0.3
 40
0.3
 40
0.3
 40
0.4
 40
0.4
 40
0.4
 40
0.4
 40
0.5
 40
0.5
 40
0.5
 40
0.5
 40
0.6
 40
0.6
 40
0.6
 40
0.6
 40
0.7
 40
0.7
 40
0.7
 40
0.7
 40
0.8
 40
0.8
 40
0.8
 40
0.8
 40
1.0
 40
1.0
 40
1.0
 40
1.0
 10
-35.5559
 20
12.9315
 30
0.0
 10
-35.5559
 20
12.9315
 30
0.0
 10
-35.5559
 20
12.6836
 30
0.0
 10
-35.5559
 20
12.6836
 30
0.0
 10
-35.5559
 20
12.6836
 30
0.0
 10
-35.5559
 20
12.6836
 30
0.0
 10
-37.1363
 20
12.6836
 30
0.0
 10
-37.1363
 20
12.6836
 30
0.0
 10
-37.1363
 20
12.6836
 30
0.0
 10
-37.0794
 20
12.6238
 30
0.0
 10
-37.0225
 20
12.5458
 30
0.0
 10
-36.9656
 20
12.4489
 30
0.0
 10
-36.9656
 20
12.4489
 30
0.0
 10
-36.9087
 20
12.3515
 30
0.0
 10
-36.8659
 20
12.2645
 30
0.0
 10
-36.8376
 20
12.1873
 30
0.0
 10
-36.8376
 20
12.1873
 30
0.0
 10
-36.8376
 20
12.1873
 30
0.0
 10
-37.0771
 20
12.1873
 30
0.0
 10
-37.0771
 20
12.1873
 30
0.0
 10
-37.0771
 20
12.1873
 30
0.0
 10
-37.1424
 20
12.3261
 30
0.0
 10
-37.2215
 20
12.4475
 30
0.0
 10
-37.3141
 20
12.5514
 30
0.0
 10
-37.3141
 20
12.5514
 30
0.0
 10
-37.4073
 20
12.6549
 30
0.0
 10
-37.4971
 20
12.7287
 30
0.0
 10
-37.5846
 20
12.772
 30
0.0
 10
-37.5846
 20
12.772
 30
0.0
 10
-37.5846
 20
12.772
 30
0.0
 10
-37.5846
 20
12.9315
 30
0.0
 10
-37.5846
 20
12.9315
 30
0.0
 10
-37.5846
 20
12.9315
 30
0.0
 10
-37.5846
 20
12.9315
 30
0.0
 10
-35.5559
 20
12.9315
 30
0.0
 10
-35.5559
 20
12.9315
 30
0.0
  0
SPLINE
  5
42
330
1F
100
AcDbEntity
  8
DATUMS
 62
   250
100
AcDbSpline
210
0.0
220
0.0
230
1.0
 70
    11
 71
     3
 72
    80
 73
    76
 74
     0
 42
0.0000000001
 43
0.0000000001
 40
0.0
 40
0.0
 40
0.0
 40
0.0
 40
0.05
 40
0.05
 40
0.05
 40
0.05
 40
0.1
 40
0.1
 40
0.1
 40
0.1
 40
0.15
 40
0.15
 40
0.15
 40
0.15
 40
0.2
 40
0.2
 40
0.2
 40
0.2
 40
0.25
 40
0.25
 40
0.25
 40
0.25
 40
0.3
 40
0.3
 40
0.3
 40
0.3
 40
0.35
 40
0.35
 40
0.35
 40
0.35
 40
0.4
 40
0.4
 40
0.4
 40
0.4
 40
0.45
 40
0.45
 40
0.45
 40
0.45
 40
0.5
 40
0.5
 40
0.5
 40
0.5
 40
0.55
 40
0.55
 40
0.55
 40
0.55
 40
0.6
 40
0.6
 40
0.6
 40
0.6
 40
0.65
 40
0.65
 40
0.65
 40
0.65
 40
0.7
 40
0.7
 40
0.7
 40
0.7
 40
0.75
 40
0.75
 40
0.75
 40
0.75
 40
0.8
 40
0.8
 40
0.8
 40
0.8
 40
0.85
 40
0.85
 40
0.85
 40
0.85
 40
0.9
 40
0.9
 40
0.9
 40
0.9
 40
1.0
 40
1.0
 40
1.0
 40
1.0
 10
-37.0813
 20
14.8538
 30
0.0
 10
-37.0813
 20
14.8538
 30
0.0
 10
-37.062
 20
14.6074
 30
0.0
 10
-37.062
 20
14.6074
 30
0.0
 10
-37.062
 20
14.6074
 30
0.0
 10
-37.1594
 20
14.5853
 30
0.0
 10
-37.2304
 20
14.5542
 30
0.0
 10
-37.2741
 20
14.5138
 30
0.0
 10
-37.2741
 20
14.5138
 30
0.0
 10
-37.3452
 20
14.4465
 30
0.0
 10
-37.3805
 20
14.3637
 30
0.0
 10
-37.3805
 20
14.2654
 30
0.0
 10
-37.3805
 20
14.2654
 30
0.0
 10
-37.3805
 20
14.1864
 30
0.0
 10
-37.3583
 20
14.1173
 30
0.0
 10
-37.3141
 20
14.0575
 30
0.0
 10
-37.3141
 20
14.0575
 30
0.0
 10
-37.2572
 20
13.9794
 30
0.0
 10
-37.174
 20
13.9178
 30
0.0
 10
-37.0648
 20
13.8727
 30
0.0
 10
-37.0648
 20
13.8727
 30
0.0
 10
-36.9557
 20
13.828
 30
0.0
 10
-36.8
 20
13.8045
 30
0.0
 10
-36.5978
 20
13.8026
 30
0.0
 10
-36.5978
 20
13.8026
 30
0.0
 10
-36.6885
 20
13.8623
 30
0.0
 10
-36.7563
 20
13.9352
 30
0.0
 10
-36.8005
 20
14.0218
 30
0.0
 10
-36.8005
 20
14.0218
 30
0.0
 10
-36.8442
 20
14.1078
 30
0.0
 10
-36.8663
 20
14.1986
 30
0.0
 10
-36.8663
 20
14.2932
 30
0.0
 10
-36.8663
 20
14.2932
 30
0.0
 10
-36.8663
 20
14.4587
 30
0.0
 10
-36.8057
 20
14.5994
 30
0.0
 10
-36.6838
 20
14.7156
 30
0.0
 10
-36.6838
 20
14.7156
 30
0.0
 10
-36.562
 20
14.8317
 30
0.0
 10
-36.4049
 20
14.8901
 30
0.0
 10
-36.2121
 20
14.8901
 30
0.0
 10
-36.2121
 20
14.8901
 30
0.0
 10
-36.0851
 20
14.8901
 30
0.0
 10
-35.9675
 20
14.8623
 30
0.0
 10
-35.8583
 20
14.8077
 30
0.0
 10
-35.8583
 20
14.8077
 30
0.0
 10
-35.7497
 20
14.7532
 30
0.0
 10
-35.666
 20
14.6779
 30
0.0
 10
-35.6081
 20
14.5824
 30
0.0
 10
-35.6081
 20
14.5824
 30
0.0
 10
-35.5503
 20
14.487
 30
0.0
 10
-35.5216
 20
14.3788
 30
0.0
 10
-35.5216
 20
14.2574
 30
0.0
 10
-35.5216
 20
14.2574
 30
0.0
 10
-35.5216
 20
14.0505
 30
0.0
 10
-35.5973
 20
13.8821
 30
0.0
 10
-35.7497
 20
13.7518
 30
0.0
 10
-35.7497
 20
13.7518
 30
0.0
 10
-35.9016
 20
13.621
 30
0.0
 10
-36.1523
 20
13.5561
 30
0.0
 10
-36.5013
 20
13.5561
 30
0.0
 10
-36.5013
 20
13.5561
 30
0.0
 10
-36.8917
 20
13.5561
 30
0.0
 10
-37.1754
 20
13.6281
 30
0.0
 10
-37.3527
 20
13.7725
 30
0.0
 10
-37.3527
 20
13.7725
 30
0.0
 10
-37.507
 20
13.8981
 30
0.0
 10
-37.5846
 20
14.0674
 30
0.0
 10
-37.5846
 20
14.2809
 30
0.0
 10
-37.5846
 20
14.2809
 30
0.0
 10
-37.5846
 20
14.4395
 30
0.0
 10
-37.5399
 20
14.5697
 30
0.0
 10
-37.4505
 20
14.6713
 30
0.0
 10
-37.4505
 20
14.6713
 30
0.0
 10
-37.3616
 20
14.7729
 30
0.0
 10
-37.2384
 20
14.8336
 30
0.0
 10
-37.0813
 20
14.8538
 30
0.0
  0
SPLINE
  5
43
330
1F
100
AcDbEntity
  8
DATUMS
 62
   250
100
AcDbSpline
210
0.0
220
0.0
230
1.0
 70
    11
 71
     3
 72
    40
 73
    36
 74
     0
 42
0.0000000001
 43
0.0000000001
 40
0.0
 40
0.0
 40
0.0
 40
0.0
 40
0.1
 40
0.1
 40
0.1
 40
0.1
 40
0.2
 40
0.2
 40
0.2
 40
0.2
 40
0.3
 40
0.3
 40
0.3
 40
0.3
 40
0.4
 40
0.4
 40
0.4
 40
0.4
 40
0.5
 40
0.5
 40
0.5
 40
0.5
 40
0.6
 40
0.6
 40
0.6
 40
0.6
 40
0.7
 40
0.7
 40
0.7
 40
0.7
 40
0.8
 40
0.8
 40
0.8
 40
0.8
 40
1.0
 40
1.0
 40
1.0
 40
1.0
 10
-36.2107
 20
13.8411
 30
0.0
 10
-36.125
 20
13.8411
 30
0.0
 10
-36.0432
 20
13.8595
 30
0.0
 10
-35.9651
 20
13.8957
 30
0.0
 10
-35.9651
 20
13.8957
 30
0.0
 10
-35.887
 20
13.9319
 30
0.0
 10
-35.8278
 20
13.9827
 30
0.0
 10
-35.7869
 20
14.0476
 30
0.0
 10
-35.7869
 20
14.0476
 30
0.0
 10
-35.7459
 20
14.113
 30
0.0
 10
-35.7252
 20
14.1817
 30
0.0
 10
-35.7252
 20
14.2532
 30
0.0
 10
-35.7252
 20
14.2532
 30
0.0
 10
-35.7252
 20
14.3581
 30
0.0
 10
-35.7676
 20
14.4479
 30
0.0
 10
-35.8522
 20
14.5232
 30
0.0
 10
-35.8522
 20
14.5232
 30
0.0
 10
-35.9369
 20
14.5984
 30
0.0
 10
-36.0517
 20
14.6361
 30
0.0
 10
-36.1965
 20
14.6361
 30
0.0
 10
-36.1965
 20
14.6361
 30
0.0
 10
-36.3362
 20
14.6361
 30
0.0
 10
-36.4463
 20
14.5989
 30
0.0
 10
-36.5267
 20
14.5246
 30
0.0
 10
-36.5267
 20
14.5246
 30
0.0
 10
-36.6072
 20
14.4503
 30
0.0
 10
-36.6472
 20
14.3567
 30
0.0
 10
-36.6472
 20
14.2438
 30
0.0
 10
-36.6472
 20
14.2438
 30
0.0
 10
-36.6472
 20
14.1314
 30
0.0
 10
-36.6072
 20
14.0363
 30
0.0
 10
-36.5267
 20
13.9583
 30
0.0
 10
-36.5267
 20
13.9583
 30
0.0
 10
-36.4463
 20
13.8802
 30
0.0
 10
-36.3409
 20
13.8411
 30
0.0
 10
-36.2107
 20
13.8411
 30
0.0
  0
SPLINE
  5
44
330
1F
100
AcDbEntity
  8
DATUMS
 62
   250
100
AcDbSpline
210
0.0
220
0.0
230
1.0
 70
    11
 71
     3
 72
    52
 73
    48
 74
     0
 42
0.0000000001
 43
0.0000000001
 40
0.0
 40
0.0
 40
0.0
 40
0.0
 40
0.0769230769230769
 40
0.0769230769230769
 40
0.0769230769230769
 40
0.0769230769230769
 40
0.1538461538461539
 40
0.1538461538461539
 40
0.1538461538461539
 40
0.1538461538461539
 40
0.2307692307692308
 40
0.2307692307692308
 40
0.2307692307692308
 40
0.2307692307692308
 40
0.3076923076923077
 40
0.3076923076923077
 40
0.3076923076923077
 40
0.3076923076923077
 40
0.3846153846153846
 40
0.3846153846153846
 40
0.3846153846153846
 40
0.3846153846153846
 40
0.4615384615384616
 40
0.4615384615384616
 40
0.4615384615384616
 40
0.4615384615384616
 40
0.5384615384615384
 40
0.5384615384615384
 40
0.5384615384615384
 40
0.5384615384615384
 40
0.6153846153846154
 40
0.6153846153846154
 40
0.6153846153846154
 40
0.6153846153846154
 40
0.6923076923076923
 40
0.6923076923076923
 40
0.6923076923076923
 40
0.6923076923076923
 40
0.7692307692307693
 40
0.7692307692307693
 40
0.7692307692307693
 40
0.7692307692307693
 40
0.8461538461538461
 40
0.8461538461538461
 40
0.8461538461538461
 40
0.8461538461538461
 40
1.0
 40
1.0
 40
1.0
 40
1.0
 10
-36.5521
 20
15.1365
 30
0.0
 10
-36.7911
 20
15.1365
 30
0.0
 10
-36.9835
 20
15.161
 30
0.0
 10
-37.1288
 20
15.2104
 30
0.0
 10
-37.1288
 20
15.2104
 30
0.0
 10
-37.2746
 20
15.2593
 30
0.0
 10
-37.387
 20
15.3327
 30
0.0
 10
-37.4661
 20
15.4296
 30
0.0
 10
-37.4661
 20
15.4296
 30
0.0
 10
-37.5451
 20
15.5265
 30
0.0
 10
-37.5846
 20
15.6483
 30
0.0
 10
-37.5846
 20
15.795
 30
0.0
 10
-37.5846
 20
15.795
 30
0.0
 10
-37.5846
 20
15.9037
 30
0.0
 10
-37.5625
 20
15.9987
 30
0.0
 10
-37.5187
 20
16.0805
 30
0.0
 10
-37.5187
 20
16.0805
 30
0.0
 10
-37.4755
 20
16.1624
 30
0.0
 10
-37.4124
 20
16.2297
 30
0.0
 10
-37.3301
 20
16.2833
 30
0.0
 10
-37.3301
 20
16.2833
 30
0.0
 10
-37.2478
 20
16.3364
 30
0.0
 10
-37.1476
 20
16.3783
 30
0.0
 10
-37.0296
 20
16.4084
 30
0.0
 10
-37.0296
 20
16.4084
 30
0.0
 10
-36.9115
 20
16.439
 30
0.0
 10
-36.7525
 20
16.454
 30
0.0
 10
-36.5521
 20
16.454
 30
0.0
 10
-36.5521
 20
16.454
 30
0.0
 10
-36.3151
 20
16.454
 30
0.0
 10
-36.1241
 20
16.4296
 30
0.0
 10
-35.9783
 20
16.3811
 30
0.0
 10
-35.9783
 20
16.3811
 30
0.0
 10
-35.8325
 20
16.3322
 30
0.0
 10
-35.7201
 20
16.2593
 30
0.0
 10
-35.6406
 20
16.1624
 30
0.0
 10
-35.6406
 20
16.1624
 30
0.0
 10
-35.5611
 20
16.0655
 30
0.0
 10
-35.5216
 20
15.9432
 30
0.0
 10
-35.5216
 20
15.795
 30
0.0
 10
-35.5216
 20
15.795
 30
0.0
 10
-35.5216
 20
15.6003
 30
0.0
 10
-35.5912
 20
15.4474
 30
0.0
 10
-35.7309
 20
15.3364
 30
0.0
 10
-35.7309
 20
15.3364
 30
0.0
 10
-35.8988
 20
15.2033
 30
0.0
 10
-36.173
 20
15.1365
 30
0.0
 10
-36.5521
 20
15.1365
 30
0.0
  0
SPLINE
  5
45
330
1F
100
AcDbEntity
  8
DATUMS
 62
   250
100
AcDbSpline
210
0.0
220
0.0
230
1.0
 70
    11
 71
     3
 72
    36
 73
    32
 74
     0
 42
0.0000000001
 43
0.0000000001
 40
0.0
 40
0.0
 40
0.0
 40
0.0
 40
0.1111111111111111
 40
0.1111111111111111
 40
0.1111111111111111
 40
0.1111111111111111
 40
0.2222222222222222
 40
0.2222222222222222
 40
0.2222222222222222
 40
0.2222222222222222
 40
0.3333333333333333
 40
0.3333333333333333
 40
0.3333333333333333
 40
0.3333333333333333
 40
0.4444444444444444
 40
0.4444444444444444
 40
0.4444444444444444
 40
0.4444444444444444
 40
0.5555555555555556
 40
0.5555555555555556
 40
0.5555555555555556
 40
0.5555555555555556
 40
0.6666666666666666
 40
0.6666666666666666
 40
0.6666666666666666
 40
0.6666666666666666
 40
0.7777777777777778
 40
0.7777777777777778
 40
0.7777777777777778
 40
0.7777777777777778
 40
1.0
 40
1.0
 40
1.0
 40
1.0
 10
-36.5521
 20
15.3915
 30
0.0
 10
-36.2205
 20
15.3915
 30
0.0
 10
-35.9999
 20
15.4305
 30
0.0
 10
-35.8899
 20
15.5081
 30
0.0
 10
-35.8899
 20
15.5081
 30
0.0
 10
-35.7803
 20
15.5857
 30
0.0
 10
-35.7252
 20
15.6812
 30
0.0
 10
-35.7252
 20
15.795
 30
0.0
 10
-35.7252
 20
15.795
 30
0.0
 10
-35.7252
 20
15.9093
 30
0.0
 10
-35.7807
 20
16.0048
 30
0.0
 10
-35.8908
 20
16.0824
 30
0.0
 10
-35.8908
 20
16.0824
 30
0.0
 10
-36.0009
 20
16.16
 30
0.0
 10
-36.2215
 20
16.1991
 30
0.0
 10
-36.5521
 20
16.1991
 30
0.0
 10
-36.5521
 20
16.1991
 30
0.0
 10
-36.8847
 20
16.1991
 30
0.0
 10
-37.1058
 20
16.16
 30
0.0
 10
-37.2149
 20
16.0824
 30
0.0
 10
-37.2149
 20
16.0824
 30
0.0
 10
-37.3245
 20
16.0048
 30
0.0
 10
-37.379
 20
15.9084
 30
0.0
 10
-37.379
 20
15.7927
 30
0.0
 10
-37.379
 20
15.7927
 30
0.0
 10
-37.379
 20
15.6784
 30
0.0
 10
-37.3306
 20
15.5876
 30
0.0
 10
-37.2342
 20
15.5194
 30
0.0
 10
-37.2342
 20
15.5194
 30
0.0
 10
-37.1114
 20
15.4343
 30
0.0
 10
-36.8837
 20
15.3915
 30
0.0
 10
-36.5521
 20
15.3915
 30
0.0
  0
SPLINE
  5
46
330
1F
100
AcDbEntity
  8
DATUMS
 62
   250
100
AcDbSpline
210
0.0
220
0.0
230
1.0
 70
    11
 71
     3
 72
    20
 73
    16
 74
     0
 42
0.0000000001
 43
0.0000000001
 40
0.0
 40
0.0
 40
0.0
 40
0.0
 40
0.2
 40
0.2
 40
0.2
 40
0.2
 40
0.4
 40
0.4
 40
0.4
 40
0.4
 40
0.6
 40
0.6
 40
0.6
 40
0.6
 40
1.0
 40
1.0
 40
1.0
 40
1.0
 10
-35.1158
 20
34.0884
 30
0.0
 10
-35.1158
 20
34.0884
 30
0.0
 10
-35.5538
 20
31.0884
 30
0.0
 10
-35.5538
 20
31.0884
 30
0.0
 10
-35.5538
 20
31.0884
 30
0.0
 10
-35.5538
 20
31.0884
 30
0.0
 10
-34.5869
 20
31.0884
 30
0.0
 10
-34.5869
 20
31.0884
 30
0.0
 10
-34.5869
 20
31.0884
 30
0.0
 10
-34.5869
 20
31.0884
 30
0.0
 10
-35.1145
 20
34.0884
 30
0.0
 10
-35.1145
 20
34.0884
 30
0.0
 10
-35.1145
 20
34.0884
 30
0.0
 10
-35.1145
 20
34.0884
 30
0.0
 10
-35.1158
 20
34.0884
 30
0.0
 10
-35.1158
 20
34.0884
 30
0.0
  0
SPLINE
  5
47
330
1F
100
AcDbEntity
  8
DATUMS
 62
   250
100
AcDbSpline
210
0.0
220
0.0
230
1.0
 70
    11
 71
     3
 72
    20
 73
    16
 74
     0
 42
0.0000000001
 43
0.0000000001
 40
0.0
 40
0.0
 40
0.0
 40
0.0
 40
0.2
 40
0.2
 40
0.2
 40
0.2
 40
0.4
 40
0.4
 40
0.4
 40
0.4
 40
0.6
 40
0.6
 40
0.6
 40
0.6
 40
1.0
 40
1.0
 40
1.0
 40
1.0
 10
-35.0414
 20
-6.264
 30
0.0
 10
-35.0414
 20
-6.264
 30
0.0
 10
-34.6034
 20
-3.2639
 30
0.0
 10
-34.6034
 20
-3.2639
 30
0.0
 10
-34.6034
 20
-3.2639
 30
0.0
 10
-34.6034
 20
-3.2639
 30
0.0
 10
-35.5703
 20
-3.2639
 30
0.0
 10
-35.5703
 20
-3.2639
 30
0.0
 10
-35.5703
 20
-3.2639
 30
0.0
 10
-35.5703
 20
-3.2639
 30
0.0
 10
-35.0427
 20
-6.264
 30
0.0
 10
-35.0427
 20
-6.264
 30
0.0
 10
-35.0427
 20
-6.264
 30
0.0
 10
-35.0427
 20
-6.264
 30
0.0
 10
-35.0414
 20
-6.264
 30
0.0
 10
-35.0414
 20
-6.264
 30
0.0
  0
SPLINE
  5
48
330
1F
100
AcDbEntity
  8
DATUMS
 62
   250
100
AcDbSpline
210
0.0
220
0.0
230
1.0
 70
    24
 71
     3
 72
     8
 73
     4
 74
     0
 42
0.0000000001
 43
0.0000000001
 40
0.0
 40
0.0
 40
0.0
 40
0.0
 40
1.0
 40
1.0
 40
1.0
 40
1.0
 10
-35.0908
 20
-5.5762
 30
0.0
 10
-35.0908
 20
-5.5762
 30
0.0
 10
-35.0908
 20
33.8151
 30
0.0
 10
-35.0908
 20
33.8151
 30
0.0
  0
SPLINE
  5
49
330
1F
100
AcDbEntity
  8
DATUMS
  6
NEW_LINE1
 62
   250
100
AcDbSpline
210
0.0
220
0.0
230
1.0
 70
    24
 71
     3
 72
     8
 73
     4
 74
     0
 42
0.0000000001
 43
0.0000000001
 40
0.0
 40
0.0
 40
0.0
 40
0.0
 40
1.0
 40
1.0
 40
1.0
 40
1.0
 10
-35.7103
 20
34.172
 30
0.0
 10
-35.7103
 20
34.172
 30
0.0
 10
-30.6999
 20
34.172
 30
0.0
 10
-30.6999
 20
34.172
 30
0.0
  0
SPLINE
  5
4B
330
1F
100
AcDbEntity
  8
DATUMS
  6
NEW_LINE2
 62
   250
100
AcDbSpline
210
0.0
220
0.0
230
1.0
 70
    24
 71
     3
 72
     8
 73
     4
 74
     0
 42
0.0000000001
 43
0.0000000001
 40
0.0
 40
0.0
 40
0.0
 40
0.0
 40
1.0
 40
1.0
 40
1.0
 40
1.0
 10
-35.5618
 20
-6.3442
 30
0.0
 10
-35.5618
 20
-6.3442
 30
0.0
 10
-30.7658
 20
-6.3442
 30
0.0
 10
-30.7658
 20
-6.3442
 30
0.0
  0
SPLINE
  5
4D
330
1F
100
AcDbEntity
  8
DATUMS
 62
   250
100
AcDbSpline
210
0.0
220
0.0
230
1.0
 70
    11
 71
     3
 72
    40
 73
    36
 74
     0
 42
0.0000000001
 43
0.0000000001
 40
0.0
 40
0.0
 40
0.0
 40
0.0
 40
0.1
 40
0.1
 40
0.1
 40
0.1
 40
0.2
 40
0.2
 40
0.2
 40
0.2
 40
0.3
 40
0.3
 40
0.3
 40
0.3
 40
0.4
 40
0.4
 40
0.4
 40
0.4
 40
0.5
 40
0.5
 40
0.5
 40
0.5
 40
0.6
 40
0.6
 40
0.6
 40
0.6
 40
0.7
 40
0.7
 40
0.7
 40
0.7
 40
0.8
 40
0.8
 40
0.8
 40
0.8
 40
1.0
 40
1.0
 40
1.0
 40
1.0
 10
-12.5131
 20
42.8824
 30
0.0
 10
-12.5131
 20
42.8824
 30
0.0
 10
-12.761
 20
42.8824
 30
0.0
 10
-12.761
 20
42.8824
 30
0.0
 10
-12.761
 20
42.8824
 30
0.0
 10
-12.761
 20
42.8824
 30
0.0
 10
-12.761
 20
44.4628
 30
0.0
 10
-12.761
 20
44.4628
 30
0.0
 10
-12.761
 20
44.4628
 30
0.0
 10
-12.8208
 20
44.4059
 30
0.0
 10
-12.8988
 20
44.349
 30
0.0
 10
-12.9957
 20
44.2921
 30
0.0
 10
-12.9957
 20
44.2921
 30
0.0
 10
-13.0931
 20
44.2352
 30
0.0
 10
-13.1801
 20
44.1924
 30
0.0
 10
-13.2573
 20
44.1641
 30
0.0
 10
-13.2573
 20
44.1641
 30
0.0
 10
-13.2573
 20
44.1641
 30
0.0
 10
-13.2573
 20
44.4036
 30
0.0
 10
-13.2573
 20
44.4036
 30
0.0
 10
-13.2573
 20
44.4036
 30
0.0
 10
-13.1185
 20
44.4689
 30
0.0
 10
-12.9971
 20
44.548
 30
0.0
 10
-12.8932
 20
44.6406
 30
0.0
 10
-12.8932
 20
44.6406
 30
0.0
 10
-12.7897
 20
44.7338
 30
0.0
 10
-12.7159
 20
44.8236
 30
0.0
 10
-12.6726
 20
44.9111
 30
0.0
 10
-12.6726
 20
44.9111
 30
0.0
 10
-12.6726
 20
44.9111
 30
0.0
 10
-12.5131
 20
44.9111
 30
0.0
 10
-12.5131
 20
44.9111
 30
0.0
 10
-12.5131
 20
44.9111
 30
0.0
 10
-12.5131
 20
44.9111
 30
0.0
 10
-12.5131
 20
42.8824
 30
0.0
 10
-12.5131
 20
42.8824
 30
0.0
  0
SPLINE
  5
4E
330
1F
100
AcDbEntity
  8
DATUMS
 62
   250
100
AcDbSpline
210
0.0
220
0.0
230
1.0
 70
    11
 71
     3
 72
    92
 73
    88
 74
     0
 42
0.0000000001
 43
0.0000000001
 40
0.0
 40
0.0
 40
0.0
 40
0.0
 40
0.0434782608695652
 40
0.0434782608695652
 40
0.0434782608695652
 40
0.0434782608695652
 40
0.0869565217391304
 40
0.0869565217391304
 40
0.0869565217391304
 40
0.0869565217391304
 40
0.1304347826086956
 40
0.1304347826086956
 40
0.1304347826086956
 40
0.1304347826086956
 40
0.1739130434782609
 40
0.1739130434782609
 40
0.1739130434782609
 40
0.1739130434782609
 40
0.2173913043478261
 40
0.2173913043478261
 40
0.2173913043478261
 40
0.2173913043478261
 40
0.2608695652173913
 40
0.2608695652173913
 40
0.2608695652173913
 40
0.2608695652173913
 40
0.3043478260869565
 40
0.3043478260869565
 40
0.3043478260869565
 40
0.3043478260869565
 40
0.3478260869565217
 40
0.3478260869565217
 40
0.3478260869565217
 40
0.3478260869565217
 40
0.391304347826087
 40
0.391304347826087
 40
0.391304347826087
 40
0.391304347826087
 40
0.4347826086956522
 40
0.4347826086956522
 40
0.4347826086956522
 40
0.4347826086956522
 40
0.4782608695652174
 40
0.4782608695652174
 40
0.4782608695652174
 40
0.4782608695652174
 40
0.5217391304347826
 40
0.5217391304347826
 40
0.5217391304347826
 40
0.5217391304347826
 40
0.5652173913043478
 40
0.5652173913043478
 40
0.5652173913043478
 40
0.5652173913043478
 40
0.6086956521739131
 40
0.6086956521739131
 40
0.6086956521739131
 40
0.6086956521739131
 40
0.6521739130434783
 40
0.6521739130434783
 40
0.6521739130434783
 40
0.6521739130434783
 40
0.6956521739130435
 40
0.6956521739130435
 40
0.6956521739130435
 40
0.6956521739130435
 40
0.7391304347826086
 40
0.7391304347826086
 40
0.7391304347826086
 40
0.7391304347826086
 40
0.782608695652174
 40
0.782608695652174
 40
0.782608695652174
 40
0.782608695652174
 40
0.8260869565217391
 40
0.8260869565217391
 40
0.8260869565217391
 40
0.8260869565217391
 40
0.8695652173913043
 40
0.8695652173913043
 40
0.8695652173913043
 40
0.8695652173913043
 40
0.9130434782608695
 40
0.9130434782608695
 40
0.9130434782608695
 40
0.9130434782608695
 40
1.0
 40
1.0
 40
1.0
 40
1.0
 10
-11.8777
 20
43.4116
 30
0.0
 10
-11.8777
 20
43.4116
 30
0.0
 10
-11.6171
 20
43.4337
 30
0.0
 10
-11.6171
 20
43.4337
 30
0.0
 10
-11.6171
 20
43.4337
 30
0.0
 10
-11.5978
 20
43.3067
 30
0.0
 10
-11.5531
 20
43.2117
 30
0.0
 10
-11.483
 20
43.1477
 30
0.0
 10
-11.483
 20
43.1477
 30
0.0
 10
-11.4125
 20
43.0837
 30
0.0
 10
-11.3278
 20
43.0517
 30
0.0
 10
-11.2286
 20
43.0517
 30
0.0
 10
-11.2286
 20
43.0517
 30
0.0
 10
-11.1091
 20
43.0517
 30
0.0
 10
-11.008
 20
43.0969
 30
0.0
 10
-10.9257
 20
43.1867
 30
0.0
 10
-10.9257
 20
43.1867
 30
0.0
 10
-10.8429
 20
43.277
 30
0.0
 10
-10.8015
 20
43.3965
 30
0.0
 10
-10.8015
 20
43.5451
 30
0.0
 10
-10.8015
 20
43.5451
 30
0.0
 10
-10.8015
 20
43.6867
 30
0.0
 10
-10.841
 20
43.7982
 30
0.0
 10
-10.9205
 20
43.88
 30
0.0
 10
-10.9205
 20
43.88
 30
0.0
 10
-11.0
 20
43.9619
 30
0.0
 10
-11.1039
 20
44.0028
 30
0.0
 10
-11.2328
 20
44.0028
 30
0.0
 10
-11.2328
 20
44.0028
 30
0.0
 10
-11.3128
 20
44.0028
 30
0.0
 10
-11.3847
 20
43.9845
 30
0.0
 10
-11.4492
 20
43.9483
 30
0.0
 10
-11.4492
 20
43.9483
 30
0.0
 10
-11.5136
 20
43.912
 30
0.0
 10
-11.5639
 20
43.865
 30
0.0
 10
-11.6006
 20
43.8071
 30
0.0
 10
-11.6006
 20
43.8071
 30
0.0
 10
-11.6006
 20
43.8071
 30
0.0
 10
-11.8335
 20
43.8372
 30
0.0
 10
-11.8335
 20
43.8372
 30
0.0
 10
-11.8335
 20
43.8372
 30
0.0
 10
-11.8335
 20
43.8372
 30
0.0
 10
-11.6378
 20
44.8749
 30
0.0
 10
-11.6378
 20
44.8749
 30
0.0
 10
-11.6378
 20
44.8749
 30
0.0
 10
-11.6378
 20
44.8749
 30
0.0
 10
-10.6331
 20
44.8749
 30
0.0
 10
-10.6331
 20
44.8749
 30
0.0
 10
-10.6331
 20
44.8749
 30
0.0
 10
-10.6331
 20
44.8749
 30
0.0
 10
-10.6331
 20
44.6378
 30
0.0
 10
-10.6331
 20
44.6378
 30
0.0
 10
-10.6331
 20
44.6378
 30
0.0
 10
-10.6331
 20
44.6378
 30
0.0
 10
-11.4393
 20
44.6378
 30
0.0
 10
-11.4393
 20
44.6378
 30
0.0
 10
-11.4393
 20
44.6378
 30
0.0
 10
-11.4393
 20
44.6378
 30
0.0
 10
-11.5484
 20
44.095
 30
0.0
 10
-11.5484
 20
44.095
 30
0.0
 10
-11.5484
 20
44.095
 30
0.0
 10
-11.4271
 20
44.1797
 30
0.0
 10
-11.2996
 20
44.222
 30
0.0
 10
-11.1665
 20
44.222
 30
0.0
 10
-11.1665
 20
44.222
 30
0.0
 10
-10.9901
 20
44.222
 30
0.0
 10
-10.8415
 20
44.1609
 30
0.0
 10
-10.7201
 20
44.0386
 30
0.0
 10
-10.7201
 20
44.0386
 30
0.0
 10
-10.5988
 20
43.9163
 30
0.0
 10
-10.5381
 20
43.7592
 30
0.0
 10
-10.5381
 20
43.5673
 30
0.0
 10
-10.5381
 20
43.5673
 30
0.0
 10
-10.5381
 20
43.3843
 30
0.0
 10
-10.5917
 20
43.2262
 30
0.0
 10
-10.698
 20
43.0931
 30
0.0
 10
-10.698
 20
43.0931
 30
0.0
 10
-10.8278
 20
42.9299
 30
0.0
 10
-11.0047
 20
42.8481
 30
0.0
 10
-11.2286
 20
42.8481
 30
0.0
 10
-11.2286
 20
42.8481
 30
0.0
 10
-11.4125
 20
42.8481
 30
0.0
 10
-11.5625
 20
42.8993
 30
0.0
 10
-11.6787
 20
43.0023
 30
0.0
 10
-11.6787
 20
43.0023
 30
0.0
 10
-11.7949
 20
43.1054
 30
0.0
 10
-11.8612
 20
43.2418
 30
0.0
 10
-11.8777
 20
43.4116
 30
0.0
  0
SPLINE
  5
4F
330
1F
100
AcDbEntity
  8
DATUMS
 62
   250
100
AcDbSpline
210
0.0
220
0.0
230
1.0
 70
    11
 71
     3
 72
    52
 73
    48
 74
     0
 42
0.0000000001
 43
0.0000000001
 40
0.0
 40
0.0
 40
0.0
 40
0.0
 40
0.0769230769230769
 40
0.0769230769230769
 40
0.0769230769230769
 40
0.0769230769230769
 40
0.1538461538461539
 40
0.1538461538461539
 40
0.1538461538461539
 40
0.1538461538461539
 40
0.2307692307692308
 40
0.2307692307692308
 40
0.2307692307692308
 40
0.2307692307692308
 40
0.3076923076923077
 40
0.3076923076923077
 40
0.3076923076923077
 40
0.3076923076923077
 40
0.3846153846153846
 40
0.3846153846153846
 40
0.3846153846153846
 40
0.3846153846153846
 40
0.4615384615384616
 40
0.4615384615384616
 40
0.4615384615384616
 40
0.4615384615384616
 40
0.5384615384615384
 40
0.5384615384615384
 40
0.5384615384615384
 40
0.5384615384615384
 40
0.6153846153846154
 40
0.6153846153846154
 40
0.6153846153846154
 40
0.6153846153846154
 40
0.6923076923076923
 40
0.6923076923076923
 40
0.6923076923076923
 40
0.6923076923076923
 40
0.7692307692307693
 40
0.7692307692307693
 40
0.7692307692307693
 40
0.7692307692307693
 40
0.8461538461538461
 40
0.8461538461538461
 40
0.8461538461538461
 40
0.8461538461538461
 40
1.0
 40
1.0
 40
1.0
 40
1.0
 10
-10.3081
 20
43.8786
 30
0.0
 10
-10.3081
 20
44.1176
 30
0.0
 10
-10.2836
 20
44.31
 30
0.0
 10
-10.2342
 20
44.4553
 30
0.0
 10
-10.2342
 20
44.4553
 30
0.0
 10
-10.1853
 20
44.6011
 30
0.0
 10
-10.1119
 20
44.7135
 30
0.0
 10
-10.015
 20
44.7926
 30
0.0
 10
-10.015
 20
44.7926
 30
0.0
 10
-9.9181
 20
44.8716
 30
0.0
 10
-9.7963
 20
44.9111
 30
0.0
 10
-9.6496
 20
44.9111
 30
0.0
 10
-9.6496
 20
44.9111
 30
0.0
 10
-9.5409
 20
44.9111
 30
0.0
 10
-9.4459
 20
44.889
 30
0.0
 10
-9.3641
 20
44.8452
 30
0.0
 10
-9.3641
 20
44.8452
 30
0.0
 10
-9.2822
 20
44.802
 30
0.0
 10
-9.2149
 20
44.7389
 30
0.0
 10
-9.1613
 20
44.6566
 30
0.0
 10
-9.1613
 20
44.6566
 30
0.0
 10
-9.1082
 20
44.5743
 30
0.0
 10
-9.0663
 20
44.4741
 30
0.0
 10
-9.0362
 20
44.3561
 30
0.0
 10
-9.0362
 20
44.3561
 30
0.0
 10
-9.0056
 20
44.238
 30
0.0
 10
-8.9906
 20
44.079
 30
0.0
 10
-8.9906
 20
43.8786
 30
0.0
 10
-8.9906
 20
43.8786
 30
0.0
 10
-8.9906
 20
43.6416
 30
0.0
 10
-9.015
 20
43.4506
 30
0.0
 10
-9.0635
 20
43.3048
 30
0.0
 10
-9.0635
 20
43.3048
 30
0.0
 10
-9.1124
 20
43.159
 30
0.0
 10
-9.1853
 20
43.0466
 30
0.0
 10
-9.2822
 20
42.9671
 30
0.0
 10
-9.2822
 20
42.9671
 30
0.0
 10
-9.3791
 20
42.8876
 30
0.0
 10
-9.5014
 20
42.8481
 30
0.0
 10
-9.6496
 20
42.8481
 30
0.0
 10
-9.6496
 20
42.8481
 30
0.0
 10
-9.8443
 20
42.8481
 30
0.0
 10
-9.9972
 20
42.9177
 30
0.0
 10
-10.1082
 20
43.0574
 30
0.0
 10
-10.1082
 20
43.0574
 30
0.0
 10
-10.2413
 20
43.2253
 30
0.0
 10
-10.3081
 20
43.4995
 30
0.0
 10
-10.3081
 20
43.8786
 30
0.0
  0
SPLINE
  5
50
330
1F
100
AcDbEntity
  8
DATUMS
 62
   250
100
AcDbSpline
210
0.0
220
0.0
230
1.0
 70
    11
 71
     3
 72
    36
 73
    32
 74
     0
 42
0.0000000001
 43
0.0000000001
 40
0.0
 40
0.0
 40
0.0
 40
0.0
 40
0.1111111111111111
 40
0.1111111111111111
 40
0.1111111111111111
 40
0.1111111111111111
 40
0.2222222222222222
 40
0.2222222222222222
 40
0.2222222222222222
 40
0.2222222222222222
 40
0.3333333333333333
 40
0.3333333333333333
 40
0.3333333333333333
 40
0.3333333333333333
 40
0.4444444444444444
 40
0.4444444444444444
 40
0.4444444444444444
 40
0.4444444444444444
 40
0.5555555555555556
 40
0.5555555555555556
 40
0.5555555555555556
 40
0.5555555555555556
 40
0.6666666666666666
 40
0.6666666666666666
 40
0.6666666666666666
 40
0.6666666666666666
 40
0.7777777777777778
 40
0.7777777777777778
 40
0.7777777777777778
 40
0.7777777777777778
 40
1.0
 40
1.0
 40
1.0
 40
1.0
 10
-10.0531
 20
43.8786
 30
0.0
 10
-10.0531
 20
43.547
 30
0.0
 10
-10.0141
 20
43.3264
 30
0.0
 10
-9.9365
 20
43.2164
 30
0.0
 10
-9.9365
 20
43.2164
 30
0.0
 10
-9.8589
 20
43.1068
 30
0.0
 10
-9.7634
 20
43.0517
 30
0.0
 10
-9.6496
 20
43.0517
 30
0.0
 10
-9.6496
 20
43.0517
 30
0.0
 10
-9.5353
 20
43.0517
 30
0.0
 10
-9.4398
 20
43.1072
 30
0.0
 10
-9.3622
 20
43.2173
 30
0.0
 10
-9.3622
 20
43.2173
 30
0.0
 10
-9.2846
 20
43.3274
 30
0.0
 10
-9.2455
 20
43.548
 30
0.0
 10
-9.2455
 20
43.8786
 30
0.0
 10
-9.2455
 20
43.8786
 30
0.0
 10
-9.2455
 20
44.2112
 30
0.0
 10
-9.2846
 20
44.4323
 30
0.0
 10
-9.3622
 20
44.5414
 30
0.0
 10
-9.3622
 20
44.5414
 30
0.0
 10
-9.4398
 20
44.651
 30
0.0
 10
-9.5362
 20
44.7055
 30
0.0
 10
-9.6519
 20
44.7055
 30
0.0
 10
-9.6519
 20
44.7055
 30
0.0
 10
-9.7662
 20
44.7055
 30
0.0
 10
-9.857
 20
44.6571
 30
0.0
 10
-9.9252
 20
44.5607
 30
0.0
 10
-9.9252
 20
44.5607
 30
0.0
 10
-10.0103
 20
44.4379
 30
0.0
 10
-10.0531
 20
44.2102
 30
0.0
 10
-10.0531
 20
43.8786
 30
0.0
  0
SPLINE
  5
51
330
1F
100
AcDbEntity
  8
DATUMS
 62
   250
100
AcDbSpline
210
0.0
220
0.0
230
1.0
 70
    11
 71
     3
 72
    20
 73
    16
 74
     0
 42
0.0000000001
 43
0.0000000001
 40
0.0
 40
0.0
 40
0.0
 40
0.0
 40
0.2
 40
0.2
 40
0.2
 40
0.2
 40
0.4
 40
0.4
 40
0.4
 40
0.4
 40
0.6
 40
0.6
 40
0.6
 40
0.6
 40
1.0
 40
1.0
 40
1.0
 40
1.0
 10
7.2492
 20
42.5413
 30
0.0
 10
7.2492
 20
42.5413
 30
0.0
 10
4.2492
 20
42.9794
 30
0.0
 10
4.2492
 20
42.9794
 30
0.0
 10
4.2492
 20
42.9794
 30
0.0
 10
4.2492
 20
42.9794
 30
0.0
 10
4.2492
 20
42.0125
 30
0.0
 10
4.2492
 20
42.0125
 30
0.0
 10
4.2492
 20
42.0125
 30
0.0
 10
4.2492
 20
42.0125
 30
0.0
 10
7.2492
 20
42.54
 30
0.0
 10
7.2492
 20
42.54
 30
0.0
 10
7.2492
 20
42.54
 30
0.0
 10
7.2492
 20
42.54
 30
0.0
 10
7.2492
 20
42.5413
 30
0.0
 10
7.2492
 20
42.5413
 30
0.0
  0
SPLINE
  5
52
330
1F
100
AcDbEntity
  8
DATUMS
 62
   250
100
AcDbSpline
210
0.0
220
0.0
230
1.0
 70
    11
 71
     3
 72
    20
 73
    16
 74
     0
 42
0.0000000001
 43
0.0000000001
 40
0.0
 40
0.0
 40
0.0
 40
0.0
 40
0.2
 40
0.2
 40
0.2
 40
0.2
 40
0.4
 40
0.4
 40
0.4
 40
0.4
 40
0.6
 40
0.6
 40
0.6
 40
0.6
 40
1.0
 40
1.0
 40
1.0
 40
1.0
 10
-30.1484
 20
42.5048
 30
0.0
 10
-30.1484
 20
42.5048
 30
0.0
 10
-27.1483
 20
42.0668
 30
0.0
 10
-27.1483
 20
42.0668
 30
0.0
 10
-27.1483
 20
42.0668
 30
0.0
 10
-27.1483
 20
42.0668
 30
0.0
 10
-27.1483
 20
43.0337
 30
0.0
 10
-27.1483
 20
43.0337
 30
0.0
 10
-27.1483
 20
43.0337
 30
0.0
 10
-27.1483
 20
43.0337
 30
0.0
 10
-30.1484
 20
42.5062
 30
0.0
 10
-30.1484
 20
42.5062
 30
0.0
 10
-30.1484
 20
42.5062
 30
0.0
 10
-30.1484
 20
42.5062
 30
0.0
 10
-30.1484
 20
42.5048
 30
0.0
 10
-30.1484
 20
42.5048
 30
0.0
  0
SPLINE
  5
53
330
1F
100
AcDbEntity
  8
DATUMS
 62
   250
100
AcDbSpline
210
0.0
220
0.0
230
1.0
 70
    24
 71
     3
 72
     8
 73
     4
 74
     0
 42
0.0000000001
 43
0.0000000001
 40
0.0
 40
0.0
 40
0.0
 40
0.0
 40
1.0
 40
1.0
 40
1.0
 40
1.0
 10
-30.1924
 20
42.5277
 30
0.0
 10
-30.1924
 20
42.5277
 30
0.0
 10
7.1577
 20
42.5277
 30
0.0
 10
7.1577
 20
42.5277
 30
0.0
  0
SPLINE
  5
54
330
1F
100
AcDbEntity
  8
DATUMS
  6
NEW_LINE3
 62
   250
100
AcDbSpline
210
0.0
220
0.0
230
1.0
 70
    24
 71
     3
 72
     8
 73
     4
 74
     0
 42
0.0000000001
 43
0.0000000001
 40
0.0
 40
0.0
 40
0.0
 40
0.0
 40
1.0
 40
1.0
 40
1.0
 40
1.0
 10
-30.3807
 20
43.2819
 30
0.0
 10
-30.3807
 20
43.2819
 30
0.0
 10
-30.3807
 20
35.029
 30
0.0
 10
-30.3807
 20
35.029
 30
0.0
  0
SPLINE
  5
56
330
1F
100
AcDbEntity
  8
DATUMS
  6
NEW_LINE4
 62
   250
100
AcDbSpline
210
0.0
220
0.0
230
1.0
 70
    24
 71
     3
 72
     8
 73
     4
 74
     0
 42
0.0000000001
 43
0.0000000001
 40
0.0
 40
0.0
 40
0.0
 40
0.0
 40
1.0
 40
1.0
 40
1.0
 40
1.0
 10
-11.5733
 20
37.2406
 30
0.0
 10
-11.5733
 20
37.2406
 30
0.0
 10
-11.5733
 20
-7.2723
 30
0.0
 10
-11.5733
 20
-7.2723
 30
0.0
  0
SPLINE
  5
58
330
1F
100
AcDbEntity
  8
DATUMS
  6
NEW_LINE5
 62
   250
100
AcDbSpline
210
0.0
220
0.0
230
1.0
 70
    24
 71
     3
 72
     8
 73
     4
 74
     0
 42
0.0000000001
 43
0.0000000001
 40
0.0
 40
0.0
 40
0.0
 40
0.0
 40
1.0
 40
1.0
 40
1.0
 40
1.0
 10
22.868
 20
37.1449
 30
0.0
 10
22.868
 20
37.1449
 30
0.0
 10
22.868
 20
-4.9242
 30
0.0
 10
22.868
 20
-4.9242
 30
0.0
  0
SPLINE
  5
5A
330
1F
100
AcDbEntity
  8
DATUMS
  6
NEW_LINE6
 62
   250
100
AcDbSpline
210
0.0
220
0.0
230
1.0
 70
    24
 71
     3
 72
     8
 73
     4
 74
     0
 42
0.0000000001
 43
0.0000000001
 40
0.0
 40
0.0
 40
0.0
 40
0.0
 40
1.0
 40
1.0
 40
1.0
 40
1.0
 10
7.369
 20
42.8012
 30
0.0
 10
7.369
 20
42.8012
 30
0.0
 10
7.369
 20
34.6322
 30
0.0
 10
7.369
 20
34.6322
 30
0.0
  0
SPLINE
  5
5C
330
1F
100
AcDbEntity
  8
DATUMS
  6
NEW_LINE7
 62
   250
100
AcDbSpline
210
0.0
220
0.0
230
1.0
 70
    24
 71
     3
 72
     8
 73
     4
 74
     0
 42
0.0000000001
 43
0.0000000001
 40
0.0
 40
0.0
 40
0.0
 40
0.0
 40
1.0
 40
1.0
 40
1.0
 40
1.0
 10
-11.6174
 20
-22.4115
 30
0.0
 10
-11.6174
 20
-22.4115
 30
0.0
 10
-11.6174
 20
-29.9963
 30
0.0
 10
-11.6174
 20
-29.9963
 30
0.0
  0
SPLINE
  5
5E
330
1F
100
AcDbEntity
  8
DATUMS
  6
NEW_LINE8
 62
   250
100
AcDbSpline
210
0.0
220
0.0
230
1.0
 70
    24
 71
     3
 72
     8
 73
     4
 74
     0
 42
0.0000000001
 43
0.0000000001
 40
0.0
 40
0.0
 40
0.0
 40
0.0
 40
1.0
 40
1.0
 40
1.0
 40
1.0
 10
-18.0401
 20
-26.2437
 30
0.0
 10
-18.0401
 20
-26.2437
 30
0.0
 10
-7.3023
 20
-26.2437
 30
0.0
 10
-7.3023
 20
-26.2437
 30
0.0
  0
SPLINE
  5
60
330
1F
100
AcDbEntity
  8
DATUMS
 62
   250
100
AcDbSpline
210
0.0
220
0.0
230
1.0
 70
    11
 71
     3
 72
    40
 73
    36
 74
     0
 42
0.0000000001
 43
0.0000000001
 40
0.0
 40
0.0
 40
0.0
 40
0.0
 40
0.1
 40
0.1
 40
0.1
 40
0.1
 40
0.2
 40
0.2
 40
0.2
 40
0.2
 40
0.3
 40
0.3
 40
0.3
 40
0.3
 40
0.4
 40
0.4
 40
0.4
 40
0.4
 40
0.5
 40
0.5
 40
0.5
 40
0.5
 40
0.6
 40
0.6
 40
0.6
 40
0.6
 40
0.7
 40
0.7
 40
0.7
 40
0.7
 40
0.8
 40
0.8
 40
0.8
 40
0.8
 40
1.0
 40
1.0
 40
1.0
 40
1.0
 10
-12.9762
 20
-14.0735
 30
0.0
 10
-12.9762
 20
-14.0735
 30
0.0
 10
-13.2241
 20
-14.0735
 30
0.0
 10
-13.2241
 20
-14.0735
 30
0.0
 10
-13.2241
 20
-14.0735
 30
0.0
 10
-13.2241
 20
-14.0735
 30
0.0
 10
-13.2241
 20
-12.4931
 30
0.0
 10
-13.2241
 20
-12.4931
 30
0.0
 10
-13.2241
 20
-12.4931
 30
0.0
 10
-13.2839
 20
-12.55
 30
0.0
 10
-13.3619
 20
-12.6069
 30
0.0
 10
-13.4588
 20
-12.6638
 30
0.0
 10
-13.4588
 20
-12.6638
 30
0.0
 10
-13.5562
 20
-12.7207
 30
0.0
 10
-13.6432
 20
-12.7635
 30
0.0
 10
-13.7204
 20
-12.7918
 30
0.0
 10
-13.7204
 20
-12.7918
 30
0.0
 10
-13.7204
 20
-12.7918
 30
0.0
 10
-13.7204
 20
-12.5523
 30
0.0
 10
-13.7204
 20
-12.5523
 30
0.0
 10
-13.7204
 20
-12.5523
 30
0.0
 10
-13.5816
 20
-12.487
 30
0.0
 10
-13.4602
 20
-12.4079
 30
0.0
 10
-13.3563
 20
-12.3153
 30
0.0
 10
-13.3563
 20
-12.3153
 30
0.0
 10
-13.2528
 20
-12.2221
 30
0.0
 10
-13.179
 20
-12.1323
 30
0.0
 10
-13.1357
 20
-12.0448
 30
0.0
 10
-13.1357
 20
-12.0448
 30
0.0
 10
-13.1357
 20
-12.0448
 30
0.0
 10
-12.9762
 20
-12.0448
 30
0.0
 10
-12.9762
 20
-12.0448
 30
0.0
 10
-12.9762
 20
-12.0448
 30
0.0
 10
-12.9762
 20
-12.0448
 30
0.0
 10
-12.9762
 20
-14.0735
 30
0.0
 10
-12.9762
 20
-14.0735
 30
0.0
  0
SPLINE
  5
61
330
1F
100
AcDbEntity
  8
DATUMS
 62
   250
100
AcDbSpline
210
0.0
220
0.0
230
1.0
 70
    11
 71
     3
 72
   124
 73
   120
 74
     0
 42
0.0000000001
 43
0.0000000001
 40
0.0
 40
0.0
 40
0.0
 40
0.0
 40
0.032258064516129
 40
0.032258064516129
 40
0.032258064516129
 40
0.032258064516129
 40
0.0645161290322581
 40
0.0645161290322581
 40
0.0645161290322581
 40
0.0645161290322581
 40
0.0967741935483871
 40
0.0967741935483871
 40
0.0967741935483871
 40
0.0967741935483871
 40
0.1290322580645161
 40
0.1290322580645161
 40
0.1290322580645161
 40
0.1290322580645161
 40
0.1612903225806452
 40
0.1612903225806452
 40
0.1612903225806452
 40
0.1612903225806452
 40
0.1935483870967742
 40
0.1935483870967742
 40
0.1935483870967742
 40
0.1935483870967742
 40
0.2258064516129032
 40
0.2258064516129032
 40
0.2258064516129032
 40
0.2258064516129032
 40
0.2580645161290323
 40
0.2580645161290323
 40
0.2580645161290323
 40
0.2580645161290323
 40
0.2903225806451613
 40
0.2903225806451613
 40
0.2903225806451613
 40
0.2903225806451613
 40
0.3225806451612903
 40
0.3225806451612903
 40
0.3225806451612903
 40
0.3225806451612903
 40
0.3548387096774194
 40
0.3548387096774194
 40
0.3548387096774194
 40
0.3548387096774194
 40
0.3870967741935484
 40
0.3870967741935484
 40
0.3870967741935484
 40
0.3870967741935484
 40
0.4193548387096774
 40
0.4193548387096774
 40
0.4193548387096774
 40
0.4193548387096774
 40
0.4516129032258064
 40
0.4516129032258064
 40
0.4516129032258064
 40
0.4516129032258064
 40
0.4838709677419355
 40
0.4838709677419355
 40
0.4838709677419355
 40
0.4838709677419355
 40
0.5161290322580645
 40
0.5161290322580645
 40
0.5161290322580645
 40
0.5161290322580645
 40
0.5483870967741935
 40
0.5483870967741935
 40
0.5483870967741935
 40
0.5483870967741935
 40
0.5806451612903226
 40
0.5806451612903226
 40
0.5806451612903226
 40
0.5806451612903226
 40
0.6129032258064516
 40
0.6129032258064516
 40
0.6129032258064516
 40
0.6129032258064516
 40
0.6451612903225806
 40
0.6451612903225806
 40
0.6451612903225806
 40
0.6451612903225806
 40
0.6774193548387096
 40
0.6774193548387096
 40
0.6774193548387096
 40
0.6774193548387096
 40
0.7096774193548387
 40
0.7096774193548387
 40
0.7096774193548387
 40
0.7096774193548387
 40
0.7419354838709677
 40
0.7419354838709677
 40
0.7419354838709677
 40
0.7419354838709677
 40
0.7741935483870968
 40
0.7741935483870968
 40
0.7741935483870968
 40
0.7741935483870968
 40
0.8064516129032258
 40
0.8064516129032258
 40
0.8064516129032258
 40
0.8064516129032258
 40
0.8387096774193549
 40
0.8387096774193549
 40
0.8387096774193549
 40
0.8387096774193549
 40
0.8709677419354839
 40
0.8709677419354839
 40
0.8709677419354839
 40
0.8709677419354839
 40
0.9032258064516129
 40
0.9032258064516129
 40
0.9032258064516129
 40
0.9032258064516129
 40
0.9354838709677419
 40
0.9354838709677419
 40
0.9354838709677419
 40
0.9354838709677419
 40
1.0
 40
1.0
 40
1.0
 40
1.0
 10
-12.3394
 20
-13.5401
 30
0.0
 10
-12.3394
 20
-13.5401
 30
0.0
 10
-12.0915
 20
-13.5072
 30
0.0
 10
-12.0915
 20
-13.5072
 30
0.0
 10
-12.0915
 20
-13.5072
 30
0.0
 10
-12.0628
 20
-13.6478
 30
0.0
 10
-12.0143
 20
-13.7489
 30
0.0
 10
-11.9461
 20
-13.811
 30
0.0
 10
-11.9461
 20
-13.811
 30
0.0
 10
-11.8775
 20
-13.8731
 30
0.0
 10
-11.7942
 20
-13.9042
 30
0.0
 10
-11.6959
 20
-13.9042
 30
0.0
 10
-11.6959
 20
-13.9042
 30
0.0
 10
-11.5793
 20
-13.9042
 30
0.0
 10
-11.4805
 20
-13.8637
 30
0.0
 10
-11.4
 20
-13.7828
 30
0.0
 10
-11.4
 20
-13.7828
 30
0.0
 10
-11.3201
 20
-13.7019
 30
0.0
 10
-11.2796
 20
-13.6017
 30
0.0
 10
-11.2796
 20
-13.4822
 30
0.0
 10
-11.2796
 20
-13.4822
 30
0.0
 10
-11.2796
 20
-13.3684
 30
0.0
 10
-11.3168
 20
-13.2743
 30
0.0
 10
-11.3911
 20
-13.2005
 30
0.0
 10
-11.3911
 20
-13.2005
 30
0.0
 10
-11.4659
 20
-13.1267
 30
0.0
 10
-11.5604
 20
-13.0895
 30
0.0
 10
-11.6752
 20
-13.0895
 30
0.0
 10
-11.6752
 20
-13.0895
 30
0.0
 10
-11.7222
 20
-13.0895
 30
0.0
 10
-11.7806
 20
-13.0989
 30
0.0
 10
-11.8502
 20
-13.1172
 30
0.0
 10
-11.8502
 20
-13.1172
 30
0.0
 10
-11.8502
 20
-13.1172
 30
0.0
 10
-11.8224
 20
-12.8995
 30
0.0
 10
-11.8224
 20
-12.8995
 30
0.0
 10
-11.8224
 20
-12.8995
 30
0.0
 10
-11.806
 20
-12.9013
 30
0.0
 10
-11.7928
 20
-12.9023
 30
0.0
 10
-11.7825
 20
-12.9023
 30
0.0
 10
-11.7825
 20
-12.9023
 30
0.0
 10
-11.6771
 20
-12.9023
 30
0.0
 10
-11.5821
 20
-12.8745
 30
0.0
 10
-11.4974
 20
-12.8195
 30
0.0
 10
-11.4974
 20
-12.8195
 30
0.0
 10
-11.4127
 20
-12.7645
 30
0.0
 10
-11.3704
 20
-12.6793
 30
0.0
 10
-11.3704
 20
-12.5646
 30
0.0
 10
-11.3704
 20
-12.5646
 30
0.0
 10
-11.3704
 20
-12.4738
 30
0.0
 10
-11.4015
 20
-12.3981
 30
0.0
 10
-11.4631
 20
-12.3388
 30
0.0
 10
-11.4631
 20
-12.3388
 30
0.0
 10
-11.5247
 20
-12.2791
 30
0.0
 10
-11.6042
 20
-12.2489
 30
0.0
 10
-11.7016
 20
-12.2489
 30
0.0
 10
-11.7016
 20
-12.2489
 30
0.0
 10
-11.798
 20
-12.2489
 30
0.0
 10
-11.8784
 20
-12.2795
 30
0.0
 10
-11.9424
 20
-12.3397
 30
0.0
 10
-11.9424
 20
-12.3397
 30
0.0
 10
-12.0068
 20
-12.4004
 30
0.0
 10
-12.0482
 20
-12.4917
 30
0.0
 10
-12.0666
 20
-12.613
 30
0.0
 10
-12.0666
 20
-12.613
 30
0.0
 10
-12.0666
 20
-12.613
 30
0.0
 10
-12.3144
 20
-12.5688
 30
0.0
 10
-12.3144
 20
-12.5688
 30
0.0
 10
-12.3144
 20
-12.5688
 30
0.0
 10
-12.2843
 20
-12.4023
 30
0.0
 10
-12.2152
 20
-12.2734
 30
0.0
 10
-12.1079
 20
-12.1822
 30
0.0
 10
-12.1079
 20
-12.1822
 30
0.0
 10
-12.0002
 20
-12.0909
 30
0.0
 10
-11.8666
 20
-12.0448
 30
0.0
 10
-11.7067
 20
-12.0448
 30
0.0
 10
-11.7067
 20
-12.0448
 30
0.0
 10
-11.5967
 20
-12.0448
 30
0.0
 10
-11.4951
 20
-12.0688
 30
0.0
 10
-11.4024
 20
-12.1158
 30
0.0
 10
-11.4024
 20
-12.1158
 30
0.0
 10
-11.3097
 20
-12.1633
 30
0.0
 10
-11.2387
 20
-12.2278
 30
0.0
 10
-11.1893
 20
-12.3096
 30
0.0
 10
-11.1893
 20
-12.3096
 30
0.0
 10
-11.1404
 20
-12.3915
 30
0.0
 10
-11.1155
 20
-12.478
 30
0.0
 10
-11.1155
 20
-12.5702
 30
0.0
 10
-11.1155
 20
-12.5702
 30
0.0
 10
-11.1155
 20
-12.6572
 30
0.0
 10
-11.139
 20
-12.7367
 30
0.0
 10
-11.186
 20
-12.8087
 30
0.0
 10
-11.186
 20
-12.8087
 30
0.0
 10
-11.2331
 20
-12.8802
 30
0.0
 10
-11.3022
 20
-12.9371
 30
0.0
 10
-11.3939
 20
-12.9794
 30
0.0
 10
-11.3939
 20
-12.9794
 30
0.0
 10
-11.2745
 20
-13.0067
 30
0.0
 10
-11.1818
 20
-13.0641
 30
0.0
 10
-11.1155
 20
-13.1511
 30
0.0
 10
-11.1155
 20
-13.1511
 30
0.0
 10
-11.0496
 20
-13.2377
 30
0.0
 10
-11.0167
 20
-13.3463
 30
0.0
 10
-11.0167
 20
-13.4766
 30
0.0
 10
-11.0167
 20
-13.4766
 30
0.0
 10
-11.0167
 20
-13.653
 30
0.0
 10
-11.0807
 20
-13.8026
 30
0.0
 10
-11.2095
 20
-13.9253
 30
0.0
 10
-11.2095
 20
-13.9253
 30
0.0
 10
-11.338
 20
-14.0481
 30
0.0
 10
-11.5007
 20
-14.1092
 30
0.0
 10
-11.6973
 20
-14.1092
 30
0.0
 10
-11.6973
 20
-14.1092
 30
0.0
 10
-11.8746
 20
-14.1092
 30
0.0
 10
-12.0219
 20
-14.0566
 30
0.0
 10
-12.139
 20
-13.9507
 30
0.0
 10
-12.139
 20
-13.9507
 30
0.0
 10
-12.2561
 20
-13.8454
 30
0.0
 10
-12.3229
 20
-13.7085
 30
0.0
 10
-12.3394
 20
-13.5401
 30
0.0
  0
SPLINE
  5
62
330
1F
100
AcDbEntity
  8
DATUMS
 62
   250
100
AcDbSpline
210
0.0
220
0.0
230
1.0
 70
    11
 71
     3
 72
    52
 73
    48
 74
     0
 42
0.0000000001
 43
0.0000000001
 40
0.0
 40
0.0
 40
0.0
 40
0.0
 40
0.0769230769230769
 40
0.0769230769230769
 40
0.0769230769230769
 40
0.0769230769230769
 40
0.1538461538461539
 40
0.1538461538461539
 40
0.1538461538461539
 40
0.1538461538461539
 40
0.2307692307692308
 40
0.2307692307692308
 40
0.2307692307692308
 40
0.2307692307692308
 40
0.3076923076923077
 40
0.3076923076923077
 40
0.3076923076923077
 40
0.3076923076923077
 40
0.3846153846153846
 40
0.3846153846153846
 40
0.3846153846153846
 40
0.3846153846153846
 40
0.4615384615384616
 40
0.4615384615384616
 40
0.4615384615384616
 40
0.4615384615384616
 40
0.5384615384615384
 40
0.5384615384615384
 40
0.5384615384615384
 40
0.5384615384615384
 40
0.6153846153846154
 40
0.6153846153846154
 40
0.6153846153846154
 40
0.6153846153846154
 40
0.6923076923076923
 40
0.6923076923076923
 40
0.6923076923076923
 40
0.6923076923076923
 40
0.7692307692307693
 40
0.7692307692307693
 40
0.7692307692307693
 40
0.7692307692307693
 40
0.8461538461538461
 40
0.8461538461538461
 40
0.8461538461538461
 40
0.8461538461538461
 40
1.0
 40
1.0
 40
1.0
 40
1.0
 10
-10.7712
 20
-13.0773
 30
0.0
 10
-10.7712
 20
-12.8383
 30
0.0
 10
-10.7467
 20
-12.6459
 30
0.0
 10
-10.6973
 20
-12.5006
 30
0.0
 10
-10.6973
 20
-12.5006
 30
0.0
 10
-10.6484
 20
-12.3548
 30
0.0
 10
-10.575
 20
-12.2424
 30
0.0
 10
-10.4781
 20
-12.1633
 30
0.0
 10
-10.4781
 20
-12.1633
 30
0.0
 10
-10.3812
 20
-12.0843
 30
0.0
 10
-10.2594
 20
-12.0448
 30
0.0
 10
-10.1127
 20
-12.0448
 30
0.0
 10
-10.1127
 20
-12.0448
 30
0.0
 10
-10.004
 20
-12.0448
 30
0.0
 10
-9.909
 20
-12.0669
 30
0.0
 10
-9.8272
 20
-12.1107
 30
0.0
 10
-9.8272
 20
-12.1107
 30
0.0
 10
-9.7453
 20
-12.1539
 30
0.0
 10
-9.678
 20
-12.217
 30
0.0
 10
-9.6244
 20
-12.2993
 30
0.0
 10
-9.6244
 20
-12.2993
 30
0.0
 10
-9.5713
 20
-12.3816
 30
0.0
 10
-9.5294
 20
-12.4818
 30
0.0
 10
-9.4993
 20
-12.5998
 30
0.0
 10
-9.4993
 20
-12.5998
 30
0.0
 10
-9.4687
 20
-12.7179
 30
0.0
 10
-9.4537
 20
-12.8769
 30
0.0
 10
-9.4537
 20
-13.0773
 30
0.0
 10
-9.4537
 20
-13.0773
 30
0.0
 10
-9.4537
 20
-13.3143
 30
0.0
 10
-9.4781
 20
-13.5053
 30
0.0
 10
-9.5266
 20
-13.6511
 30
0.0
 10
-9.5266
 20
-13.6511
 30
0.0
 10
-9.5755
 20
-13.7969
 30
0.0
 10
-9.6484
 20
-13.9093
 30
0.0
 10
-9.7453
 20
-13.9888
 30
0.0
 10
-9.7453
 20
-13.9888
 30
0.0
 10
-9.8422
 20
-14.0683
 30
0.0
 10
-9.9645
 20
-14.1078
 30
0.0
 10
-10.1127
 20
-14.1078
 30
0.0
 10
-10.1127
 20
-14.1078
 30
0.0
 10
-10.3074
 20
-14.1078
 30
0.0
 10
-10.4603
 20
-14.0382
 30
0.0
 10
-10.5713
 20
-13.8985
 30
0.0
 10
-10.5713
 20
-13.8985
 30
0.0
 10
-10.7044
 20
-13.7306
 30
0.0
 10
-10.7712
 20
-13.4564
 30
0.0
 10
-10.7712
 20
-13.0773
 30
0.0
  0
SPLINE
  5
63
330
1F
100
AcDbEntity
  8
DATUMS
 62
   250
100
AcDbSpline
210
0.0
220
0.0
230
1.0
 70
    11
 71
     3
 72
    36
 73
    32
 74
     0
 42
0.0000000001
 43
0.0000000001
 40
0.0
 40
0.0
 40
0.0
 40
0.0
 40
0.1111111111111111
 40
0.1111111111111111
 40
0.1111111111111111
 40
0.1111111111111111
 40
0.2222222222222222
 40
0.2222222222222222
 40
0.2222222222222222
 40
0.2222222222222222
 40
0.3333333333333333
 40
0.3333333333333333
 40
0.3333333333333333
 40
0.3333333333333333
 40
0.4444444444444444
 40
0.4444444444444444
 40
0.4444444444444444
 40
0.4444444444444444
 40
0.5555555555555556
 40
0.5555555555555556
 40
0.5555555555555556
 40
0.5555555555555556
 40
0.6666666666666666
 40
0.6666666666666666
 40
0.6666666666666666
 40
0.6666666666666666
 40
0.7777777777777778
 40
0.7777777777777778
 40
0.7777777777777778
 40
0.7777777777777778
 40
1.0
 40
1.0
 40
1.0
 40
1.0
 10
-10.5162
 20
-13.0773
 30
0.0
 10
-10.5162
 20
-13.4089
 30
0.0
 10
-10.4772
 20
-13.6295
 30
0.0
 10
-10.3996
 20
-13.7395
 30
0.0
 10
-10.3996
 20
-13.7395
 30
0.0
 10
-10.322
 20
-13.8491
 30
0.0
 10
-10.2265
 20
-13.9042
 30
0.0
 10
-10.1127
 20
-13.9042
 30
0.0
 10
-10.1127
 20
-13.9042
 30
0.0
 10
-9.9984
 20
-13.9042
 30
0.0
 10
-9.9029
 20
-13.8487
 30
0.0
 10
-9.8253
 20
-13.7386
 30
0.0
 10
-9.8253
 20
-13.7386
 30
0.0
 10
-9.7477
 20
-13.6285
 30
0.0
 10
-9.7086
 20
-13.4079
 30
0.0
 10
-9.7086
 20
-13.0773
 30
0.0
 10
-9.7086
 20
-13.0773
 30
0.0
 10
-9.7086
 20
-12.7447
 30
0.0
 10
-9.7477
 20
-12.5236
 30
0.0
 10
-9.8253
 20
-12.4145
 30
0.0
 10
-9.8253
 20
-12.4145
 30
0.0
 10
-9.9029
 20
-12.3049
 30
0.0
 10
-9.9993
 20
-12.2504
 30
0.0
 10
-10.115
 20
-12.2504
 30
0.0
 10
-10.115
 20
-12.2504
 30
0.0
 10
-10.2293
 20
-12.2504
 30
0.0
 10
-10.3201
 20
-12.2988
 30
0.0
 10
-10.3883
 20
-12.3952
 30
0.0
 10
-10.3883
 20
-12.3952
 30
0.0
 10
-10.4734
 20
-12.518
 30
0.0
 10
-10.5162
 20
-12.7457
 30
0.0
 10
-10.5162
 20
-13.0773
 30
0.0
  0
SPLINE
  5
64
330
1F
100
AcDbEntity
  8
DATUMS
 62
   250
100
AcDbSpline
210
0.0
220
0.0
230
1.0
 70
    11
 71
     3
 72
    20
 73
    16
 74
     0
 42
0.0000000001
 43
0.0000000001
 40
0.0
 40
0.0
 40
0.0
 40
0.0
 40
0.2
 40
0.2
 40
0.2
 40
0.2
 40
0.4
 40
0.4
 40
0.4
 40
0.4
 40
0.6
 40
0.6
 40
0.6
 40
0.6
 40
1.0
 40
1.0
 40
1.0
 40
1.0
 10
4.5537
 20
-14.4862
 30
0.0
 10
4.5537
 20
-14.4862
 30
0.0
 10
1.5537
 20
-14.0481
 30
0.0
 10
1.5537
 20
-14.0481
 30
0.0
 10
1.5537
 20
-14.0481
 30
0.0
 10
1.5537
 20
-14.0481
 30
0.0
 10
1.5537
 20
-15.015
 30
0.0
 10
1.5537
 20
-15.015
 30
0.0
 10
1.5537
 20
-15.015
 30
0.0
 10
1.5537
 20
-15.015
 30
0.0
 10
4.5537
 20
-14.4875
 30
0.0
 10
4.5537
 20
-14.4875
 30
0.0
 10
4.5537
 20
-14.4875
 30
0.0
 10
4.5537
 20
-14.4875
 30
0.0
 10
4.5537
 20
-14.4862
 30
0.0
 10
4.5537
 20
-14.4862
 30
0.0
  0
SPLINE
  5
65
330
1F
100
AcDbEntity
  8
DATUMS
 62
   250
100
AcDbSpline
210
0.0
220
0.0
230
1.0
 70
    11
 71
     3
 72
    20
 73
    16
 74
     0
 42
0.0000000001
 43
0.0000000001
 40
0.0
 40
0.0
 40
0.0
 40
0.0
 40
0.2
 40
0.2
 40
0.2
 40
0.2
 40
0.4
 40
0.4
 40
0.4
 40
0.4
 40
0.6
 40
0.6
 40
0.6
 40
0.6
 40
1.0
 40
1.0
 40
1.0
 40
1.0
 10
-27.9297
 20
-14.4649
 30
0.0
 10
-27.9297
 20
-14.4649
 30
0.0
 10
-24.9296
 20
-14.9029
 30
0.0
 10
-24.9296
 20
-14.9029
 30
0.0
 10
-24.9296
 20
-14.9029
 30
0.0
 10
-24.9296
 20
-14.9029
 30
0.0
 10
-24.9296
 20
-13.936
 30
0.0
 10
-24.9296
 20
-13.936
 30
0.0
 10
-24.9296
 20
-13.936
 30
0.0
 10
-24.9296
 20
-13.936
 30
0.0
 10
-27.9297
 20
-14.4635
 30
0.0
 10
-27.9297
 20
-14.4635
 30
0.0
 10
-27.9297
 20
-14.4635
 30
0.0
 10
-27.9297
 20
-14.4635
 30
0.0
 10
-27.9297
 20
-14.4649
 30
0.0
 10
-27.9297
 20
-14.4649
 30
0.0
  0
SPLINE
  5
66
330
1F
100
AcDbEntity
  8
DATUMS
 62
   250
100
AcDbSpline
210
0.0
220
0.0
230
1.0
 70
    24
 71
     3
 72
     8
 73
     4
 74
     0
 42
0.0000000001
 43
0.0000000001
 40
0.0
 40
0.0
 40
0.0
 40
0.0
 40
1.0
 40
1.0
 40
1.0
 40
1.0
 10
-28.0719
 20
-14.4723
 30
0.0
 10
-28.0719
 20
-14.4723
 30
0.0
 10
4.3284
 20
-14.4723
 30
0.0
 10
4.3284
 20
-14.4723
 30
0.0
  0
SPLINE
  5
67
330
1F
100
AcDbEntity
  8
DATUMS
  6
NEW_LINE9
 62
   250
100
AcDbSpline
210
0.0
220
0.0
230
1.0
 70
    24
 71
     3
 72
     8
 73
     4
 74
     0
 42
0.0000000001
 43
0.0000000001
 40
0.0
 40
0.0
 40
0.0
 40
0.0
 40
1.0
 40
1.0
 40
1.0
 40
1.0
 10
-27.999
 20
-13.9999
 30
0.0
 10
-27.999
 20
-13.9999
 30
0.0
 10
-27.999
 20
-18.9058
 30
0.0
 10
-27.999
 20
-18.9058
 30
0.0
  0
SPLINE
  5
69
330
1F
100
AcDbEntity
  8
DATUMS
  6
NEW_LINE10
 62
   250
100
AcDbSpline
210
0.0
220
0.0
230
1.0
 70
    24
 71
     3
 72
     8
 73
     4
 74
     0
 42
0.0000000001
 43
0.0000000001
 40
0.0
 40
0.0
 40
0.0
 40
0.0
 40
1.0
 40
1.0
 40
1.0
 40
1.0
 10
4.6405
 20
-14.0218
 30
0.0
 10
4.6405
 20
-14.0218
 30
0.0
 10
4.6405
 20
-19.3523
 30
0.0
 10
4.6405
 20
-19.3523
 30
0.0
  0
SPLINE
  5
6B
330
1F
100
AcDbEntity
  8
DATUMS
 62
   250
100
AcDbSpline
210
0.0
220
0.0
230
1.0
 70
    11
 71
     3
 72
    68
 73
    64
 74
     0
 42
0.0000000001
 43
0.0000000001
 40
0.0
 40
0.0
 40
0.0
 40
0.0
 40
0.0588235294117647
 40
0.0588235294117647
 40
0.0588235294117647
 40
0.0588235294117647
 40
0.1176470588235294
 40
0.1176470588235294
 40
0.1176470588235294
 40
0.1176470588235294
 40
0.1764705882352941
 40
0.1764705882352941
 40
0.1764705882352941
 40
0.1764705882352941
 40
0.2352941176470588
 40
0.2352941176470588
 40
0.2352941176470588
 40
0.2352941176470588
 40
0.2941176470588235
 40
0.2941176470588235
 40
0.2941176470588235
 40
0.2941176470588235
 40
0.3529411764705883
 40
0.3529411764705883
 40
0.3529411764705883
 40
0.3529411764705883
 40
0.4117647058823529
 40
0.4117647058823529
 40
0.4117647058823529
 40
0.4117647058823529
 40
0.4705882352941176
 40
0.4705882352941176
 40
0.4705882352941176
 40
0.4705882352941176
 40
0.5294117647058824
 40
0.5294117647058824
 40
0.5294117647058824
 40
0.5294117647058824
 40
0.5882352941176471
 40
0.5882352941176471
 40
0.5882352941176471
 40
0.5882352941176471
 40
0.6470588235294118
 40
0.6470588235294118
 40
0.6470588235294118
 40
0.6470588235294118
 40
0.7058823529411765
 40
0.7058823529411765
 40
0.7058823529411765
 40
0.7058823529411765
 40
0.7647058823529411
 40
0.7647058823529411
 40
0.7647058823529411
 40
0.7647058823529411
 40
0.8235294117647058
 40
0.8235294117647058
 40
0.8235294117647058
 40
0.8235294117647058
 40
0.8823529411764706
 40
0.8823529411764706
 40
0.8823529411764706
 40
0.8823529411764706
 40
1.0
 40
1.0
 40
1.0
 40
1.0
 10
-36.6955
 20
-30.5743
 30
0.0
 10
-36.7331
 20
-30.6774
 30
0.0
 10
-36.7867
 20
-30.7536
 30
0.0
 10
-36.8568
 20
-30.8034
 30
0.0
 10
-36.8568
 20
-30.8034
 30
0.0
 10
-36.9264
 20
-30.8528
 30
0.0
 10
-37.0102
 20
-30.8777
 30
0.0
 10
-37.1075
 20
-30.8777
 30
0.0
 10
-37.1075
 20
-30.8777
 30
0.0
 10
-37.2547
 20
-30.8777
 30
0.0
 10
-37.378
 20
-30.825
 30
0.0
 10
-37.4782
 20
-30.7192
 30
0.0
 10
-37.4782
 20
-30.7192
 30
0.0
 10
-37.5784
 20
-30.6134
 30
0.0
 10
-37.6287
 20
-30.4732
 30
0.0
 10
-37.6287
 20
-30.2978
 30
0.0
 10
-37.6287
 20
-30.2978
 30
0.0
 10
-37.6287
 20
-30.1214
 30
0.0
 10
-37.5774
 20
-29.9793
 30
0.0
 10
-37.4749
 20
-29.8716
 30
0.0
 10
-37.4749
 20
-29.8716
 30
0.0
 10
-37.3723
 20
-29.7644
 30
0.0
 10
-37.2477
 20
-29.7107
 30
0.0
 10
-37.1005
 20
-29.7107
 30
0.0
 10
-37.1005
 20
-29.7107
 30
0.0
 10
-37.0069
 20
-29.7107
 30
0.0
 10
-36.9255
 20
-29.7352
 30
0.0
 10
-36.8559
 20
-29.7841
 30
0.0
 10
-36.8559
 20
-29.7841
 30
0.0
 10
-36.7867
 20
-29.8335
 30
0.0
 10
-36.7331
 20
-29.9078
 30
0.0
 10
-36.6955
 20
-30.008
 30
0.0
 10
-36.6955
 20
-30.008
 30
0.0
 10
-36.655
 20
-29.8843
 30
0.0
 10
-36.5901
 20
-29.7898
 30
0.0
 10
-36.4998
 20
-29.7249
 30
0.0
 10
-36.4998
 20
-29.7249
 30
0.0
 10
-36.41
 20
-29.6604
 30
0.0
 10
-36.3023
 20
-29.628
 30
0.0
 10
-36.1776
 20
-29.628
 30
0.0
 10
-36.1776
 20
-29.628
 30
0.0
 10
-36.0045
 20
-29.628
 30
0.0
 10
-35.8596
 20
-29.6891
 30
0.0
 10
-35.7421
 20
-29.8109
 30
0.0
 10
-35.7421
 20
-29.8109
 30
0.0
 10
-35.6245
 20
-29.9332
 30
0.0
 10
-35.5657
 20
-30.0941
 30
0.0
 10
-35.5657
 20
-30.2935
 30
0.0
 10
-35.5657
 20
-30.2935
 30
0.0
 10
-35.5657
 20
-30.493
 30
0.0
 10
-35.6245
 20
-30.6534
 30
0.0
 10
-35.7425
 20
-30.7757
 30
0.0
 10
-35.7425
 20
-30.7757
 30
0.0
 10
-35.8606
 20
-30.898
 30
0.0
 10
-36.0078
 20
-30.9591
 30
0.0
 10
-36.1842
 20
-30.9591
 30
0.0
 10
-36.1842
 20
-30.9591
 30
0.0
 10
-36.3154
 20
-30.9591
 30
0.0
 10
-36.4255
 20
-30.9257
 30
0.0
 10
-36.5144
 20
-30.8589
 30
0.0
 10
-36.5144
 20
-30.8589
 30
0.0
 10
-36.6028
 20
-30.7926
 30
0.0
 10
-36.6635
 20
-30.6976
 30
0.0
 10
-36.6955
 20
-30.5743
 30
0.0
  0
SPLINE
  5
6C
330
1F
100
AcDbEntity
  8
DATUMS
 62
   250
100
AcDbSpline
210
0.0
220
0.0
230
1.0
 70
    11
 71
     3
 72
    36
 73
    32
 74
     0
 42
0.0000000001
 43
0.0000000001
 40
0.0
 40
0.0
 40
0.0
 40
0.0
 40
0.1111111111111111
 40
0.1111111111111111
 40
0.1111111111111111
 40
0.1111111111111111
 40
0.2222222222222222
 40
0.2222222222222222
 40
0.2222222222222222
 40
0.2222222222222222
 40
0.3333333333333333
 40
0.3333333333333333
 40
0.3333333333333333
 40
0.3333333333333333
 40
0.4444444444444444
 40
0.4444444444444444
 40
0.4444444444444444
 40
0.4444444444444444
 40
0.5555555555555556
 40
0.5555555555555556
 40
0.5555555555555556
 40
0.5555555555555556
 40
0.6666666666666666
 40
0.6666666666666666
 40
0.6666666666666666
 40
0.6666666666666666
 40
0.7777777777777778
 40
0.7777777777777778
 40
0.7777777777777778
 40
0.7777777777777778
 40
1.0
 40
1.0
 40
1.0
 40
1.0
 10
-37.116
 20
-30.6242
 30
0.0
 10
-37.0205
 20
-30.6242
 30
0.0
 10
-36.9424
 20
-30.5932
 30
0.0
 10
-36.8817
 20
-30.532
 30
0.0
 10
-36.8817
 20
-30.532
 30
0.0
 10
-36.8211
 20
-30.4704
 30
0.0
 10
-36.7905
 20
-30.3904
 30
0.0
 10
-36.7905
 20
-30.2921
 30
0.0
 10
-36.7905
 20
-30.2921
 30
0.0
 10
-36.7905
 20
-30.1966
 30
0.0
 10
-36.8206
 20
-30.1181
 30
0.0
 10
-36.8808
 20
-30.0569
 30
0.0
 10
-36.8808
 20
-30.0569
 30
0.0
 10
-36.941
 20
-29.9958
 30
0.0
 10
-37.0149
 20
-29.9657
 30
0.0
 10
-37.1019
 20
-29.9657
 30
0.0
 10
-37.1019
 20
-29.9657
 30
0.0
 10
-37.1931
 20
-29.9657
 30
0.0
 10
-37.2693
 20
-29.9967
 30
0.0
 10
-37.3314
 20
-30.0598
 30
0.0
 10
-37.3314
 20
-30.0598
 30
0.0
 10
-37.3935
 20
-30.1228
 30
0.0
 10
-37.4246
 20
-30.2009
 30
0.0
 10
-37.4246
 20
-30.2949
 30
0.0
 10
-37.4246
 20
-30.2949
 30
0.0
 10
-37.4246
 20
-30.3895
 30
0.0
 10
-37.394
 20
-30.468
 30
0.0
 10
-37.3338
 20
-30.5306
 30
0.0
 10
-37.3338
 20
-30.5306
 30
0.0
 10
-37.2731
 20
-30.5932
 30
0.0
 10
-37.2002
 20
-30.6242
 30
0.0
 10
-37.116
 20
-30.6242
 30
0.0
  0
SPLINE
  5
6D
330
1F
100
AcDbEntity
  8
DATUMS
 62
   250
100
AcDbSpline
210
0.0
220
0.0
230
1.0
 70
    11
 71
     3
 72
    40
 73
    36
 74
     0
 42
0.0000000001
 43
0.0000000001
 40
0.0
 40
0.0
 40
0.0
 40
0.0
 40
0.1
 40
0.1
 40
0.1
 40
0.1
 40
0.2
 40
0.2
 40
0.2
 40
0.2
 40
0.3
 40
0.3
 40
0.3
 40
0.3
 40
0.4
 40
0.4
 40
0.4
 40
0.4
 40
0.5
 40
0.5
 40
0.5
 40
0.5
 40
0.6
 40
0.6
 40
0.6
 40
0.6
 40
0.7
 40
0.7
 40
0.7
 40
0.7
 40
0.8
 40
0.8
 40
0.8
 40
0.8
 40
1.0
 40
1.0
 40
1.0
 40
1.0
 10
-36.1828
 20
-30.7042
 30
0.0
 10
-36.1122
 20
-30.7042
 30
0.0
 10
-36.0436
 20
-30.6872
 30
0.0
 10
-35.9777
 20
-30.6538
 30
0.0
 10
-35.9777
 20
-30.6538
 30
0.0
 10
-35.9114
 20
-30.6204
 30
0.0
 10
-35.8601
 20
-30.5706
 30
0.0
 10
-35.8239
 20
-30.5043
 30
0.0
 10
-35.8239
 20
-30.5043
 30
0.0
 10
-35.7877
 20
-30.4379
 30
0.0
 10
-35.7693
 20
-30.3669
 30
0.0
 10
-35.7693
 20
-30.2907
 30
0.0
 10
-35.7693
 20
-30.2907
 30
0.0
 10
-35.7693
 20
-30.1722
 30
0.0
 10
-35.8074
 20
-30.0743
 30
0.0
 10
-35.8841
 20
-29.9972
 30
0.0
 10
-35.8841
 20
-29.9972
 30
0.0
 10
-35.9603
 20
-29.9201
 30
0.0
 10
-36.0572
 20
-29.8815
 30
0.0
 10
-36.1748
 20
-29.8815
 30
0.0
 10
-36.1748
 20
-29.8815
 30
0.0
 10
-36.2943
 20
-29.8815
 30
0.0
 10
-36.393
 20
-29.921
 30
0.0
 10
-36.4711
 20
-30.0005
 30
0.0
 10
-36.4711
 20
-30.0005
 30
0.0
 10
-36.5492
 20
-30.08
 30
0.0
 10
-36.5882
 20
-30.1797
 30
0.0
 10
-36.5882
 20
-30.2992
 30
0.0
 10
-36.5882
 20
-30.2992
 30
0.0
 10
-36.5882
 20
-30.4158
 30
0.0
 10
-36.5497
 20
-30.5123
 30
0.0
 10
-36.4725
 20
-30.5889
 30
0.0
 10
-36.4725
 20
-30.5889
 30
0.0
 10
-36.3949
 20
-30.6656
 30
0.0
 10
-36.2985
 20
-30.7042
 30
0.0
 10
-36.1828
 20
-30.7042
 30
0.0
  0
SPLINE
  5
6E
330
1F
100
AcDbEntity
  8
DATUMS
 62
   250
100
AcDbSpline
210
0.0
220
0.0
230
1.0
 70
    11
 71
     3
 72
    52
 73
    48
 74
     0
 42
0.0000000001
 43
0.0000000001
 40
0.0
 40
0.0
 40
0.0
 40
0.0
 40
0.0769230769230769
 40
0.0769230769230769
 40
0.0769230769230769
 40
0.0769230769230769
 40
0.1538461538461539
 40
0.1538461538461539
 40
0.1538461538461539
 40
0.1538461538461539
 40
0.2307692307692308
 40
0.2307692307692308
 40
0.2307692307692308
 40
0.2307692307692308
 40
0.3076923076923077
 40
0.3076923076923077
 40
0.3076923076923077
 40
0.3076923076923077
 40
0.3846153846153846
 40
0.3846153846153846
 40
0.3846153846153846
 40
0.3846153846153846
 40
0.4615384615384616
 40
0.4615384615384616
 40
0.4615384615384616
 40
0.4615384615384616
 40
0.5384615384615384
 40
0.5384615384615384
 40
0.5384615384615384
 40
0.5384615384615384
 40
0.6153846153846154
 40
0.6153846153846154
 40
0.6153846153846154
 40
0.6153846153846154
 40
0.6923076923076923
 40
0.6923076923076923
 40
0.6923076923076923
 40
0.6923076923076923
 40
0.7692307692307693
 40
0.7692307692307693
 40
0.7692307692307693
 40
0.7692307692307693
 40
0.8461538461538461
 40
0.8461538461538461
 40
0.8461538461538461
 40
0.8461538461538461
 40
1.0
 40
1.0
 40
1.0
 40
1.0
 10
-36.5962
 20
-29.3867
 30
0.0
 10
-36.8352
 20
-29.3867
 30
0.0
 10
-37.0276
 20
-29.3622
 30
0.0
 10
-37.1729
 20
-29.3128
 30
0.0
 10
-37.1729
 20
-29.3128
 30
0.0
 10
-37.3187
 20
-29.2639
 30
0.0
 10
-37.4311
 20
-29.1905
 30
0.0
 10
-37.5102
 20
-29.0936
 30
0.0
 10
-37.5102
 20
-29.0936
 30
0.0
 10
-37.5892
 20
-28.9967
 30
0.0
 10
-37.6287
 20
-28.8749
 30
0.0
 10
-37.6287
 20
-28.7282
 30
0.0
 10
-37.6287
 20
-28.7282
 30
0.0
 10
-37.6287
 20
-28.6195
 30
0.0
 10
-37.6066
 20
-28.5245
 30
0.0
 10
-37.5628
 20
-28.4427
 30
0.0
 10
-37.5628
 20
-28.4427
 30
0.0
 10
-37.5196
 20
-28.3608
 30
0.0
 10
-37.4565
 20
-28.2935
 30
0.0
 10
-37.3742
 20
-28.2399
 30
0.0
 10
-37.3742
 20
-28.2399
 30
0.0
 10
-37.2919
 20
-28.1868
 30
0.0
 10
-37.1917
 20
-28.1449
 30
0.0
 10
-37.0737
 20
-28.1148
 30
0.0
 10
-37.0737
 20
-28.1148
 30
0.0
 10
-36.9556
 20
-28.0842
 30
0.0
 10
-36.7966
 20
-28.0692
 30
0.0
 10
-36.5962
 20
-28.0692
 30
0.0
 10
-36.5962
 20
-28.0692
 30
0.0
 10
-36.3592
 20
-28.0692
 30
0.0
 10
-36.1682
 20
-28.0936
 30
0.0
 10
-36.0224
 20
-28.1421
 30
0.0
 10
-36.0224
 20
-28.1421
 30
0.0
 10
-35.8766
 20
-28.191
 30
0.0
 10
-35.7642
 20
-28.2639
 30
0.0
 10
-35.6847
 20
-28.3608
 30
0.0
 10
-35.6847
 20
-28.3608
 30
0.0
 10
-35.6052
 20
-28.4577
 30
0.0
 10
-35.5657
 20
-28.58
 30
0.0
 10
-35.5657
 20
-28.7282
 30
0.0
 10
-35.5657
 20
-28.7282
 30
0.0
 10
-35.5657
 20
-28.9229
 30
0.0
 10
-35.6353
 20
-29.0758
 30
0.0
 10
-35.775
 20
-29.1868
 30
0.0
 10
-35.775
 20
-29.1868
 30
0.0
 10
-35.9429
 20
-29.3199
 30
0.0
 10
-36.2171
 20
-29.3867
 30
0.0
 10
-36.5962
 20
-29.3867
 30
0.0
  0
SPLINE
  5
6F
330
1F
100
AcDbEntity
  8
DATUMS
 62
   250
100
AcDbSpline
210
0.0
220
0.0
230
1.0
 70
    11
 71
     3
 72
    36
 73
    32
 74
     0
 42
0.0000000001
 43
0.0000000001
 40
0.0
 40
0.0
 40
0.0
 40
0.0
 40
0.1111111111111111
 40
0.1111111111111111
 40
0.1111111111111111
 40
0.1111111111111111
 40
0.2222222222222222
 40
0.2222222222222222
 40
0.2222222222222222
 40
0.2222222222222222
 40
0.3333333333333333
 40
0.3333333333333333
 40
0.3333333333333333
 40
0.3333333333333333
 40
0.4444444444444444
 40
0.4444444444444444
 40
0.4444444444444444
 40
0.4444444444444444
 40
0.5555555555555556
 40
0.5555555555555556
 40
0.5555555555555556
 40
0.5555555555555556
 40
0.6666666666666666
 40
0.6666666666666666
 40
0.6666666666666666
 40
0.6666666666666666
 40
0.7777777777777778
 40
0.7777777777777778
 40
0.7777777777777778
 40
0.7777777777777778
 40
1.0
 40
1.0
 40
1.0
 40
1.0
 10
-36.5962
 20
-29.1317
 30
0.0
 10
-36.2646
 20
-29.1317
 30
0.0
 10
-36.044
 20
-29.0927
 30
0.0
 10
-35.934
 20
-29.0151
 30
0.0
 10
-35.934
 20
-29.0151
 30
0.0
 10
-35.8244
 20
-28.9375
 30
0.0
 10
-35.7693
 20
-28.842
 30
0.0
 10
-35.7693
 20
-28.7282
 30
0.0
 10
-35.7693
 20
-28.7282
 30
0.0
 10
-35.7693
 20
-28.6139
 30
0.0
 10
-35.8248
 20
-28.5184
 30
0.0
 10
-35.9349
 20
-28.4408
 30
0.0
 10
-35.9349
 20
-28.4408
 30
0.0
 10
-36.045
 20
-28.3632
 30
0.0
 10
-36.2656
 20
-28.3241
 30
0.0
 10
-36.5962
 20
-28.3241
 30
0.0
 10
-36.5962
 20
-28.3241
 30
0.0
 10
-36.9288
 20
-28.3241
 30
0.0
 10
-37.1499
 20
-28.3632
 30
0.0
 10
-37.259
 20
-28.4408
 30
0.0
 10
-37.259
 20
-28.4408
 30
0.0
 10
-37.3686
 20
-28.5184
 30
0.0
 10
-37.4231
 20
-28.6148
 30
0.0
 10
-37.4231
 20
-28.7305
 30
0.0
 10
-37.4231
 20
-28.7305
 30
0.0
 10
-37.4231
 20
-28.8448
 30
0.0
 10
-37.3747
 20
-28.9356
 30
0.0
 10
-37.2783
 20
-29.0038
 30
0.0
 10
-37.2783
 20
-29.0038
 30
0.0
 10
-37.1555
 20
-29.0889
 30
0.0
 10
-36.9278
 20
-29.1317
 30
0.0
 10
-36.5962
 20
-29.1317
 30
0.0
  0
SPLINE
  5
70
330
1F
100
AcDbEntity
  8
DATUMS
 62
   250
100
AcDbSpline
210
0.0
220
0.0
230
1.0
 70
    11
 71
     3
 72
    92
 73
    88
 74
     0
 42
0.0000000001
 43
0.0000000001
 40
0.0
 40
0.0
 40
0.0
 40
0.0
 40
0.0434782608695652
 40
0.0434782608695652
 40
0.0434782608695652
 40
0.0434782608695652
 40
0.0869565217391304
 40
0.0869565217391304
 40
0.0869565217391304
 40
0.0869565217391304
 40
0.1304347826086956
 40
0.1304347826086956
 40
0.1304347826086956
 40
0.1304347826086956
 40
0.1739130434782609
 40
0.1739130434782609
 40
0.1739130434782609
 40
0.1739130434782609
 40
0.2173913043478261
 40
0.2173913043478261
 40
0.2173913043478261
 40
0.2173913043478261
 40
0.2608695652173913
 40
0.2608695652173913
 40
0.2608695652173913
 40
0.2608695652173913
 40
0.3043478260869565
 40
0.3043478260869565
 40
0.3043478260869565
 40
0.3043478260869565
 40
0.3478260869565217
 40
0.3478260869565217
 40
0.3478260869565217
 40
0.3478260869565217
 40
0.391304347826087
 40
0.391304347826087
 40
0.391304347826087
 40
0.391304347826087
 40
0.4347826086956522
 40
0.4347826086956522
 40
0.4347826086956522
 40
0.4347826086956522
 40
0.4782608695652174
 40
0.4782608695652174
 40
0.4782608695652174
 40
0.4782608695652174
 40
0.5217391304347826
 40
0.5217391304347826
 40
0.5217391304347826
 40
0.5217391304347826
 40
0.5652173913043478
 40
0.5652173913043478
 40
0.5652173913043478
 40
0.5652173913043478
 40
0.6086956521739131
 40
0.6086956521739131
 40
0.6086956521739131
 40
0.6086956521739131
 40
0.6521739130434783
 40
0.6521739130434783
 40
0.6521739130434783
 40
0.6521739130434783
 40
0.6956521739130435
 40
0.6956521739130435
 40
0.6956521739130435
 40
0.6956521739130435
 40
0.7391304347826086
 40
0.7391304347826086
 40
0.7391304347826086
 40
0.7391304347826086
 40
0.782608695652174
 40
0.782608695652174
 40
0.782608695652174
 40
0.782608695652174
 40
0.8260869565217391
 40
0.8260869565217391
 40
0.8260869565217391
 40
0.8260869565217391
 40
0.8695652173913043
 40
0.8695652173913043
 40
0.8695652173913043
 40
0.8695652173913043
 40
0.9130434782608695
 40
0.9130434782608695
 40
0.9130434782608695
 40
0.9130434782608695
 40
1.0
 40
1.0
 40
1.0
 40
1.0
 10
-36.482
 20
-41.3022
 30
0.0
 10
-36.482
 20
-41.3022
 30
0.0
 10
-36.5041
 20
-41.0416
 30
0.0
 10
-36.5041
 20
-41.0416
 30
0.0
 10
-36.5041
 20
-41.0416
 30
0.0
 10
-36.3771
 20
-41.0223
 30
0.0
 10
-36.2821
 20
-40.9776
 30
0.0
 10
-36.2181
 20
-40.9075
 30
0.0
 10
-36.2181
 20
-40.9075
 30
0.0
 10
-36.1541
 20
-40.837
 30
0.0
 10
-36.1221
 20
-40.7523
 30
0.0
 10
-36.1221
 20
-40.6531
 30
0.0
 10
-36.1221
 20
-40.6531
 30
0.0
 10
-36.1221
 20
-40.5336
 30
0.0
 10
-36.1673
 20
-40.4325
 30
0.0
 10
-36.2571
 20
-40.3502
 30
0.0
 10
-36.2571
 20
-40.3502
 30
0.0
 10
-36.3474
 20
-40.2674
 30
0.0
 10
-36.4669
 20
-40.226
 30
0.0
 10
-36.6155
 20
-40.226
 30
0.0
 10
-36.6155
 20
-40.226
 30
0.0
 10
-36.7571
 20
-40.226
 30
0.0
 10
-36.8686
 20
-40.2655
 30
0.0
 10
-36.9504
 20
-40.345
 30
0.0
 10
-36.9504
 20
-40.345
 30
0.0
 10
-37.0323
 20
-40.4245
 30
0.0
 10
-37.0732
 20
-40.5284
 30
0.0
 10
-37.0732
 20
-40.6573
 30
0.0
 10
-37.0732
 20
-40.6573
 30
0.0
 10
-37.0732
 20
-40.7373
 30
0.0
 10
-37.0549
 20
-40.8092
 30
0.0
 10
-37.0187
 20
-40.8737
 30
0.0
 10
-37.0187
 20
-40.8737
 30
0.0
 10
-36.9824
 20
-40.9381
 30
0.0
 10
-36.9354
 20
-40.9884
 30
0.0
 10
-36.8775
 20
-41.0251
 30
0.0
 10
-36.8775
 20
-41.0251
 30
0.0
 10
-36.8775
 20
-41.0251
 30
0.0
 10
-36.9076
 20
-41.258
 30
0.0
 10
-36.9076
 20
-41.258
 30
0.0
 10
-36.9076
 20
-41.258
 30
0.0
 10
-36.9076
 20
-41.258
 30
0.0
 10
-37.9453
 20
-41.0623
 30
0.0
 10
-37.9453
 20
-41.0623
 30
0.0
 10
-37.9453
 20
-41.0623
 30
0.0
 10
-37.9453
 20
-41.0623
 30
0.0
 10
-37.9453
 20
-40.0576
 30
0.0
 10
-37.9453
 20
-40.0576
 30
0.0
 10
-37.9453
 20
-40.0576
 30
0.0
 10
-37.9453
 20
-40.0576
 30
0.0
 10
-37.7082
 20
-40.0576
 30
0.0
 10
-37.7082
 20
-40.0576
 30
0.0
 10
-37.7082
 20
-40.0576
 30
0.0
 10
-37.7082
 20
-40.0576
 30
0.0
 10
-37.7082
 20
-40.8638
 30
0.0
 10
-37.7082
 20
-40.8638
 30
0.0
 10
-37.7082
 20
-40.8638
 30
0.0
 10
-37.7082
 20
-40.8638
 30
0.0
 10
-37.1654
 20
-40.9729
 30
0.0
 10
-37.1654
 20
-40.9729
 30
0.0
 10
-37.1654
 20
-40.9729
 30
0.0
 10
-37.2501
 20
-40.8516
 30
0.0
 10
-37.2924
 20
-40.7241
 30
0.0
 10
-37.2924
 20
-40.591
 30
0.0
 10
-37.2924
 20
-40.591
 30
0.0
 10
-37.2924
 20
-40.4146
 30
0.0
 10
-37.2313
 20
-40.266
 30
0.0
 10
-37.109
 20
-40.1446
 30
0.0
 10
-37.109
 20
-40.1446
 30
0.0
 10
-36.9867
 20
-40.0233
 30
0.0
 10
-36.8296
 20
-39.9626
 30
0.0
 10
-36.6377
 20
-39.9626
 30
0.0
 10
-36.6377
 20
-39.9626
 30
0.0
 10
-36.4547
 20
-39.9626
 30
0.0
 10
-36.2966
 20
-40.0162
 30
0.0
 10
-36.1635
 20
-40.1225
 30
0.0
 10
-36.1635
 20
-40.1225
 30
0.0
 10
-36.0003
 20
-40.2523
 30
0.0
 10
-35.9185
 20
-40.4292
 30
0.0
 10
-35.9185
 20
-40.6531
 30
0.0
 10
-35.9185
 20
-40.6531
 30
0.0
 10
-35.9185
 20
-40.837
 30
0.0
 10
-35.9697
 20
-40.987
 30
0.0
 10
-36.0727
 20
-41.1032
 30
0.0
 10
-36.0727
 20
-41.1032
 30
0.0
 10
-36.1758
 20
-41.2194
 30
0.0
 10
-36.3122
 20
-41.2857
 30
0.0
 10
-36.482
 20
-41.3022
 30
0.0
  0
SPLINE
  5
71
330
1F
100
AcDbEntity
  8
DATUMS
 62
   250
100
AcDbSpline
210
0.0
220
0.0
230
1.0
 70
    11
 71
     3
 72
    20
 73
    16
 74
     0
 42
0.0000000001
 43
0.0000000001
 40
0.0
 40
0.0
 40
0.0
 40
0.0
 40
0.2
 40
0.2
 40
0.2
 40
0.2
 40
0.4
 40
0.4
 40
0.4
 40
0.4
 40
0.6
 40
0.6
 40
0.6
 40
0.6
 40
1.0
 40
1.0
 40
1.0
 40
1.0
 10
-35.1047
 20
-19.7793
 30
0.0
 10
-35.1047
 20
-19.7793
 30
0.0
 10
-35.5427
 20
-22.7793
 30
0.0
 10
-35.5427
 20
-22.7793
 30
0.0
 10
-35.5427
 20
-22.7793
 30
0.0
 10
-35.5427
 20
-22.7793
 30
0.0
 10
-34.5758
 20
-22.7793
 30
0.0
 10
-34.5758
 20
-22.7793
 30
0.0
 10
-34.5758
 20
-22.7793
 30
0.0
 10
-34.5758
 20
-22.7793
 30
0.0
 10
-35.1034
 20
-19.7793
 30
0.0
 10
-35.1034
 20
-19.7793
 30
0.0
 10
-35.1034
 20
-19.7793
 30
0.0
 10
-35.1034
 20
-19.7793
 30
0.0
 10
-35.1047
 20
-19.7793
 30
0.0
 10
-35.1047
 20
-19.7793
 30
0.0
  0
SPLINE
  5
72
330
1F
100
AcDbEntity
  8
DATUMS
 62
   250
100
AcDbSpline
210
0.0
220
0.0
230
1.0
 70
    11
 71
     3
 72
    20
 73
    16
 74
     0
 42
0.0000000001
 43
0.0000000001
 40
0.0
 40
0.0
 40
0.0
 40
0.0
 40
0.2
 40
0.2
 40
0.2
 40
0.2
 40
0.4
 40
0.4
 40
0.4
 40
0.4
 40
0.6
 40
0.6
 40
0.6
 40
0.6
 40
1.0
 40
1.0
 40
1.0
 40
1.0
 10
-35.0827
 20
-41.2045
 30
0.0
 10
-35.0827
 20
-41.2045
 30
0.0
 10
-35.5207
 20
-44.2045
 30
0.0
 10
-35.5207
 20
-44.2045
 30
0.0
 10
-35.5207
 20
-44.2045
 30
0.0
 10
-35.5207
 20
-44.2045
 30
0.0
 10
-34.5538
 20
-44.2045
 30
0.0
 10
-34.5538
 20
-44.2045
 30
0.0
 10
-34.5538
 20
-44.2045
 30
0.0
 10
-34.5538
 20
-44.2045
 30
0.0
 10
-35.0814
 20
-41.2045
 30
0.0
 10
-35.0814
 20
-41.2045
 30
0.0
 10
-35.0814
 20
-41.2045
 30
0.0
 10
-35.0814
 20
-41.2045
 30
0.0
 10
-35.0827
 20
-41.2045
 30
0.0
 10
-35.0827
 20
-41.2045
 30
0.0
  0
SPLINE
  5
73
330
1F
100
AcDbEntity
  8
DATUMS
 62
   250
100
AcDbSpline
210
0.0
220
0.0
230
1.0
 70
    11
 71
     3
 72
    20
 73
    16
 74
     0
 42
0.0000000001
 43
0.0000000001
 40
0.0
 40
0.0
 40
0.0
 40
0.0
 40
0.2
 40
0.2
 40
0.2
 40
0.2
 40
0.4
 40
0.4
 40
0.4
 40
0.4
 40
0.6
 40
0.6
 40
0.6
 40
0.6
 40
1.0
 40
1.0
 40
1.0
 40
1.0
 10
-35.0746
 20
-39.9071
 30
0.0
 10
-35.0746
 20
-39.9071
 30
0.0
 10
-34.6366
 20
-36.907
 30
0.0
 10
-34.6366
 20
-36.907
 30
0.0
 10
-34.6366
 20
-36.907
 30
0.0
 10
-34.6366
 20
-36.907
 30
0.0
 10
-35.6035
 20
-36.907
 30
0.0
 10
-35.6035
 20
-36.907
 30
0.0
 10
-35.6035
 20
-36.907
 30
0.0
 10
-35.6035
 20
-36.907
 30
0.0
 10
-35.0759
 20
-39.9071
 30
0.0
 10
-35.0759
 20
-39.9071
 30
0.0
 10
-35.0759
 20
-39.9071
 30
0.0
 10
-35.0759
 20
-39.9071
 30
0.0
 10
-35.0746
 20
-39.9071
 30
0.0
 10
-35.0746
 20
-39.9071
 30
0.0
  0
SPLINE
  5
74
330
1F
100
AcDbEntity
  8
DATUMS
 62
   250
100
AcDbSpline
210
0.0
220
0.0
230
1.0
 70
    24
 71
     3
 72
     8
 73
     4
 74
     0
 42
0.0000000001
 43
0.0000000001
 40
0.0
 40
0.0
 40
0.0
 40
0.0
 40
1.0
 40
1.0
 40
1.0
 40
1.0
 10
-35.0908
 20
-44.9111
 30
0.0
 10
-35.0908
 20
-44.9111
 30
0.0
 10
-35.0908
 20
-20.1849
 30
0.0
 10
-35.0908
 20
-20.1849
 30
0.0
  0
SPLINE
  5
75
330
1F
100
AcDbEntity
  8
DATUMS
  6
NEW_LINE11
 62
   250
100
AcDbSpline
210
0.0
220
0.0
230
1.0
 70
    24
 71
     3
 72
     8
 73
     4
 74
     0
 42
0.0000000001
 43
0.0000000001
 40
0.0
 40
0.0
 40
0.0
 40
0.0
 40
1.0
 40
1.0
 40
1.0
 40
1.0
 10
-35.6049
 20
-19.7068
 30
0.0
 10
-35.6049
 20
-19.7068
 30
0.0
 10
-28.4852
 20
-19.7068
 30
0.0
 10
-28.4852
 20
-19.7068
 30
0.0
  0
SPLINE
  5
77
330
1F
100
AcDbEntity
  8
DATUMS
  6
NEW_LINE12
 62
   250
100
AcDbSpline
210
0.0
220
0.0
230
1.0
 70
    24
 71
     3
 72
     8
 73
     4
 74
     0
 42
0.0000000001
 43
0.0000000001
 40
0.0
 40
0.0
 40
0.0
 40
0.0
 40
1.0
 40
1.0
 40
1.0
 40
1.0
 10
-35.6215
 20
-39.9101
 30
0.0
 10
-35.6215
 20
-39.9101
 30
0.0
 10
-30.9265
 20
-39.9101
 30
0.0
 10
-30.9265
 20
-39.9101
 30
0.0
  0
SPLINE
  5
79
330
1F
100
AcDbEntity
  8
DATUMS
  6
NEW_LINE13
 62
   250
100
AcDbSpline
210
0.0
220
0.0
230
1.0
 70
    24
 71
     3
 72
     8
 73
     4
 74
     0
 42
0.0000000001
 43
0.0000000001
 40
0.0
 40
0.0
 40
0.0
 40
0.0
 40
1.0
 40
1.0
 40
1.0
 40
1.0
 10
-35.6133
 20
-41.2662
 30
0.0
 10
-35.6133
 20
-41.2662
 30
0.0
 10
-27.983
 20
-41.2662
 30
0.0
 10
-27.983
 20
-41.2662
 30
0.0
  0
SPLINE
  5
7B
330
1F
100
AcDbEntity
  8
DATUMS
 62
   250
100
AcDbSpline
210
0.0
220
0.0
230
1.0
 70
    11
 71
     3
 72
    40
 73
    36
 74
     0
 42
0.0000000001
 43
0.0000000001
 40
0.0
 40
0.0
 40
0.0
 40
0.0
 40
0.1
 40
0.1
 40
0.1
 40
0.1
 40
0.2
 40
0.2
 40
0.2
 40
0.2
 40
0.3
 40
0.3
 40
0.3
 40
0.3
 40
0.4
 40
0.4
 40
0.4
 40
0.4
 40
0.5
 40
0.5
 40
0.5
 40
0.5
 40
0.6
 40
0.6
 40
0.6
 40
0.6
 40
0.7
 40
0.7
 40
0.7
 40
0.7
 40
0.8
 40
0.8
 40
0.8
 40
0.8
 40
1.0
 40
1.0
 40
1.0
 40
1.0
 10
12.4441
 20
12.9315
 30
0.0
 10
12.4441
 20
12.9315
 30
0.0
 10
12.4441
 20
12.6836
 30
0.0
 10
12.4441
 20
12.6836
 30
0.0
 10
12.4441
 20
12.6836
 30
0.0
 10
12.4441
 20
12.6836
 30
0.0
 10
10.8637
 20
12.6836
 30
0.0
 10
10.8637
 20
12.6836
 30
0.0
 10
10.8637
 20
12.6836
 30
0.0
 10
10.9206
 20
12.6238
 30
0.0
 10
10.9775
 20
12.5458
 30
0.0
 10
11.0344
 20
12.4489
 30
0.0
 10
11.0344
 20
12.4489
 30
0.0
 10
11.0913
 20
12.3515
 30
0.0
 10
11.1341
 20
12.2645
 30
0.0
 10
11.1624
 20
12.1873
 30
0.0
 10
11.1624
 20
12.1873
 30
0.0
 10
11.1624
 20
12.1873
 30
0.0
 10
10.9229
 20
12.1873
 30
0.0
 10
10.9229
 20
12.1873
 30
0.0
 10
10.9229
 20
12.1873
 30
0.0
 10
10.8576
 20
12.3261
 30
0.0
 10
10.7785
 20
12.4475
 30
0.0
 10
10.6859
 20
12.5514
 30
0.0
 10
10.6859
 20
12.5514
 30
0.0
 10
10.5927
 20
12.6549
 30
0.0
 10
10.5029
 20
12.7287
 30
0.0
 10
10.4154
 20
12.772
 30
0.0
 10
10.4154
 20
12.772
 30
0.0
 10
10.4154
 20
12.772
 30
0.0
 10
10.4154
 20
12.9315
 30
0.0
 10
10.4154
 20
12.9315
 30
0.0
 10
10.4154
 20
12.9315
 30
0.0
 10
10.4154
 20
12.9315
 30
0.0
 10
12.4441
 20
12.9315
 30
0.0
 10
12.4441
 20
12.9315
 30
0.0
  0
SPLINE
  5
7C
330
1F
100
AcDbEntity
  8
DATUMS
 62
   250
100
AcDbSpline
210
0.0
220
0.0
230
1.0
 70
    11
 71
     3
 72
    48
 73
    44
 74
     0
 42
0.0000000001
 43
0.0000000001
 40
0.0
 40
0.0
 40
0.0
 40
0.0
 40
0.0833333333333333
 40
0.0833333333333333
 40
0.0833333333333333
 40
0.0833333333333333
 40
0.1666666666666667
 40
0.1666666666666667
 40
0.1666666666666667
 40
0.1666666666666667
 40
0.25
 40
0.25
 40
0.25
 40
0.25
 40
0.3333333333333333
 40
0.3333333333333333
 40
0.3333333333333333
 40
0.3333333333333333
 40
0.4166666666666667
 40
0.4166666666666667
 40
0.4166666666666667
 40
0.4166666666666667
 40
0.5
 40
0.5
 40
0.5
 40
0.5
 40
0.5833333333333334
 40
0.5833333333333334
 40
0.5833333333333334
 40
0.5833333333333334
 40
0.6666666666666666
 40
0.6666666666666666
 40
0.6666666666666666
 40
0.6666666666666666
 40
0.75
 40
0.75
 40
0.75
 40
0.75
 40
0.8333333333333334
 40
0.8333333333333334
 40
0.8333333333333334
 40
0.8333333333333334
 40
1.0
 40
1.0
 40
1.0
 40
1.0
 10
12.4441
 20
14.3618
 30
0.0
 10
12.4441
 20
14.3618
 30
0.0
 10
11.9606
 20
14.3618
 30
0.0
 10
11.9606
 20
14.3618
 30
0.0
 10
11.9606
 20
14.3618
 30
0.0
 10
11.9606
 20
14.3618
 30
0.0
 10
11.9606
 20
13.4855
 30
0.0
 10
11.9606
 20
13.4855
 30
0.0
 10
11.9606
 20
13.4855
 30
0.0
 10
11.9606
 20
13.4855
 30
0.0
 10
11.7329
 20
13.4855
 30
0.0
 10
11.7329
 20
13.4855
 30
0.0
 10
11.7329
 20
13.4855
 30
0.0
 10
11.7329
 20
13.4855
 30
0.0
 10
10.4239
 20
14.4075
 30
0.0
 10
10.4239
 20
14.4075
 30
0.0
 10
10.4239
 20
14.4075
 30
0.0
 10
10.4239
 20
14.4075
 30
0.0
 10
10.4239
 20
14.6102
 30
0.0
 10
10.4239
 20
14.6102
 30
0.0
 10
10.4239
 20
14.6102
 30
0.0
 10
10.4239
 20
14.6102
 30
0.0
 10
11.7329
 20
14.6102
 30
0.0
 10
11.7329
 20
14.6102
 30
0.0
 10
11.7329
 20
14.6102
 30
0.0
 10
11.7329
 20
14.6102
 30
0.0
 10
11.7329
 20
14.883
 30
0.0
 10
11.7329
 20
14.883
 30
0.0
 10
11.7329
 20
14.883
 30
0.0
 10
11.7329
 20
14.883
 30
0.0
 10
11.9606
 20
14.883
 30
0.0
 10
11.9606
 20
14.883
 30
0.0
 10
11.9606
 20
14.883
 30
0.0
 10
11.9606
 20
14.883
 30
0.0
 10
11.9606
 20
14.6102
 30
0.0
 10
11.9606
 20
14.6102
 30
0.0
 10
11.9606
 20
14.6102
 30
0.0
 10
11.9606
 20
14.6102
 30
0.0
 10
12.4441
 20
14.6102
 30
0.0
 10
12.4441
 20
14.6102
 30
0.0
 10
12.4441
 20
14.6102
 30
0.0
 10
12.4441
 20
14.6102
 30
0.0
 10
12.4441
 20
14.3618
 30
0.0
 10
12.4441
 20
14.3618
 30
0.0
  0
SPLINE
  5
7D
330
1F
100
AcDbEntity
  8
DATUMS
 62
   250
100
AcDbSpline
210
0.0
220
0.0
230
1.0
 70
    11
 71
     3
 72
    16
 73
    12
 74
     0
 42
0.0000000001
 43
0.0000000001
 40
0.0
 40
0.0
 40
0.0
 40
0.0
 40
0.25
 40
0.25
 40
0.25
 40
0.25
 40
0.5
 40
0.5
 40
0.5
 40
0.5
 40
1.0
 40
1.0
 40
1.0
 40
1.0
 10
11.7329
 20
14.3618
 30
0.0
 10
11.7329
 20
14.3618
 30
0.0
 10
10.8223
 20
14.3618
 30
0.0
 10
10.8223
 20
14.3618
 30
0.0
 10
10.8223
 20
14.3618
 30
0.0
 10
10.8223
 20
14.3618
 30
0.0
 10
11.7329
 20
13.7297
 30
0.0
 10
11.7329
 20
13.7297
 30
0.0
 10
11.7329
 20
13.7297
 30
0.0
 10
11.7329
 20
13.7297
 30
0.0
 10
11.7329
 20
14.3618
 30
0.0
 10
11.7329
 20
14.3618
 30
0.0
  0
SPLINE
  5
7E
330
1F
100
AcDbEntity
  8
DATUMS
 62
   250
100
AcDbSpline
210
0.0
220
0.0
230
1.0
 70
    11
 71
     3
 72
    52
 73
    48
 74
     0
 42
0.0000000001
 43
0.0000000001
 40
0.0
 40
0.0
 40
0.0
 40
0.0
 40
0.0769230769230769
 40
0.0769230769230769
 40
0.0769230769230769
 40
0.0769230769230769
 40
0.1538461538461539
 40
0.1538461538461539
 40
0.1538461538461539
 40
0.1538461538461539
 40
0.2307692307692308
 40
0.2307692307692308
 40
0.2307692307692308
 40
0.2307692307692308
 40
0.3076923076923077
 40
0.3076923076923077
 40
0.3076923076923077
 40
0.3076923076923077
 40
0.3846153846153846
 40
0.3846153846153846
 40
0.3846153846153846
 40
0.3846153846153846
 40
0.4615384615384616
 40
0.4615384615384616
 40
0.4615384615384616
 40
0.4615384615384616
 40
0.5384615384615384
 40
0.5384615384615384
 40
0.5384615384615384
 40
0.5384615384615384
 40
0.6153846153846154
 40
0.6153846153846154
 40
0.6153846153846154
 40
0.6153846153846154
 40
0.6923076923076923
 40
0.6923076923076923
 40
0.6923076923076923
 40
0.6923076923076923
 40
0.7692307692307693
 40
0.7692307692307693
 40
0.7692307692307693
 40
0.7692307692307693
 40
0.8461538461538461
 40
0.8461538461538461
 40
0.8461538461538461
 40
0.8461538461538461
 40
1.0
 40
1.0
 40
1.0
 40
1.0
 10
11.4479
 20
15.1365
 30
0.0
 10
11.2089
 20
15.1365
 30
0.0
 10
11.0165
 20
15.161
 30
0.0
 10
10.8712
 20
15.2104
 30
0.0
 10
10.8712
 20
15.2104
 30
0.0
 10
10.7254
 20
15.2593
 30
0.0
 10
10.613
 20
15.3327
 30
0.0
 10
10.5339
 20
15.4296
 30
0.0
 10
10.5339
 20
15.4296
 30
0.0
 10
10.4549
 20
15.5265
 30
0.0
 10
10.4154
 20
15.6483
 30
0.0
 10
10.4154
 20
15.795
 30
0.0
 10
10.4154
 20
15.795
 30
0.0
 10
10.4154
 20
15.9037
 30
0.0
 10
10.4375
 20
15.9987
 30
0.0
 10
10.4813
 20
16.0805
 30
0.0
 10
10.4813
 20
16.0805
 30
0.0
 10
10.5245
 20
16.1624
 30
0.0
 10
10.5876
 20
16.2297
 30
0.0
 10
10.6699
 20
16.2833
 30
0.0
 10
10.6699
 20
16.2833
 30
0.0
 10
10.7522
 20
16.3364
 30
0.0
 10
10.8524
 20
16.3783
 30
0.0
 10
10.9704
 20
16.4084
 30
0.0
 10
10.9704
 20
16.4084
 30
0.0
 10
11.0885
 20
16.439
 30
0.0
 10
11.2475
 20
16.454
 30
0.0
 10
11.4479
 20
16.454
 30
0.0
 10
11.4479
 20
16.454
 30
0.0
 10
11.6849
 20
16.454
 30
0.0
 10
11.8759
 20
16.4296
 30
0.0
 10
12.0217
 20
16.3811
 30
0.0
 10
12.0217
 20
16.3811
 30
0.0
 10
12.1675
 20
16.3322
 30
0.0
 10
12.2799
 20
16.2593
 30
0.0
 10
12.3594
 20
16.1624
 30
0.0
 10
12.3594
 20
16.1624
 30
0.0
 10
12.4389
 20
16.0655
 30
0.0
 10
12.4784
 20
15.9432
 30
0.0
 10
12.4784
 20
15.795
 30
0.0
 10
12.4784
 20
15.795
 30
0.0
 10
12.4784
 20
15.6003
 30
0.0
 10
12.4088
 20
15.4474
 30
0.0
 10
12.2691
 20
15.3364
 30
0.0
 10
12.2691
 20
15.3364
 30
0.0
 10
12.1012
 20
15.2033
 30
0.0
 10
11.827
 20
15.1365
 30
0.0
 10
11.4479
 20
15.1365
 30
0.0
  0
SPLINE
  5
7F
330
1F
100
AcDbEntity
  8
DATUMS
 62
   250
100
AcDbSpline
210
0.0
220
0.0
230
1.0
 70
    11
 71
     3
 72
    36
 73
    32
 74
     0
 42
0.0000000001
 43
0.0000000001
 40
0.0
 40
0.0
 40
0.0
 40
0.0
 40
0.1111111111111111
 40
0.1111111111111111
 40
0.1111111111111111
 40
0.1111111111111111
 40
0.2222222222222222
 40
0.2222222222222222
 40
0.2222222222222222
 40
0.2222222222222222
 40
0.3333333333333333
 40
0.3333333333333333
 40
0.3333333333333333
 40
0.3333333333333333
 40
0.4444444444444444
 40
0.4444444444444444
 40
0.4444444444444444
 40
0.4444444444444444
 40
0.5555555555555556
 40
0.5555555555555556
 40
0.5555555555555556
 40
0.5555555555555556
 40
0.6666666666666666
 40
0.6666666666666666
 40
0.6666666666666666
 40
0.6666666666666666
 40
0.7777777777777778
 40
0.7777777777777778
 40
0.7777777777777778
 40
0.7777777777777778
 40
1.0
 40
1.0
 40
1.0
 40
1.0
 10
11.4479
 20
15.3915
 30
0.0
 10
11.7795
 20
15.3915
 30
0.0
 10
12.0001
 20
15.4305
 30
0.0
 10
12.1101
 20
15.5081
 30
0.0
 10
12.1101
 20
15.5081
 30
0.0
 10
12.2197
 20
15.5857
 30
0.0
 10
12.2748
 20
15.6812
 30
0.0
 10
12.2748
 20
15.795
 30
0.0
 10
12.2748
 20
15.795
 30
0.0
 10
12.2748
 20
15.9093
 30
0.0
 10
12.2193
 20
16.0048
 30
0.0
 10
12.1092
 20
16.0824
 30
0.0
 10
12.1092
 20
16.0824
 30
0.0
 10
11.9991
 20
16.16
 30
0.0
 10
11.7785
 20
16.1991
 30
0.0
 10
11.4479
 20
16.1991
 30
0.0
 10
11.4479
 20
16.1991
 30
0.0
 10
11.1153
 20
16.1991
 30
0.0
 10
10.8942
 20
16.16
 30
0.0
 10
10.7851
 20
16.0824
 30
0.0
 10
10.7851
 20
16.0824
 30
0.0
 10
10.6755
 20
16.0048
 30
0.0
 10
10.621
 20
15.9084
 30
0.0
 10
10.621
 20
15.7927
 30
0.0
 10
10.621
 20
15.7927
 30
0.0
 10
10.621
 20
15.6784
 30
0.0
 10
10.6694
 20
15.5876
 30
0.0
 10
10.7658
 20
15.5194
 30
0.0
 10
10.7658
 20
15.5194
 30
0.0
 10
10.8886
 20
15.4343
 30
0.0
 10
11.1163
 20
15.3915
 30
0.0
 10
11.4479
 20
15.3915
 30
0.0
  0
SPLINE
  5
80
330
1F
100
AcDbEntity
  8
DATUMS
 62
   250
100
AcDbSpline
210
0.0
220
0.0
230
1.0
 70
    11
 71
     3
 72
    20
 73
    16
 74
     0
 42
0.0000000001
 43
0.0000000001
 40
0.0
 40
0.0
 40
0.0
 40
0.0
 40
0.2
 40
0.2
 40
0.2
 40
0.2
 40
0.4
 40
0.4
 40
0.4
 40
0.4
 40
0.6
 40
0.6
 40
0.6
 40
0.6
 40
1.0
 40
1.0
 40
1.0
 40
1.0
 10
12.8952
 20
31.5306
 30
0.0
 10
12.8952
 20
31.5306
 30
0.0
 10
12.4572
 20
28.5306
 30
0.0
 10
12.4572
 20
28.5306
 30
0.0
 10
12.4572
 20
28.5306
 30
0.0
 10
12.4572
 20
28.5306
 30
0.0
 10
13.4241
 20
28.5306
 30
0.0
 10
13.4241
 20
28.5306
 30
0.0
 10
13.4241
 20
28.5306
 30
0.0
 10
13.4241
 20
28.5306
 30
0.0
 10
12.8965
 20
31.5306
 30
0.0
 10
12.8965
 20
31.5306
 30
0.0
 10
12.8965
 20
31.5306
 30
0.0
 10
12.8965
 20
31.5306
 30
0.0
 10
12.8952
 20
31.5306
 30
0.0
 10
12.8952
 20
31.5306
 30
0.0
  0
SPLINE
  5
81
330
1F
100
AcDbEntity
  8
DATUMS
 62
   250
100
AcDbSpline
210
0.0
220
0.0
230
1.0
 70
    11
 71
     3
 72
    20
 73
    16
 74
     0
 42
0.0000000001
 43
0.0000000001
 40
0.0
 40
0.0
 40
0.0
 40
0.0
 40
0.2
 40
0.2
 40
0.2
 40
0.2
 40
0.4
 40
0.4
 40
0.4
 40
0.4
 40
0.6
 40
0.6
 40
0.6
 40
0.6
 40
1.0
 40
1.0
 40
1.0
 40
1.0
 10
12.942
 20
-3.5961
 30
0.0
 10
12.942
 20
-3.5961
 30
0.0
 10
13.38
 20
-0.596
 30
0.0
 10
13.38
 20
-0.596
 30
0.0
 10
13.38
 20
-0.596
 30
0.0
 10
13.38
 20
-0.596
 30
0.0
 10
12.4131
 20
-0.596
 30
0.0
 10
12.4131
 20
-0.596
 30
0.0
 10
12.4131
 20
-0.596
 30
0.0
 10
12.4131
 20
-0.596
 30
0.0
 10
12.9407
 20
-3.5961
 30
0.0
 10
12.9407
 20
-3.5961
 30
0.0
 10
12.9407
 20
-3.5961
 30
0.0
 10
12.9407
 20
-3.5961
 30
0.0
 10
12.942
 20
-3.5961
 30
0.0
 10
12.942
 20
-3.5961
 30
0.0
  0
SPLINE
  5
82
330
1F
100
AcDbEntity
  8
DATUMS
 62
   250
100
AcDbSpline
210
0.0
220
0.0
230
1.0
 70
    24
 71
     3
 72
     8
 73
     4
 74
     0
 42
0.0000000001
 43
0.0000000001
 40
0.0
 40
0.0
 40
0.0
 40
0.0
 40
1.0
 40
1.0
 40
1.0
 40
1.0
 10
12.9092
 20
-3.4249
 30
0.0
 10
12.9092
 20
-3.4249
 30
0.0
 10
12.9092
 20
31.2799
 30
0.0
 10
12.9092
 20
31.2799
 30
0.0
  0
SPLINE
  5
83
330
1F
100
AcDbEntity
  8
DATUMS
  6
NEW_LINE14
 62
   250
100
AcDbSpline
210
0.0
220
0.0
230
1.0
 70
    24
 71
     3
 72
     8
 73
     4
 74
     0
 42
0.0000000001
 43
0.0000000001
 40
0.0
 40
0.0
 40
0.0
 40
0.0
 40
1.0
 40
1.0
 40
1.0
 40
1.0
 10
12.4535
 20
31.6143
 30
0.0
 10
12.4535
 20
31.6143
 30
0.0
 10
16.1319
 20
31.6143
 30
0.0
 10
16.1319
 20
31.6143
 30
0.0
  0
SPLINE
  5
85
330
1F
100
AcDbEntity
  8
DATUMS
  6
NEW_LINE15
 62
   250
100
AcDbSpline
210
0.0
220
0.0
230
1.0
 70
    24
 71
     3
 72
     8
 73
     4
 74
     0
 42
0.0000000001
 43
0.0000000001
 40
0.0
 40
0.0
 40
0.0
 40
0.0
 40
1.0
 40
1.0
 40
1.0
 40
1.0
 10
12.4938
 20
-3.7039
 30
0.0
 10
12.4938
 20
-3.7039
 30
0.0
 10
16.2146
 20
-3.7039
 30
0.0
 10
16.2146
 20
-3.7039
 30
0.0
  0
SPLINE
  5
87
330
1F
100
AcDbEntity
  8
DATUMS
 62
   250
100
AcDbSpline
210
0.0
220
0.0
230
1.0
 70
    11
 71
     3
 72
    92
 73
    88
 74
     0
 42
0.0000000001
 43
0.0000000001
 40
0.0
 40
0.0
 40
0.0
 40
0.0
 40
0.0434782608695652
 40
0.0434782608695652
 40
0.0434782608695652
 40
0.0434782608695652
 40
0.0869565217391304
 40
0.0869565217391304
 40
0.0869565217391304
 40
0.0869565217391304
 40
0.1304347826086956
 40
0.1304347826086956
 40
0.1304347826086956
 40
0.1304347826086956
 40
0.1739130434782609
 40
0.1739130434782609
 40
0.1739130434782609
 40
0.1739130434782609
 40
0.2173913043478261
 40
0.2173913043478261
 40
0.2173913043478261
 40
0.2173913043478261
 40
0.2608695652173913
 40
0.2608695652173913
 40
0.2608695652173913
 40
0.2608695652173913
 40
0.3043478260869565
 40
0.3043478260869565
 40
0.3043478260869565
 40
0.3043478260869565
 40
0.3478260869565217
 40
0.3478260869565217
 40
0.3478260869565217
 40
0.3478260869565217
 40
0.391304347826087
 40
0.391304347826087
 40
0.391304347826087
 40
0.391304347826087
 40
0.4347826086956522
 40
0.4347826086956522
 40
0.4347826086956522
 40
0.4347826086956522
 40
0.4782608695652174
 40
0.4782608695652174
 40
0.4782608695652174
 40
0.4782608695652174
 40
0.5217391304347826
 40
0.5217391304347826
 40
0.5217391304347826
 40
0.5217391304347826
 40
0.5652173913043478
 40
0.5652173913043478
 40
0.5652173913043478
 40
0.5652173913043478
 40
0.6086956521739131
 40
0.6086956521739131
 40
0.6086956521739131
 40
0.6086956521739131
 40
0.6521739130434783
 40
0.6521739130434783
 40
0.6521739130434783
 40
0.6521739130434783
 40
0.6956521739130435
 40
0.6956521739130435
 40
0.6956521739130435
 40
0.6956521739130435
 40
0.7391304347826086
 40
0.7391304347826086
 40
0.7391304347826086
 40
0.7391304347826086
 40
0.782608695652174
 40
0.782608695652174
 40
0.782608695652174
 40
0.782608695652174
 40
0.8260869565217391
 40
0.8260869565217391
 40
0.8260869565217391
 40
0.8260869565217391
 40
0.8695652173913043
 40
0.8695652173913043
 40
0.8695652173913043
 40
0.8695652173913043
 40
0.9130434782608695
 40
0.9130434782608695
 40
0.9130434782608695
 40
0.9130434782608695
 40
1.0
 40
1.0
 40
1.0
 40
1.0
 10
-18.0276
 20
-23.1544
 30
0.0
 10
-18.0276
 20
-23.1544
 30
0.0
 10
-17.7891
 20
-23.1544
 30
0.0
 10
-17.7891
 20
-23.1544
 30
0.0
 10
-17.7891
 20
-23.1544
 30
0.0
 10
-17.7891
 20
-23.1544
 30
0.0
 10
-17.7891
 20
-24.4898
 30
0.0
 10
-17.7891
 20
-24.4898
 30
0.0
 10
-17.7891
 20
-24.4898
 30
0.0
 10
-17.8488
 20
-24.4917
 30
0.0
 10
-17.9062
 20
-24.4823
 30
0.0
 10
-17.9613
 20
-24.4611
 30
0.0
 10
-17.9613
 20
-24.4611
 30
0.0
 10
-18.0525
 20
-24.4272
 30
0.0
 10
-18.1419
 20
-24.3727
 30
0.0
 10
-18.2303
 20
-24.2979
 30
0.0
 10
-18.2303
 20
-24.2979
 30
0.0
 10
-18.3183
 20
-24.2226
 30
0.0
 10
-18.4203
 20
-24.1144
 30
0.0
 10
-18.536
 20
-23.9733
 30
0.0
 10
-18.536
 20
-23.9733
 30
0.0
 10
-18.7162
 20
-23.7537
 30
0.0
 10
-18.8587
 20
-23.605
 30
0.0
 10
-18.9641
 20
-23.5279
 30
0.0
 10
-18.9641
 20
-23.5279
 30
0.0
 10
-19.069
 20
-23.4508
 30
0.0
 10
-19.1687
 20
-23.4122
 30
0.0
 10
-19.2623
 20
-23.4122
 30
0.0
 10
-19.2623
 20
-23.4122
 30
0.0
 10
-19.3606
 20
-23.4122
 30
0.0
 10
-19.4434
 20
-23.4475
 30
0.0
 10
-19.5111
 20
-23.5175
 30
0.0
 10
-19.5111
 20
-23.5175
 30
0.0
 10
-19.5784
 20
-23.5881
 30
0.0
 10
-19.6122
 20
-23.6798
 30
0.0
 10
-19.6122
 20
-23.7927
 30
0.0
 10
-19.6122
 20
-23.7927
 30
0.0
 10
-19.6122
 20
-23.9122
 30
0.0
 10
-19.5765
 20
-24.0077
 30
0.0
 10
-19.5045
 20
-24.0792
 30
0.0
 10
-19.5045
 20
-24.0792
 30
0.0
 10
-19.433
 20
-24.1511
 30
0.0
 10
-19.3338
 20
-24.1873
 30
0.0
 10
-19.2073
 20
-24.1883
 30
0.0
 10
-19.2073
 20
-24.1883
 30
0.0
 10
-19.2073
 20
-24.1883
 30
0.0
 10
-19.2331
 20
-24.4432
 30
0.0
 10
-19.2331
 20
-24.4432
 30
0.0
 10
-19.2331
 20
-24.4432
 30
0.0
 10
-19.4236
 20
-24.4258
 30
0.0
 10
-19.5685
 20
-24.36
 30
0.0
 10
-19.6682
 20
-24.2461
 30
0.0
 10
-19.6682
 20
-24.2461
 30
0.0
 10
-19.7679
 20
-24.1323
 30
0.0
 10
-19.8178
 20
-23.979
 30
0.0
 10
-19.8178
 20
-23.7871
 30
0.0
 10
-19.8178
 20
-23.7871
 30
0.0
 10
-19.8178
 20
-23.5933
 30
0.0
 10
-19.7637
 20
-23.4399
 30
0.0
 10
-19.6565
 20
-23.327
 30
0.0
 10
-19.6565
 20
-23.327
 30
0.0
 10
-19.5487
 20
-23.2137
 30
0.0
 10
-19.4156
 20
-23.1572
 30
0.0
 10
-19.2566
 20
-23.1572
 30
0.0
 10
-19.2566
 20
-23.1572
 30
0.0
 10
-19.1757
 20
-23.1572
 30
0.0
 10
-19.0962
 20
-23.1737
 30
0.0
 10
-19.0182
 20
-23.2071
 30
0.0
 10
-19.0182
 20
-23.2071
 30
0.0
 10
-18.9401
 20
-23.24
 30
0.0
 10
-18.8578
 20
-23.2951
 30
0.0
 10
-18.7717
 20
-23.3717
 30
0.0
 10
-18.7717
 20
-23.3717
 30
0.0
 10
-18.6851
 20
-23.4484
 30
0.0
 10
-18.5666
 20
-23.5759
 30
0.0
 10
-18.4161
 20
-23.7541
 30
0.0
 10
-18.4161
 20
-23.7541
 30
0.0
 10
-18.291
 20
-23.9028
 30
0.0
 10
-18.2063
 20
-23.9983
 30
0.0
 10
-18.1616
 20
-24.0406
 30
0.0
 10
-18.1616
 20
-24.0406
 30
0.0
 10
-18.1174
 20
-24.0829
 30
0.0
 10
-18.0727
 20
-24.1177
 30
0.0
 10
-18.0276
 20
-24.1455
 30
0.0
 10
-18.0276
 20
-24.1455
 30
0.0
 10
-18.0276
 20
-24.1455
 30
0.0
 10
-18.0276
 20
-23.1544
 30
0.0
 10
-18.0276
 20
-23.1544
 30
0.0
  0
SPLINE
  5
88
330
1F
100
AcDbEntity
  8
DATUMS
 62
   250
100
AcDbSpline
210
0.0
220
0.0
230
1.0
 70
    11
 71
     3
 72
    80
 73
    76
 74
     0
 42
0.0000000001
 43
0.0000000001
 40
0.0
 40
0.0
 40
0.0
 40
0.0
 40
0.05
 40
0.05
 40
0.05
 40
0.05
 40
0.1
 40
0.1
 40
0.1
 40
0.1
 40
0.15
 40
0.15
 40
0.15
 40
0.15
 40
0.2
 40
0.2
 40
0.2
 40
0.2
 40
0.25
 40
0.25
 40
0.25
 40
0.25
 40
0.3
 40
0.3
 40
0.3
 40
0.3
 40
0.35
 40
0.35
 40
0.35
 40
0.35
 40
0.4
 40
0.4
 40
0.4
 40
0.4
 40
0.45
 40
0.45
 40
0.45
 40
0.45
 40
0.5
 40
0.5
 40
0.5
 40
0.5
 40
0.55
 40
0.55
 40
0.55
 40
0.55
 40
0.6
 40
0.6
 40
0.6
 40
0.6
 40
0.65
 40
0.65
 40
0.65
 40
0.65
 40
0.7
 40
0.7
 40
0.7
 40
0.7
 40
0.75
 40
0.75
 40
0.75
 40
0.75
 40
0.8
 40
0.8
 40
0.8
 40
0.8
 40
0.85
 40
0.85
 40
0.85
 40
0.85
 40
0.9
 40
0.9
 40
0.9
 40
0.9
 40
1.0
 40
1.0
 40
1.0
 40
1.0
 10
-19.3145
 20
-21.6018
 30
0.0
 10
-19.3145
 20
-21.6018
 30
0.0
 10
-19.2952
 20
-21.8482
 30
0.0
 10
-19.2952
 20
-21.8482
 30
0.0
 10
-19.2952
 20
-21.8482
 30
0.0
 10
-19.3926
 20
-21.8703
 30
0.0
 10
-19.4636
 20
-21.9014
 30
0.0
 10
-19.5073
 20
-21.9418
 30
0.0
 10
-19.5073
 20
-21.9418
 30
0.0
 10
-19.5784
 20
-22.0091
 30
0.0
 10
-19.6137
 20
-22.0919
 30
0.0
 10
-19.6137
 20
-22.1902
 30
0.0
 10
-19.6137
 20
-22.1902
 30
0.0
 10
-19.6137
 20
-22.2692
 30
0.0
 10
-19.5915
 20
-22.3383
 30
0.0
 10
-19.5473
 20
-22.3981
 30
0.0
 10
-19.5473
 20
-22.3981
 30
0.0
 10
-19.4904
 20
-22.4762
 30
0.0
 10
-19.4072
 20
-22.5378
 30
0.0
 10
-19.298
 20
-22.5829
 30
0.0
 10
-19.298
 20
-22.5829
 30
0.0
 10
-19.1889
 20
-22.6276
 30
0.0
 10
-19.0332
 20
-22.6511
 30
0.0
 10
-18.831
 20
-22.653
 30
0.0
 10
-18.831
 20
-22.653
 30
0.0
 10
-18.9217
 20
-22.5933
 30
0.0
 10
-18.9895
 20
-22.5204
 30
0.0
 10
-19.0337
 20
-22.4338
 30
0.0
 10
-19.0337
 20
-22.4338
 30
0.0
 10
-19.0774
 20
-22.3478
 30
0.0
 10
-19.0995
 20
-22.257
 30
0.0
 10
-19.0995
 20
-22.1624
 30
0.0
 10
-19.0995
 20
-22.1624
 30
0.0
 10
-19.0995
 20
-21.9969
 30
0.0
 10
-19.0389
 20
-21.8562
 30
0.0
 10
-18.917
 20
-21.74
 30
0.0
 10
-18.917
 20
-21.74
 30
0.0
 10
-18.7952
 20
-21.6239
 30
0.0
 10
-18.6381
 20
-21.5655
 30
0.0
 10
-18.4453
 20
-21.5655
 30
0.0
 10
-18.4453
 20
-21.5655
 30
0.0
 10
-18.3183
 20
-21.5655
 30
0.0
 10
-18.2007
 20
-21.5933
 30
0.0
 10
-18.0915
 20
-21.6479
 30
0.0
 10
-18.0915
 20
-21.6479
 30
0.0
 10
-17.9829
 20
-21.7024
 30
0.0
 10
-17.8992
 20
-21.7777
 30
0.0
 10
-17.8413
 20
-21.8732
 30
0.0
 10
-17.8413
 20
-21.8732
 30
0.0
 10
-17.7835
 20
-21.9686
 30
0.0
 10
-17.7548
 20
-22.0768
 30
0.0
 10
-17.7548
 20
-22.1982
 30
0.0
 10
-17.7548
 20
-22.1982
 30
0.0
 10
-17.7548
 20
-22.4051
 30
0.0
 10
-17.8305
 20
-22.5735
 30
0.0
 10
-17.9829
 20
-22.7038
 30
0.0
 10
-17.9829
 20
-22.7038
 30
0.0
 10
-18.1348
 20
-22.8346
 30
0.0
 10
-18.3855
 20
-22.8995
 30
0.0
 10
-18.7345
 20
-22.8995
 30
0.0
 10
-18.7345
 20
-22.8995
 30
0.0
 10
-19.1249
 20
-22.8995
 30
0.0
 10
-19.4086
 20
-22.8275
 30
0.0
 10
-19.5859
 20
-22.6831
 30
0.0
 10
-19.5859
 20
-22.6831
 30
0.0
 10
-19.7402
 20
-22.5575
 30
0.0
 10
-19.8178
 20
-22.3882
 30
0.0
 10
-19.8178
 20
-22.1747
 30
0.0
 10
-19.8178
 20
-22.1747
 30
0.0
 10
-19.8178
 20
-22.0161
 30
0.0
 10
-19.7731
 20
-21.8859
 30
0.0
 10
-19.6837
 20
-21.7843
 30
0.0
 10
-19.6837
 20
-21.7843
 30
0.0
 10
-19.5948
 20
-21.6827
 30
0.0
 10
-19.4716
 20
-21.622
 30
0.0
 10
-19.3145
 20
-21.6018
 30
0.0
  0
SPLINE
  5
89
330
1F
100
AcDbEntity
  8
DATUMS
 62
   250
100
AcDbSpline
210
0.0
220
0.0
230
1.0
 70
    11
 71
     3
 72
    40
 73
    36
 74
     0
 42
0.0000000001
 43
0.0000000001
 40
0.0
 40
0.0
 40
0.0
 40
0.0
 40
0.1
 40
0.1
 40
0.1
 40
0.1
 40
0.2
 40
0.2
 40
0.2
 40
0.2
 40
0.3
 40
0.3
 40
0.3
 40
0.3
 40
0.4
 40
0.4
 40
0.4
 40
0.4
 40
0.5
 40
0.5
 40
0.5
 40
0.5
 40
0.6
 40
0.6
 40
0.6
 40
0.6
 40
0.7
 40
0.7
 40
0.7
 40
0.7
 40
0.8
 40
0.8
 40
0.8
 40
0.8
 40
1.0
 40
1.0
 40
1.0
 40
1.0
 10
-18.4439
 20
-22.6145
 30
0.0
 10
-18.3582
 20
-22.6145
 30
0.0
 10
-18.2764
 20
-22.5961
 30
0.0
 10
-18.1983
 20
-22.5599
 30
0.0
 10
-18.1983
 20
-22.5599
 30
0.0
 10
-18.1202
 20
-22.5237
 30
0.0
 10
-18.061
 20
-22.4729
 30
0.0
 10
-18.0201
 20
-22.408
 30
0.0
 10
-18.0201
 20
-22.408
 30
0.0
 10
-17.9791
 20
-22.3426
 30
0.0
 10
-17.9584
 20
-22.2739
 30
0.0
 10
-17.9584
 20
-22.2024
 30
0.0
 10
-17.9584
 20
-22.2024
 30
0.0
 10
-17.9584
 20
-22.0975
 30
0.0
 10
-18.0008
 20
-22.0077
 30
0.0
 10
-18.0854
 20
-21.9324
 30
0.0
 10
-18.0854
 20
-21.9324
 30
0.0
 10
-18.1701
 20
-21.8572
 30
0.0
 10
-18.2849
 20
-21.8195
 30
0.0
 10
-18.4297
 20
-21.8195
 30
0.0
 10
-18.4297
 20
-21.8195
 30
0.0
 10
-18.5694
 20
-21.8195
 30
0.0
 10
-18.6795
 20
-21.8567
 30
0.0
 10
-18.7599
 20
-21.931
 30
0.0
 10
-18.7599
 20
-21.931
 30
0.0
 10
-18.8404
 20
-22.0053
 30
0.0
 10
-18.8804
 20
-22.0989
 30
0.0
 10
-18.8804
 20
-22.2118
 30
0.0
 10
-18.8804
 20
-22.2118
 30
0.0
 10
-18.8804
 20
-22.3242
 30
0.0
 10
-18.8404
 20
-22.4193
 30
0.0
 10
-18.7599
 20
-22.4973
 30
0.0
 10
-18.7599
 20
-22.4973
 30
0.0
 10
-18.6795
 20
-22.5754
 30
0.0
 10
-18.5741
 20
-22.6145
 30
0.0
 10
-18.4439
 20
-22.6145
 30
0.0
  0
SPLINE
  5
8A
330
1F
100
AcDbEntity
  8
DATUMS
 62
   250
100
AcDbSpline
210
0.0
220
0.0
230
1.0
 70
    11
 71
     3
 72
    20
 73
    16
 74
     0
 42
0.0000000001
 43
0.0000000001
 40
0.0
 40
0.0
 40
0.0
 40
0.0
 40
0.2
 40
0.2
 40
0.2
 40
0.2
 40
0.4
 40
0.4
 40
0.4
 40
0.4
 40
0.6
 40
0.6
 40
0.6
 40
0.6
 40
1.0
 40
1.0
 40
1.0
 40
1.0
 10
-17.327
 20
-26.3341
 30
0.0
 10
-17.327
 20
-26.3341
 30
0.0
 10
-17.765
 20
-29.3341
 30
0.0
 10
-17.765
 20
-29.3341
 30
0.0
 10
-17.765
 20
-29.3341
 30
0.0
 10
-17.765
 20
-29.3341
 30
0.0
 10
-16.7981
 20
-29.3341
 30
0.0
 10
-16.7981
 20
-29.3341
 30
0.0
 10
-16.7981
 20
-29.3341
 30
0.0
 10
-16.7981
 20
-29.3341
 30
0.0
 10
-17.3257
 20
-26.3341
 30
0.0
 10
-17.3257
 20
-26.3341
 30
0.0
 10
-17.3257
 20
-26.3341
 30
0.0
 10
-17.3257
 20
-26.3341
 30
0.0
 10
-17.327
 20
-26.3341
 30
0.0
 10
-17.327
 20
-26.3341
 30
0.0
  0
SPLINE
  5
8B
330
1F
100
AcDbEntity
  8
DATUMS
 62
   250
100
AcDbSpline
210
0.0
220
0.0
230
1.0
 70
    11
 71
     3
 72
    20
 73
    16
 74
     0
 42
0.0000000001
 43
0.0000000001
 40
0.0
 40
0.0
 40
0.0
 40
0.0
 40
0.2
 40
0.2
 40
0.2
 40
0.2
 40
0.4
 40
0.4
 40
0.4
 40
0.4
 40
0.6
 40
0.6
 40
0.6
 40
0.6
 40
1.0
 40
1.0
 40
1.0
 40
1.0
 10
-17.3078
 20
-19.6239
 30
0.0
 10
-17.3078
 20
-19.6239
 30
0.0
 10
-16.8698
 20
-16.6238
 30
0.0
 10
-16.8698
 20
-16.6238
 30
0.0
 10
-16.8698
 20
-16.6238
 30
0.0
 10
-16.8698
 20
-16.6238
 30
0.0
 10
-17.8367
 20
-16.6238
 30
0.0
 10
-17.8367
 20
-16.6238
 30
0.0
 10
-17.8367
 20
-16.6238
 30
0.0
 10
-17.8367
 20
-16.6238
 30
0.0
 10
-17.3091
 20
-19.6239
 30
0.0
 10
-17.3091
 20
-19.6239
 30
0.0
 10
-17.3091
 20
-19.6239
 30
0.0
 10
-17.3091
 20
-19.6239
 30
0.0
 10
-17.3078
 20
-19.6239
 30
0.0
 10
-17.3078
 20
-19.6239
 30
0.0
  0
SPLINE
  5
8C
330
1F
100
AcDbEntity
  8
DATUMS
 62
   250
100
AcDbSpline
210
0.0
220
0.0
230
1.0
 70
    24
 71
     3
 72
     8
 73
     4
 74
     0
 42
0.0000000001
 43
0.0000000001
 40
0.0
 40
0.0
 40
0.0
 40
0.0
 40
1.0
 40
1.0
 40
1.0
 40
1.0
 10
-17.3241
 20
-30.5034
 30
0.0
 10
-17.3241
 20
-30.5034
 30
0.0
 10
-17.3241
 20
-15.8631
 30
0.0
 10
-17.3241
 20
-15.8631
 30
0.0
  0
SPLINE
  5
8D
330
1F
100
AcDbEntity
  8
DATUMS
 62
   250
100
AcDbSpline
210
0.0
220
0.0
230
1.0
 70
    11
 71
     3
 72
   120
 73
   116
 74
     0
 42
0.0000000001
 43
0.0000000001
 40
0.0
 40
0.0
 40
0.0
 40
0.0
 40
0.0333333333333333
 40
0.0333333333333333
 40
0.0333333333333333
 40
0.0333333333333333
 40
0.0666666666666667
 40
0.0666666666666667
 40
0.0666666666666667
 40
0.0666666666666667
 40
0.1
 40
0.1
 40
0.1
 40
0.1
 40
0.1333333333333333
 40
0.1333333333333333
 40
0.1333333333333333
 40
0.1333333333333333
 40
0.1666666666666667
 40
0.1666666666666667
 40
0.1666666666666667
 40
0.1666666666666667
 40
0.2
 40
0.2
 40
0.2
 40
0.2
 40
0.2333333333333333
 40
0.2333333333333333
 40
0.2333333333333333
 40
0.2333333333333333
 40
0.2666666666666667
 40
0.2666666666666667
 40
0.2666666666666667
 40
0.2666666666666667
 40
0.3
 40
0.3
 40
0.3
 40
0.3
 40
0.3333333333333333
 40
0.3333333333333333
 40
0.3333333333333333
 40
0.3333333333333333
 40
0.3666666666666666
 40
0.3666666666666666
 40
0.3666666666666666
 40
0.3666666666666666
 40
0.4
 40
0.4
 40
0.4
 40
0.4
 40
0.4333333333333333
 40
0.4333333333333333
 40
0.4333333333333333
 40
0.4333333333333333
 40
0.4666666666666667
 40
0.4666666666666667
 40
0.4666666666666667
 40
0.4666666666666667
 40
0.5
 40
0.5
 40
0.5
 40
0.5
 40
0.5333333333333333
 40
0.5333333333333333
 40
0.5333333333333333
 40
0.5333333333333333
 40
0.5666666666666667
 40
0.5666666666666667
 40
0.5666666666666667
 40
0.5666666666666667
 40
0.6
 40
0.6
 40
0.6
 40
0.6
 40
0.6333333333333333
 40
0.6333333333333333
 40
0.6333333333333333
 40
0.6333333333333333
 40
0.6666666666666666
 40
0.6666666666666666
 40
0.6666666666666666
 40
0.6666666666666666
 40
0.7
 40
0.7
 40
0.7
 40
0.7
 40
0.7333333333333333
 40
0.7333333333333333
 40
0.7333333333333333
 40
0.7333333333333333
 40
0.7666666666666667
 40
0.7666666666666667
 40
0.7666666666666667
 40
0.7666666666666667
 40
0.8
 40
0.8
 40
0.8
 40
0.8
 40
0.8333333333333334
 40
0.8333333333333334
 40
0.8333333333333334
 40
0.8333333333333334
 40
0.8666666666666667
 40
0.8666666666666667
 40
0.8666666666666667
 40
0.8666666666666667
 40
0.9
 40
0.9
 40
0.9
 40
0.9
 40
0.9333333333333333
 40
0.9333333333333333
 40
0.9333333333333333
 40
0.9333333333333333
 40
1.0
 40
1.0
 40
1.0
 40
1.0
 10
20.4978
 20
41.4425
 30
0.0
 10
20.4978
 20
41.4425
 30
0.0
 10
20.4978
 20
41.6791
 30
0.0
 10
20.4978
 20
41.6791
 30
0.0
 10
20.4978
 20
41.6791
 30
0.0
 10
20.4978
 20
41.6791
 30
0.0
 10
21.3534
 20
41.6805
 30
0.0
 10
21.3534
 20
41.6805
 30
0.0
 10
21.3534
 20
41.6805
 30
0.0
 10
21.3534
 20
41.6805
 30
0.0
 10
21.3534
 20
40.9312
 30
0.0
 10
21.3534
 20
40.9312
 30
0.0
 10
21.3534
 20
40.9312
 30
0.0
 10
21.2222
 20
40.8263
 30
0.0
 10
21.0867
 20
40.7477
 30
0.0
 10
20.947
 20
40.6946
 30
0.0
 10
20.947
 20
40.6946
 30
0.0
 10
20.8073
 20
40.6419
 30
0.0
 10
20.6639
 20
40.6156
 30
0.0
 10
20.5171
 20
40.6156
 30
0.0
 10
20.5171
 20
40.6156
 30
0.0
 10
20.3186
 20
40.6156
 30
0.0
 10
20.138
 20
40.6579
 30
0.0
 10
19.9762
 20
40.743
 30
0.0
 10
19.9762
 20
40.743
 30
0.0
 10
19.8139
 20
40.8277
 30
0.0
 10
19.6916
 20
40.9509
 30
0.0
 10
19.6088
 20
41.1113
 30
0.0
 10
19.6088
 20
41.1113
 30
0.0
 10
19.526
 20
41.2722
 30
0.0
 10
19.4846
 20
41.4519
 30
0.0
 10
19.4846
 20
41.6504
 30
0.0
 10
19.4846
 20
41.6504
 30
0.0
 10
19.4846
 20
41.847
 30
0.0
 10
19.526
 20
42.0304
 30
0.0
 10
19.6084
 20
42.2007
 30
0.0
 10
19.6084
 20
42.2007
 30
0.0
 10
19.6902
 20
42.3714
 30
0.0
 10
19.8087
 20
42.498
 30
0.0
 10
19.963
 20
42.5808
 30
0.0
 10
19.963
 20
42.5808
 30
0.0
 10
20.1173
 20
42.6631
 30
0.0
 10
20.2951
 20
42.7045
 30
0.0
 10
20.4964
 20
42.7045
 30
0.0
 10
20.4964
 20
42.7045
 30
0.0
 10
20.6422
 20
42.7045
 30
0.0
 10
20.7744
 20
42.6809
 30
0.0
 10
20.8925
 20
42.6334
 30
0.0
 10
20.8925
 20
42.6334
 30
0.0
 10
21.0105
 20
42.5864
 30
0.0
 10
21.1032
 20
42.5205
 30
0.0
 10
21.17
 20
42.4359
 30
0.0
 10
21.17
 20
42.4359
 30
0.0
 10
21.2372
 20
42.3512
 30
0.0
 10
21.288
 20
42.2412
 30
0.0
 10
21.3233
 20
42.1052
 30
0.0
 10
21.3233
 20
42.1052
 30
0.0
 10
21.3233
 20
42.1052
 30
0.0
 10
21.082
 20
42.0389
 30
0.0
 10
21.082
 20
42.0389
 30
0.0
 10
21.082
 20
42.0389
 30
0.0
 10
21.0514
 20
42.1419
 30
0.0
 10
21.0138
 20
42.2228
 30
0.0
 10
20.9691
 20
42.2816
 30
0.0
 10
20.9691
 20
42.2816
 30
0.0
 10
20.924
 20
42.3404
 30
0.0
 10
20.8595
 20
42.3874
 30
0.0
 10
20.7758
 20
42.4227
 30
0.0
 10
20.7758
 20
42.4227
 30
0.0
 10
20.6925
 20
42.458
 30
0.0
 10
20.5994
 20
42.4759
 30
0.0
 10
20.4978
 20
42.4759
 30
0.0
 10
20.4978
 20
42.4759
 30
0.0
 10
20.3755
 20
42.4759
 30
0.0
 10
20.2697
 20
42.457
 30
0.0
 10
20.1808
 20
42.4199
 30
0.0
 10
20.1808
 20
42.4199
 30
0.0
 10
20.0914
 20
42.3827
 30
0.0
 10
20.0199
 20
42.3338
 30
0.0
 10
19.9649
 20
42.2731
 30
0.0
 10
19.9649
 20
42.2731
 30
0.0
 10
19.9103
 20
42.2125
 30
0.0
 10
19.868
 20
42.1461
 30
0.0
 10
19.8374
 20
42.0732
 30
0.0
 10
19.8374
 20
42.0732
 30
0.0
 10
19.7862
 20
41.9486
 30
0.0
 10
19.7603
 20
41.8131
 30
0.0
 10
19.7603
 20
41.6668
 30
0.0
 10
19.7603
 20
41.6668
 30
0.0
 10
19.7603
 20
41.4867
 30
0.0
 10
19.7913
 20
41.3362
 30
0.0
 10
19.8534
 20
41.2148
 30
0.0
 10
19.8534
 20
41.2148
 30
0.0
 10
19.9155
 20
41.0935
 30
0.0
 10
20.0058
 20
41.0036
 30
0.0
 10
20.1243
 20
40.9448
 30
0.0
 10
20.1243
 20
40.9448
 30
0.0
 10
20.2429
 20
40.886
 30
0.0
 10
20.3685
 20
40.8564
 30
0.0
 10
20.5016
 20
40.8564
 30
0.0
 10
20.5016
 20
40.8564
 30
0.0
 10
20.6178
 20
40.8564
 30
0.0
 10
20.7306
 20
40.879
 30
0.0
 10
20.8407
 20
40.9237
 30
0.0
 10
20.8407
 20
40.9237
 30
0.0
 10
20.9513
 20
40.9679
 30
0.0
 10
21.0345
 20
41.0154
 30
0.0
 10
21.0914
 20
41.0662
 30
0.0
 10
21.0914
 20
41.0662
 30
0.0
 10
21.0914
 20
41.0662
 30
0.0
 10
21.0914
 20
41.4425
 30
0.0
 10
21.0914
 20
41.4425
 30
0.0
 10
21.0914
 20
41.4425
 30
0.0
 10
21.0914
 20
41.4425
 30
0.0
 10
20.4978
 20
41.4425
 30
0.0
 10
20.4978
 20
41.4425
 30
0.0
  0
SPLINE
  5
8E
330
1F
100
AcDbEntity
  8
DATUMS
 62
   250
100
AcDbSpline
210
0.0
220
0.0
230
1.0
 70
    11
 71
     3
 72
    40
 73
    36
 74
     0
 42
0.0000000001
 43
0.0000000001
 40
0.0
 40
0.0
 40
0.0
 40
0.0
 40
0.1
 40
0.1
 40
0.1
 40
0.1
 40
0.2
 40
0.2
 40
0.2
 40
0.2
 40
0.3
 40
0.3
 40
0.3
 40
0.3
 40
0.4
 40
0.4
 40
0.4
 40
0.4
 40
0.5
 40
0.5
 40
0.5
 40
0.5
 40
0.6
 40
0.6
 40
0.6
 40
0.6
 40
0.7
 40
0.7
 40
0.7
 40
0.7
 40
0.8
 40
0.8
 40
0.8
 40
0.8
 40
1.0
 40
1.0
 40
1.0
 40
1.0
 10
23.3652
 20
40.6499
 30
0.0
 10
23.3652
 20
40.6499
 30
0.0
 10
23.1173
 20
40.6499
 30
0.0
 10
23.1173
 20
40.6499
 30
0.0
 10
23.1173
 20
40.6499
 30
0.0
 10
23.1173
 20
40.6499
 30
0.0
 10
23.1173
 20
42.2303
 30
0.0
 10
23.1173
 20
42.2303
 30
0.0
 10
23.1173
 20
42.2303
 30
0.0
 10
23.0575
 20
42.1734
 30
0.0
 10
22.9795
 20
42.1165
 30
0.0
 10
22.8826
 20
42.0596
 30
0.0
 10
22.8826
 20
42.0596
 30
0.0
 10
22.7852
 20
42.0027
 30
0.0
 10
22.6982
 20
41.9599
 30
0.0
 10
22.621
 20
41.9316
 30
0.0
 10
22.621
 20
41.9316
 30
0.0
 10
22.621
 20
41.9316
 30
0.0
 10
22.621
 20
42.1711
 30
0.0
 10
22.621
 20
42.1711
 30
0.0
 10
22.621
 20
42.1711
 30
0.0
 10
22.7598
 20
42.2364
 30
0.0
 10
22.8812
 20
42.3155
 30
0.0
 10
22.9851
 20
42.4081
 30
0.0
 10
22.9851
 20
42.4081
 30
0.0
 10
23.0886
 20
42.5013
 30
0.0
 10
23.1624
 20
42.5911
 30
0.0
 10
23.2057
 20
42.6786
 30
0.0
 10
23.2057
 20
42.6786
 30
0.0
 10
23.2057
 20
42.6786
 30
0.0
 10
23.3652
 20
42.6786
 30
0.0
 10
23.3652
 20
42.6786
 30
0.0
 10
23.3652
 20
42.6786
 30
0.0
 10
23.3652
 20
42.6786
 30
0.0
 10
23.3652
 20
40.6499
 30
0.0
 10
23.3652
 20
40.6499
 30
0.0
  0
SPLINE
  5
8F
330
1F
100
AcDbEntity
  8
DATUMS
 62
   250
100
AcDbSpline
210
0.0
220
0.0
230
1.0
 70
    11
 71
     3
 72
    20
 73
    16
 74
     0
 42
0.0000000001
 43
0.0000000001
 40
0.0
 40
0.0
 40
0.0
 40
0.0
 40
0.2
 40
0.2
 40
0.2
 40
0.2
 40
0.4
 40
0.4
 40
0.4
 40
0.4
 40
0.6
 40
0.6
 40
0.6
 40
0.6
 40
1.0
 40
1.0
 40
1.0
 40
1.0
 10
23.8835
 20
40.6156
 30
0.0
 10
23.8835
 20
40.6156
 30
0.0
 10
24.4691
 20
42.7045
 30
0.0
 10
24.4691
 20
42.7045
 30
0.0
 10
24.4691
 20
42.7045
 30
0.0
 10
24.4691
 20
42.7045
 30
0.0
 10
24.6676
 20
42.7045
 30
0.0
 10
24.6676
 20
42.7045
 30
0.0
 10
24.6676
 20
42.7045
 30
0.0
 10
24.6676
 20
42.7045
 30
0.0
 10
24.0834
 20
40.6156
 30
0.0
 10
24.0834
 20
40.6156
 30
0.0
 10
24.0834
 20
40.6156
 30
0.0
 10
24.0834
 20
40.6156
 30
0.0
 10
23.8835
 20
40.6156
 30
0.0
 10
23.8835
 20
40.6156
 30
0.0
  0
SPLINE
  5
90
330
1F
100
AcDbEntity
  8
DATUMS
 62
   250
100
AcDbSpline
210
0.0
220
0.0
230
1.0
 70
    11
 71
     3
 72
    92
 73
    88
 74
     0
 42
0.0000000001
 43
0.0000000001
 40
0.0
 40
0.0
 40
0.0
 40
0.0
 40
0.0434782608695652
 40
0.0434782608695652
 40
0.0434782608695652
 40
0.0434782608695652
 40
0.0869565217391304
 40
0.0869565217391304
 40
0.0869565217391304
 40
0.0869565217391304
 40
0.1304347826086956
 40
0.1304347826086956
 40
0.1304347826086956
 40
0.1304347826086956
 40
0.1739130434782609
 40
0.1739130434782609
 40
0.1739130434782609
 40
0.1739130434782609
 40
0.2173913043478261
 40
0.2173913043478261
 40
0.2173913043478261
 40
0.2173913043478261
 40
0.2608695652173913
 40
0.2608695652173913
 40
0.2608695652173913
 40
0.2608695652173913
 40
0.3043478260869565
 40
0.3043478260869565
 40
0.3043478260869565
 40
0.3043478260869565
 40
0.3478260869565217
 40
0.3478260869565217
 40
0.3478260869565217
 40
0.3478260869565217
 40
0.391304347826087
 40
0.391304347826087
 40
0.391304347826087
 40
0.391304347826087
 40
0.4347826086956522
 40
0.4347826086956522
 40
0.4347826086956522
 40
0.4347826086956522
 40
0.4782608695652174
 40
0.4782608695652174
 40
0.4782608695652174
 40
0.4782608695652174
 40
0.5217391304347826
 40
0.5217391304347826
 40
0.5217391304347826
 40
0.5217391304347826
 40
0.5652173913043478
 40
0.5652173913043478
 40
0.5652173913043478
 40
0.5652173913043478
 40
0.6086956521739131
 40
0.6086956521739131
 40
0.6086956521739131
 40
0.6086956521739131
 40
0.6521739130434783
 40
0.6521739130434783
 40
0.6521739130434783
 40
0.6521739130434783
 40
0.6956521739130435
 40
0.6956521739130435
 40
0.6956521739130435
 40
0.6956521739130435
 40
0.7391304347826086
 40
0.7391304347826086
 40
0.7391304347826086
 40
0.7391304347826086
 40
0.782608695652174
 40
0.782608695652174
 40
0.782608695652174
 40
0.782608695652174
 40
0.8260869565217391
 40
0.8260869565217391
 40
0.8260869565217391
 40
0.8260869565217391
 40
0.8695652173913043
 40
0.8695652173913043
 40
0.8695652173913043
 40
0.8695652173913043
 40
0.9130434782608695
 40
0.9130434782608695
 40
0.9130434782608695
 40
0.9130434782608695
 40
1.0
 40
1.0
 40
1.0
 40
1.0
 10
26.0886
 20
40.8884
 30
0.0
 10
26.0886
 20
40.8884
 30
0.0
 10
26.0886
 20
40.6499
 30
0.0
 10
26.0886
 20
40.6499
 30
0.0
 10
26.0886
 20
40.6499
 30
0.0
 10
26.0886
 20
40.6499
 30
0.0
 10
24.7532
 20
40.6499
 30
0.0
 10
24.7532
 20
40.6499
 30
0.0
 10
24.7532
 20
40.6499
 30
0.0
 10
24.7513
 20
40.7096
 30
0.0
 10
24.7607
 20
40.767
 30
0.0
 10
24.7819
 20
40.8221
 30
0.0
 10
24.7819
 20
40.8221
 30
0.0
 10
24.8158
 20
40.9133
 30
0.0
 10
24.8703
 20
41.0027
 30
0.0
 10
24.9451
 20
41.0911
 30
0.0
 10
24.9451
 20
41.0911
 30
0.0
 10
25.0204
 20
41.1791
 30
0.0
 10
25.1286
 20
41.2811
 30
0.0
 10
25.2697
 20
41.3968
 30
0.0
 10
25.2697
 20
41.3968
 30
0.0
 10
25.4893
 20
41.577
 30
0.0
 10
25.638
 20
41.7195
 30
0.0
 10
25.7151
 20
41.8249
 30
0.0
 10
25.7151
 20
41.8249
 30
0.0
 10
25.7922
 20
41.9298
 30
0.0
 10
25.8308
 20
42.0295
 30
0.0
 10
25.8308
 20
42.1231
 30
0.0
 10
25.8308
 20
42.1231
 30
0.0
 10
25.8308
 20
42.2214
 30
0.0
 10
25.7955
 20
42.3042
 30
0.0
 10
25.7255
 20
42.3719
 30
0.0
 10
25.7255
 20
42.3719
 30
0.0
 10
25.6549
 20
42.4392
 30
0.0
 10
25.5632
 20
42.473
 30
0.0
 10
25.4503
 20
42.473
 30
0.0
 10
25.4503
 20
42.473
 30
0.0
 10
25.3308
 20
42.473
 30
0.0
 10
25.2353
 20
42.4373
 30
0.0
 10
25.1638
 20
42.3653
 30
0.0
 10
25.1638
 20
42.3653
 30
0.0
 10
25.0919
 20
42.2938
 30
0.0
 10
25.0557
 20
42.1946
 30
0.0
 10
25.0547
 20
42.0681
 30
0.0
 10
25.0547
 20
42.0681
 30
0.0
 10
25.0547
 20
42.0681
 30
0.0
 10
24.7998
 20
42.0939
 30
0.0
 10
24.7998
 20
42.0939
 30
0.0
 10
24.7998
 20
42.0939
 30
0.0
 10
24.8172
 20
42.2844
 30
0.0
 10
24.883
 20
42.4293
 30
0.0
 10
24.9969
 20
42.529
 30
0.0
 10
24.9969
 20
42.529
 30
0.0
 10
25.1107
 20
42.6287
 30
0.0
 10
25.264
 20
42.6786
 30
0.0
 10
25.4559
 20
42.6786
 30
0.0
 10
25.4559
 20
42.6786
 30
0.0
 10
25.6497
 20
42.6786
 30
0.0
 10
25.8031
 20
42.6245
 30
0.0
 10
25.916
 20
42.5173
 30
0.0
 10
25.916
 20
42.5173
 30
0.0
 10
26.0293
 20
42.4095
 30
0.0
 10
26.0858
 20
42.2764
 30
0.0
 10
26.0858
 20
42.1174
 30
0.0
 10
26.0858
 20
42.1174
 30
0.0
 10
26.0858
 20
42.0365
 30
0.0
 10
26.0693
 20
41.957
 30
0.0
 10
26.0359
 20
41.879
 30
0.0
 10
26.0359
 20
41.879
 30
0.0
 10
26.003
 20
41.8009
 30
0.0
 10
25.9479
 20
41.7186
 30
0.0
 10
25.8713
 20
41.6325
 30
0.0
 10
25.8713
 20
41.6325
 30
0.0
 10
25.7946
 20
41.5459
 30
0.0
 10
25.6671
 20
41.4274
 30
0.0
 10
25.4889
 20
41.2769
 30
0.0
 10
25.4889
 20
41.2769
 30
0.0
 10
25.3402
 20
41.1518
 30
0.0
 10
25.2447
 20
41.0671
 30
0.0
 10
25.2024
 20
41.0224
 30
0.0
 10
25.2024
 20
41.0224
 30
0.0
 10
25.1601
 20
40.9782
 30
0.0
 10
25.1253
 20
40.9335
 30
0.0
 10
25.0975
 20
40.8884
 30
0.0
 10
25.0975
 20
40.8884
 30
0.0
 10
25.0975
 20
40.8884
 30
0.0
 10
26.0886
 20
40.8884
 30
0.0
 10
26.0886
 20
40.8884
 30
0.0
  0
SPLINE
  5
91
330
1F
100
AcDbEntity
  8
DATUMS
 62
   250
100
AcDbSpline
210
0.0
220
0.0
230
1.0
 70
    11
 71
     3
 72
    28
 73
    24
 74
     0
 42
0.0000000001
 43
0.0000000001
 40
0.0
 40
0.0
 40
0.0
 40
0.0
 40
0.1428571428571428
 40
0.1428571428571428
 40
0.1428571428571428
 40
0.1428571428571428
 40
0.2857142857142857
 40
0.2857142857142857
 40
0.2857142857142857
 40
0.2857142857142857
 40
0.4285714285714285
 40
0.4285714285714285
 40
0.4285714285714285
 40
0.4285714285714285
 40
0.5714285714285714
 40
0.5714285714285714
 40
0.5714285714285714
 40
0.5714285714285714
 40
0.7142857142857143
 40
0.7142857142857143
 40
0.7142857142857143
 40
0.7142857142857143
 40
1.0
 40
1.0
 40
1.0
 40
1.0
 10
26.4357
 20
41.9547
 30
0.0
 10
26.4357
 20
41.9547
 30
0.0
 10
26.3666
 20
42.3395
 30
0.0
 10
26.3666
 20
42.3395
 30
0.0
 10
26.3666
 20
42.3395
 30
0.0
 10
26.3666
 20
42.3395
 30
0.0
 10
26.3666
 20
42.6701
 30
0.0
 10
26.3666
 20
42.6701
 30
0.0
 10
26.3666
 20
42.6701
 30
0.0
 10
26.3666
 20
42.6701
 30
0.0
 10
26.6492
 20
42.6701
 30
0.0
 10
26.6492
 20
42.6701
 30
0.0
 10
26.6492
 20
42.6701
 30
0.0
 10
26.6492
 20
42.6701
 30
0.0
 10
26.6492
 20
42.3395
 30
0.0
 10
26.6492
 20
42.3395
 30
0.0
 10
26.6492
 20
42.3395
 30
0.0
 10
26.6492
 20
42.3395
 30
0.0
 10
26.5872
 20
41.9547
 30
0.0
 10
26.5872
 20
41.9547
 30
0.0
 10
26.5872
 20
41.9547
 30
0.0
 10
26.5872
 20
41.9547
 30
0.0
 10
26.4357
 20
41.9547
 30
0.0
 10
26.4357
 20
41.9547
 30
0.0
  0
SPLINE
  5
92
330
1F
100
AcDbEntity
  8
DATUMS
 62
   250
100
AcDbSpline
210
0.0
220
0.0
230
1.0
 70
    11
 71
     3
 72
    28
 73
    24
 74
     0
 42
0.0000000001
 43
0.0000000001
 40
0.0
 40
0.0
 40
0.0
 40
0.0
 40
0.1428571428571428
 40
0.1428571428571428
 40
0.1428571428571428
 40
0.1428571428571428
 40
0.2857142857142857
 40
0.2857142857142857
 40
0.2857142857142857
 40
0.2857142857142857
 40
0.4285714285714285
 40
0.4285714285714285
 40
0.4285714285714285
 40
0.4285714285714285
 40
0.5714285714285714
 40
0.5714285714285714
 40
0.5714285714285714
 40
0.5714285714285714
 40
0.7142857142857143
 40
0.7142857142857143
 40
0.7142857142857143
 40
0.7142857142857143
 40
1.0
 40
1.0
 40
1.0
 40
1.0
 10
26.892
 20
41.9547
 30
0.0
 10
26.892
 20
41.9547
 30
0.0
 10
26.8242
 20
42.3395
 30
0.0
 10
26.8242
 20
42.3395
 30
0.0
 10
26.8242
 20
42.3395
 30
0.0
 10
26.8242
 20
42.3395
 30
0.0
 10
26.8242
 20
42.6701
 30
0.0
 10
26.8242
 20
42.6701
 30
0.0
 10
26.8242
 20
42.6701
 30
0.0
 10
26.8242
 20
42.6701
 30
0.0
 10
27.1069
 20
42.6701
 30
0.0
 10
27.1069
 20
42.6701
 30
0.0
 10
27.1069
 20
42.6701
 30
0.0
 10
27.1069
 20
42.6701
 30
0.0
 10
27.1069
 20
42.3395
 30
0.0
 10
27.1069
 20
42.3395
 30
0.0
 10
27.1069
 20
42.3395
 30
0.0
 10
27.1069
 20
42.3395
 30
0.0
 10
27.0406
 20
41.9547
 30
0.0
 10
27.0406
 20
41.9547
 30
0.0
 10
27.0406
 20
41.9547
 30
0.0
 10
27.0406
 20
41.9547
 30
0.0
 10
26.892
 20
41.9547
 30
0.0
 10
26.892
 20
41.9547
 30
0.0
  0
SPLINE
  5
93
330
1F
100
AcDbEntity
  8
DATUMS
 62
   250
100
AcDbSpline
210
0.0
220
0.0
230
1.0
 70
    11
 71
     3
 72
    20
 73
    16
 74
     0
 42
0.0000000001
 43
0.0000000001
 40
0.0
 40
0.0
 40
0.0
 40
0.0
 40
0.2
 40
0.2
 40
0.2
 40
0.2
 40
0.4
 40
0.4
 40
0.4
 40
0.4
 40
0.6
 40
0.6
 40
0.6
 40
0.6
 40
1.0
 40
1.0
 40
1.0
 40
1.0
 10
20.1665
 20
39.741
 30
0.0
 10
20.1665
 20
39.741
 30
0.0
 10
17.1665
 20
40.1791
 30
0.0
 10
17.1665
 20
40.1791
 30
0.0
 10
17.1665
 20
40.1791
 30
0.0
 10
17.1665
 20
40.1791
 30
0.0
 10
17.1665
 20
39.2122
 30
0.0
 10
17.1665
 20
39.2122
 30
0.0
 10
17.1665
 20
39.2122
 30
0.0
 10
17.1665
 20
39.2122
 30
0.0
 10
20.1665
 20
39.7397
 30
0.0
 10
20.1665
 20
39.7397
 30
0.0
 10
20.1665
 20
39.7397
 30
0.0
 10
20.1665
 20
39.7397
 30
0.0
 10
20.1665
 20
39.741
 30
0.0
 10
20.1665
 20
39.741
 30
0.0
  0
SPLINE
  5
94
330
1F
100
AcDbEntity
  8
DATUMS
 62
   250
100
AcDbSpline
210
0.0
220
0.0
230
1.0
 70
    11
 71
     3
 72
    20
 73
    16
 74
     0
 42
0.0000000001
 43
0.0000000001
 40
0.0
 40
0.0
 40
0.0
 40
0.0
 40
0.2
 40
0.2
 40
0.2
 40
0.2
 40
0.4
 40
0.4
 40
0.4
 40
0.4
 40
0.6
 40
0.6
 40
0.6
 40
0.6
 40
1.0
 40
1.0
 40
1.0
 40
1.0
 10
25.7363
 20
39.7432
 30
0.0
 10
25.7363
 20
39.7432
 30
0.0
 10
28.7364
 20
39.3052
 30
0.0
 10
28.7364
 20
39.3052
 30
0.0
 10
28.7364
 20
39.3052
 30
0.0
 10
28.7364
 20
39.3052
 30
0.0
 10
28.7364
 20
40.2721
 30
0.0
 10
28.7364
 20
40.2721
 30
0.0
 10
28.7364
 20
40.2721
 30
0.0
 10
28.7364
 20
40.2721
 30
0.0
 10
25.7363
 20
39.7446
 30
0.0
 10
25.7363
 20
39.7446
 30
0.0
 10
25.7363
 20
39.7446
 30
0.0
 10
25.7363
 20
39.7446
 30
0.0
 10
25.7363
 20
39.7432
 30
0.0
 10
25.7363
 20
39.7432
 30
0.0
  0
SPLINE
  5
95
330
1F
100
AcDbEntity
  8
DATUMS
 62
   250
100
AcDbSpline
210
0.0
220
0.0
230
1.0
 70
    24
 71
     3
 72
     8
 73
     4
 74
     0
 42
0.0000000001
 43
0.0000000001
 40
0.0
 40
0.0
 40
0.0
 40
0.0
 40
1.0
 40
1.0
 40
1.0
 40
1.0
 10
16.3212
 20
39.7276
 30
0.0
 10
16.3212
 20
39.7276
 30
0.0
 10
29.5504
 20
39.7276
 30
0.0
 10
29.5504
 20
39.7276
 30
0.0
  0
SPLINE
  5
96
330
1F
100
AcDbEntity
  8
DATUMS
  6
NEW_LINE16
 62
   250
100
AcDbSpline
210
0.0
220
0.0
230
1.0
 70
    24
 71
     3
 72
     8
 73
     4
 74
     0
 42
0.0000000001
 43
0.0000000001
 40
0.0
 40
0.0
 40
0.0
 40
0.0
 40
1.0
 40
1.0
 40
1.0
 40
1.0
 10
20.1738
 20
40.1357
 30
0.0
 10
20.1738
 20
40.1357
 30
0.0
 10
20.1738
 20
36.2417
 30
0.0
 10
20.1738
 20
36.2417
 30
0.0
  0
SPLINE
  5
98
330
1F
100
AcDbEntity
  8
DATUMS
  6
NEW_LINE17
 62
   250
100
AcDbSpline
210
0.0
220
0.0
230
1.0
 70
    24
 71
     3
 72
     8
 73
     4
 74
     0
 42
0.0000000001
 43
0.0000000001
 40
0.0
 40
0.0
 40
0.0
 40
0.0
 40
1.0
 40
1.0
 40
1.0
 40
1.0
 10
25.6213
 20
40.2655
 30
0.0
 10
25.6213
 20
40.2655
 30
0.0
 10
25.6213
 20
36.2333
 30
0.0
 10
25.6213
 20
36.2333
 30
0.0
  0
SPLINE
  5
9A
330
1F
100
AcDbEntity
  8
DATUMS
 62
   250
100
AcDbSpline
210
0.0
220
0.0
230
1.0
 70
    11
 71
     3
 72
   120
 73
   116
 74
     0
 42
0.0000000001
 43
0.0000000001
 40
0.0
 40
0.0
 40
0.0
 40
0.0
 40
0.0333333333333333
 40
0.0333333333333333
 40
0.0333333333333333
 40
0.0333333333333333
 40
0.0666666666666667
 40
0.0666666666666667
 40
0.0666666666666667
 40
0.0666666666666667
 40
0.1
 40
0.1
 40
0.1
 40
0.1
 40
0.1333333333333333
 40
0.1333333333333333
 40
0.1333333333333333
 40
0.1333333333333333
 40
0.1666666666666667
 40
0.1666666666666667
 40
0.1666666666666667
 40
0.1666666666666667
 40
0.2
 40
0.2
 40
0.2
 40
0.2
 40
0.2333333333333333
 40
0.2333333333333333
 40
0.2333333333333333
 40
0.2333333333333333
 40
0.2666666666666667
 40
0.2666666666666667
 40
0.2666666666666667
 40
0.2666666666666667
 40
0.3
 40
0.3
 40
0.3
 40
0.3
 40
0.3333333333333333
 40
0.3333333333333333
 40
0.3333333333333333
 40
0.3333333333333333
 40
0.3666666666666666
 40
0.3666666666666666
 40
0.3666666666666666
 40
0.3666666666666666
 40
0.4
 40
0.4
 40
0.4
 40
0.4
 40
0.4333333333333333
 40
0.4333333333333333
 40
0.4333333333333333
 40
0.4333333333333333
 40
0.4666666666666667
 40
0.4666666666666667
 40
0.4666666666666667
 40
0.4666666666666667
 40
0.5
 40
0.5
 40
0.5
 40
0.5
 40
0.5333333333333333
 40
0.5333333333333333
 40
0.5333333333333333
 40
0.5333333333333333
 40
0.5666666666666667
 40
0.5666666666666667
 40
0.5666666666666667
 40
0.5666666666666667
 40
0.6
 40
0.6
 40
0.6
 40
0.6
 40
0.6333333333333333
 40
0.6333333333333333
 40
0.6333333333333333
 40
0.6333333333333333
 40
0.6666666666666666
 40
0.6666666666666666
 40
0.6666666666666666
 40
0.6666666666666666
 40
0.7
 40
0.7
 40
0.7
 40
0.7
 40
0.7333333333333333
 40
0.7333333333333333
 40
0.7333333333333333
 40
0.7333333333333333
 40
0.7666666666666667
 40
0.7666666666666667
 40
0.7666666666666667
 40
0.7666666666666667
 40
0.8
 40
0.8
 40
0.8
 40
0.8
 40
0.8333333333333334
 40
0.8333333333333334
 40
0.8333333333333334
 40
0.8333333333333334
 40
0.8666666666666667
 40
0.8666666666666667
 40
0.8666666666666667
 40
0.8666666666666667
 40
0.9
 40
0.9
 40
0.9
 40
0.9
 40
0.9333333333333333
 40
0.9333333333333333
 40
0.9333333333333333
 40
0.9333333333333333
 40
1.0
 40
1.0
 40
1.0
 40
1.0
 10
11.8575
 20
-7.0387
 30
0.0
 10
11.8575
 20
-7.0387
 30
0.0
 10
11.8575
 20
-6.8021
 30
0.0
 10
11.8575
 20
-6.8021
 30
0.0
 10
11.8575
 20
-6.8021
 30
0.0
 10
11.8575
 20
-6.8021
 30
0.0
 10
12.7131
 20
-6.8007
 30
0.0
 10
12.7131
 20
-6.8007
 30
0.0
 10
12.7131
 20
-6.8007
 30
0.0
 10
12.7131
 20
-6.8007
 30
0.0
 10
12.7131
 20
-7.55
 30
0.0
 10
12.7131
 20
-7.55
 30
0.0
 10
12.7131
 20
-7.55
 30
0.0
 10
12.5819
 20
-7.6549
 30
0.0
 10
12.4464
 20
-7.7335
 30
0.0
 10
12.3067
 20
-7.7866
 30
0.0
 10
12.3067
 20
-7.7866
 30
0.0
 10
12.167
 20
-7.8393
 30
0.0
 10
12.0236
 20
-7.8656
 30
0.0
 10
11.8768
 20
-7.8656
 30
0.0
 10
11.8768
 20
-7.8656
 30
0.0
 10
11.6783
 20
-7.8656
 30
0.0
 10
11.4977
 20
-7.8233
 30
0.0
 10
11.3359
 20
-7.7382
 30
0.0
 10
11.3359
 20
-7.7382
 30
0.0
 10
11.1736
 20
-7.6535
 30
0.0
 10
11.0513
 20
-7.5303
 30
0.0
 10
10.9685
 20
-7.3699
 30
0.0
 10
10.9685
 20
-7.3699
 30
0.0
 10
10.8857
 20
-7.209
 30
0.0
 10
10.8443
 20
-7.0293
 30
0.0
 10
10.8443
 20
-6.8308
 30
0.0
 10
10.8443
 20
-6.8308
 30
0.0
 10
10.8443
 20
-6.6342
 30
0.0
 10
10.8857
 20
-6.4508
 30
0.0
 10
10.9681
 20
-6.2805
 30
0.0
 10
10.9681
 20
-6.2805
 30
0.0
 10
11.0499
 20
-6.1098
 30
0.0
 10
11.1684
 20
-5.9832
 30
0.0
 10
11.3227
 20
-5.9004
 30
0.0
 10
11.3227
 20
-5.9004
 30
0.0
 10
11.477
 20
-5.8181
 30
0.0
 10
11.6548
 20
-5.7767
 30
0.0
 10
11.8561
 20
-5.7767
 30
0.0
 10
11.8561
 20
-5.7767
 30
0.0
 10
12.0019
 20
-5.7767
 30
0.0
 10
12.1341
 20
-5.8003
 30
0.0
 10
12.2522
 20
-5.8478
 30
0.0
 10
12.2522
 20
-5.8478
 30
0.0
 10
12.3702
 20
-5.8948
 30
0.0
 10
12.4629
 20
-5.9607
 30
0.0
 10
12.5297
 20
-6.0453
 30
0.0
 10
12.5297
 20
-6.0453
 30
0.0
 10
12.5969
 20
-6.13
 30
0.0
 10
12.6477
 20
-6.24
 30
0.0
 10
12.683
 20
-6.376
 30
0.0
 10
12.683
 20
-6.376
 30
0.0
 10
12.683
 20
-6.376
 30
0.0
 10
12.4417
 20
-6.4423
 30
0.0
 10
12.4417
 20
-6.4423
 30
0.0
 10
12.4417
 20
-6.4423
 30
0.0
 10
12.4111
 20
-6.3393
 30
0.0
 10
12.3735
 20
-6.2584
 30
0.0
 10
12.3288
 20
-6.1996
 30
0.0
 10
12.3288
 20
-6.1996
 30
0.0
 10
12.2837
 20
-6.1408
 30
0.0
 10
12.2192
 20
-6.0938
 30
0.0
 10
12.1355
 20
-6.0585
 30
0.0
 10
12.1355
 20
-6.0585
 30
0.0
 10
12.0522
 20
-6.0232
 30
0.0
 10
11.9591
 20
-6.0053
 30
0.0
 10
11.8575
 20
-6.0053
 30
0.0
 10
11.8575
 20
-6.0053
 30
0.0
 10
11.7352
 20
-6.0053
 30
0.0
 10
11.6294
 20
-6.0242
 30
0.0
 10
11.5405
 20
-6.0613
 30
0.0
 10
11.5405
 20
-6.0613
 30
0.0
 10
11.4511
 20
-6.0985
 30
0.0
 10
11.3796
 20
-6.1474
 30
0.0
 10
11.3246
 20
-6.2081
 30
0.0
 10
11.3246
 20
-6.2081
 30
0.0
 10
11.27
 20
-6.2687
 30
0.0
 10
11.2277
 20
-6.3351
 30
0.0
 10
11.1971
 20
-6.408
 30
0.0
 10
11.1971
 20
-6.408
 30
0.0
 10
11.1459
 20
-6.5326
 30
0.0
 10
11.12
 20
-6.6681
 30
0.0
 10
11.12
 20
-6.8144
 30
0.0
 10
11.12
 20
-6.8144
 30
0.0
 10
11.12
 20
-6.9945
 30
0.0
 10
11.151
 20
-7.145
 30
0.0
 10
11.2131
 20
-7.2664
 30
0.0
 10
11.2131
 20
-7.2664
 30
0.0
 10
11.2752
 20
-7.3877
 30
0.0
 10
11.3655
 20
-7.4776
 30
0.0
 10
11.484
 20
-7.5364
 30
0.0
 10
11.484
 20
-7.5364
 30
0.0
 10
11.6026
 20
-7.5952
 30
0.0
 10
11.7282
 20
-7.6248
 30
0.0
 10
11.8613
 20
-7.6248
 30
0.0
 10
11.8613
 20
-7.6248
 30
0.0
 10
11.9775
 20
-7.6248
 30
0.0
 10
12.0903
 20
-7.6022
 30
0.0
 10
12.2004
 20
-7.5575
 30
0.0
 10
12.2004
 20
-7.5575
 30
0.0
 10
12.311
 20
-7.5133
 30
0.0
 10
12.3942
 20
-7.4658
 30
0.0
 10
12.4511
 20
-7.415
 30
0.0
 10
12.4511
 20
-7.415
 30
0.0
 10
12.4511
 20
-7.415
 30
0.0
 10
12.4511
 20
-7.0387
 30
0.0
 10
12.4511
 20
-7.0387
 30
0.0
 10
12.4511
 20
-7.0387
 30
0.0
 10
12.4511
 20
-7.0387
 30
0.0
 10
11.8575
 20
-7.0387
 30
0.0
 10
11.8575
 20
-7.0387
 30
0.0
  0
SPLINE
  5
9B
330
1F
100
AcDbEntity
  8
DATUMS
 62
   250
100
AcDbSpline
210
0.0
220
0.0
230
1.0
 70
    11
 71
     3
 72
   124
 73
   120
 74
     0
 42
0.0000000001
 43
0.0000000001
 40
0.0
 40
0.0
 40
0.0
 40
0.0
 40
0.032258064516129
 40
0.032258064516129
 40
0.032258064516129
 40
0.032258064516129
 40
0.0645161290322581
 40
0.0645161290322581
 40
0.0645161290322581
 40
0.0645161290322581
 40
0.0967741935483871
 40
0.0967741935483871
 40
0.0967741935483871
 40
0.0967741935483871
 40
0.1290322580645161
 40
0.1290322580645161
 40
0.1290322580645161
 40
0.1290322580645161
 40
0.1612903225806452
 40
0.1612903225806452
 40
0.1612903225806452
 40
0.1612903225806452
 40
0.1935483870967742
 40
0.1935483870967742
 40
0.1935483870967742
 40
0.1935483870967742
 40
0.2258064516129032
 40
0.2258064516129032
 40
0.2258064516129032
 40
0.2258064516129032
 40
0.2580645161290323
 40
0.2580645161290323
 40
0.2580645161290323
 40
0.2580645161290323
 40
0.2903225806451613
 40
0.2903225806451613
 40
0.2903225806451613
 40
0.2903225806451613
 40
0.3225806451612903
 40
0.3225806451612903
 40
0.3225806451612903
 40
0.3225806451612903
 40
0.3548387096774194
 40
0.3548387096774194
 40
0.3548387096774194
 40
0.3548387096774194
 40
0.3870967741935484
 40
0.3870967741935484
 40
0.3870967741935484
 40
0.3870967741935484
 40
0.4193548387096774
 40
0.4193548387096774
 40
0.4193548387096774
 40
0.4193548387096774
 40
0.4516129032258064
 40
0.4516129032258064
 40
0.4516129032258064
 40
0.4516129032258064
 40
0.4838709677419355
 40
0.4838709677419355
 40
0.4838709677419355
 40
0.4838709677419355
 40
0.5161290322580645
 40
0.5161290322580645
 40
0.5161290322580645
 40
0.5161290322580645
 40
0.5483870967741935
 40
0.5483870967741935
 40
0.5483870967741935
 40
0.5483870967741935
 40
0.5806451612903226
 40
0.5806451612903226
 40
0.5806451612903226
 40
0.5806451612903226
 40
0.6129032258064516
 40
0.6129032258064516
 40
0.6129032258064516
 40
0.6129032258064516
 40
0.6451612903225806
 40
0.6451612903225806
 40
0.6451612903225806
 40
0.6451612903225806
 40
0.6774193548387096
 40
0.6774193548387096
 40
0.6774193548387096
 40
0.6774193548387096
 40
0.7096774193548387
 40
0.7096774193548387
 40
0.7096774193548387
 40
0.7096774193548387
 40
0.7419354838709677
 40
0.7419354838709677
 40
0.7419354838709677
 40
0.7419354838709677
 40
0.7741935483870968
 40
0.7741935483870968
 40
0.7741935483870968
 40
0.7741935483870968
 40
0.8064516129032258
 40
0.8064516129032258
 40
0.8064516129032258
 40
0.8064516129032258
 40
0.8387096774193549
 40
0.8387096774193549
 40
0.8387096774193549
 40
0.8387096774193549
 40
0.8709677419354839
 40
0.8709677419354839
 40
0.8709677419354839
 40
0.8709677419354839
 40
0.9032258064516129
 40
0.9032258064516129
 40
0.9032258064516129
 40
0.9032258064516129
 40
0.9354838709677419
 40
0.9354838709677419
 40
0.9354838709677419
 40
0.9354838709677419
 40
1.0
 40
1.0
 40
1.0
 40
1.0
 10
13.7921
 20
-7.2979
 30
0.0
 10
13.7921
 20
-7.2979
 30
0.0
 10
14.04
 20
-7.265
 30
0.0
 10
14.04
 20
-7.265
 30
0.0
 10
14.04
 20
-7.265
 30
0.0
 10
14.0687
 20
-7.4056
 30
0.0
 10
14.1172
 20
-7.5067
 30
0.0
 10
14.1854
 20
-7.5688
 30
0.0
 10
14.1854
 20
-7.5688
 30
0.0
 10
14.254
 20
-7.6309
 30
0.0
 10
14.3373
 20
-7.662
 30
0.0
 10
14.4356
 20
-7.662
 30
0.0
 10
14.4356
 20
-7.662
 30
0.0
 10
14.5522
 20
-7.662
 30
0.0
 10
14.651
 20
-7.6215
 30
0.0
 10
14.7315
 20
-7.5406
 30
0.0
 10
14.7315
 20
-7.5406
 30
0.0
 10
14.8114
 20
-7.4597
 30
0.0
 10
14.8519
 20
-7.3595
 30
0.0
 10
14.8519
 20
-7.24
 30
0.0
 10
14.8519
 20
-7.24
 30
0.0
 10
14.8519
 20
-7.1262
 30
0.0
 10
14.8147
 20
-7.0321
 30
0.0
 10
14.7404
 20
-6.9583
 30
0.0
 10
14.7404
 20
-6.9583
 30
0.0
 10
14.6656
 20
-6.8845
 30
0.0
 10
14.5711
 20
-6.8473
 30
0.0
 10
14.4563
 20
-6.8473
 30
0.0
 10
14.4563
 20
-6.8473
 30
0.0
 10
14.4093
 20
-6.8473
 30
0.0
 10
14.3509
 20
-6.8567
 30
0.0
 10
14.2813
 20
-6.875
 30
0.0
 10
14.2813
 20
-6.875
 30
0.0
 10
14.2813
 20
-6.875
 30
0.0
 10
14.3091
 20
-6.6573
 30
0.0
 10
14.3091
 20
-6.6573
 30
0.0
 10
14.3091
 20
-6.6573
 30
0.0
 10
14.3255
 20
-6.6591
 30
0.0
 10
14.3387
 20
-6.6601
 30
0.0
 10
14.349
 20
-6.6601
 30
0.0
 10
14.349
 20
-6.6601
 30
0.0
 10
14.4544
 20
-6.6601
 30
0.0
 10
14.5494
 20
-6.6323
 30
0.0
 10
14.6341
 20
-6.5773
 30
0.0
 10
14.6341
 20
-6.5773
 30
0.0
 10
14.7188
 20
-6.5223
 30
0.0
 10
14.7611
 20
-6.4371
 30
0.0
 10
14.7611
 20
-6.3224
 30
0.0
 10
14.7611
 20
-6.3224
 30
0.0
 10
14.7611
 20
-6.2316
 30
0.0
 10
14.73
 20
-6.1559
 30
0.0
 10
14.6684
 20
-6.0966
 30
0.0
 10
14.6684
 20
-6.0966
 30
0.0
 10
14.6068
 20
-6.0369
 30
0.0
 10
14.5273
 20
-6.0067
 30
0.0
 10
14.4299
 20
-6.0067
 30
0.0
 10
14.4299
 20
-6.0067
 30
0.0
 10
14.3335
 20
-6.0067
 30
0.0
 10
14.2531
 20
-6.0373
 30
0.0
 10
14.1891
 20
-6.0975
 30
0.0
 10
14.1891
 20
-6.0975
 30
0.0
 10
14.1247
 20
-6.1582
 30
0.0
 10
14.0833
 20
-6.2495
 30
0.0
 10
14.0649
 20
-6.3708
 30
0.0
 10
14.0649
 20
-6.3708
 30
0.0
 10
14.0649
 20
-6.3708
 30
0.0
 10
13.8171
 20
-6.3266
 30
0.0
 10
13.8171
 20
-6.3266
 30
0.0
 10
13.8171
 20
-6.3266
 30
0.0
 10
13.8472
 20
-6.1601
 30
0.0
 10
13.9163
 20
-6.0312
 30
0.0
 10
14.0236
 20
-5.94
 30
0.0
 10
14.0236
 20
-5.94
 30
0.0
 10
14.1313
 20
-5.8487
 30
0.0
 10
14.2649
 20
-5.8026
 30
0.0
 10
14.4248
 20
-5.8026
 30
0.0
 10
14.4248
 20
-5.8026
 30
0.0
 10
14.5348
 20
-5.8026
 30
0.0
 10
14.6364
 20
-5.8266
 30
0.0
 10
14.7291
 20
-5.8736
 30
0.0
 10
14.7291
 20
-5.8736
 30
0.0
 10
14.8218
 20
-5.9211
 30
0.0
 10
14.8928
 20
-5.9856
 30
0.0
 10
14.9422
 20
-6.0674
 30
0.0
 10
14.9422
 20
-6.0674
 30
0.0
 10
14.9911
 20
-6.1493
 30
0.0
 10
15.016
 20
-6.2358
 30
0.0
 10
15.016
 20
-6.328
 30
0.0
 10
15.016
 20
-6.328
 30
0.0
 10
15.016
 20
-6.415
 30
0.0
 10
14.9925
 20
-6.4945
 30
0.0
 10
14.9455
 20
-6.5665
 30
0.0
 10
14.9455
 20
-6.5665
 30
0.0
 10
14.8984
 20
-6.638
 30
0.0
 10
14.8293
 20
-6.6949
 30
0.0
 10
14.7376
 20
-6.7372
 30
0.0
 10
14.7376
 20
-6.7372
 30
0.0
 10
14.857
 20
-6.7645
 30
0.0
 10
14.9497
 20
-6.8219
 30
0.0
 10
15.016
 20
-6.9089
 30
0.0
 10
15.016
 20
-6.9089
 30
0.0
 10
15.0819
 20
-6.9955
 30
0.0
 10
15.1148
 20
-7.1041
 30
0.0
 10
15.1148
 20
-7.2344
 30
0.0
 10
15.1148
 20
-7.2344
 30
0.0
 10
15.1148
 20
-7.4108
 30
0.0
 10
15.0508
 20
-7.5604
 30
0.0
 10
14.922
 20
-7.6831
 30
0.0
 10
14.922
 20
-7.6831
 30
0.0
 10
14.7935
 20
-7.8059
 30
0.0
 10
14.6308
 20
-7.867
 30
0.0
 10
14.4342
 20
-7.867
 30
0.0
 10
14.4342
 20
-7.867
 30
0.0
 10
14.2569
 20
-7.867
 30
0.0
 10
14.1096
 20
-7.8144
 30
0.0
 10
13.9925
 20
-7.7085
 30
0.0
 10
13.9925
 20
-7.7085
 30
0.0
 10
13.8754
 20
-7.6032
 30
0.0
 10
13.8086
 20
-7.4663
 30
0.0
 10
13.7921
 20
-7.2979
 30
0.0
  0
SPLINE
  5
9C
330
1F
100
AcDbEntity
  8
DATUMS
 62
   250
100
AcDbSpline
210
0.0
220
0.0
230
1.0
 70
    11
 71
     3
 72
    20
 73
    16
 74
     0
 42
0.0000000001
 43
0.0000000001
 40
0.0
 40
0.0
 40
0.0
 40
0.0
 40
0.2
 40
0.2
 40
0.2
 40
0.2
 40
0.4
 40
0.4
 40
0.4
 40
0.4
 40
0.6
 40
0.6
 40
0.6
 40
0.6
 40
1.0
 40
1.0
 40
1.0
 40
1.0
 10
15.2432
 20
-7.8656
 30
0.0
 10
15.2432
 20
-7.8656
 30
0.0
 10
15.8288
 20
-5.7767
 30
0.0
 10
15.8288
 20
-5.7767
 30
0.0
 10
15.8288
 20
-5.7767
 30
0.0
 10
15.8288
 20
-5.7767
 30
0.0
 10
16.0273
 20
-5.7767
 30
0.0
 10
16.0273
 20
-5.7767
 30
0.0
 10
16.0273
 20
-5.7767
 30
0.0
 10
16.0273
 20
-5.7767
 30
0.0
 10
15.4431
 20
-7.8656
 30
0.0
 10
15.4431
 20
-7.8656
 30
0.0
 10
15.4431
 20
-7.8656
 30
0.0
 10
15.4431
 20
-7.8656
 30
0.0
 10
15.2432
 20
-7.8656
 30
0.0
 10
15.2432
 20
-7.8656
 30
0.0
  0
SPLINE
  5
9D
330
1F
100
AcDbEntity
  8
DATUMS
 62
   250
100
AcDbSpline
210
0.0
220
0.0
230
1.0
 70
    11
 71
     3
 72
    68
 73
    64
 74
     0
 42
0.0000000001
 43
0.0000000001
 40
0.0
 40
0.0
 40
0.0
 40
0.0
 40
0.0588235294117647
 40
0.0588235294117647
 40
0.0588235294117647
 40
0.0588235294117647
 40
0.1176470588235294
 40
0.1176470588235294
 40
0.1176470588235294
 40
0.1176470588235294
 40
0.1764705882352941
 40
0.1764705882352941
 40
0.1764705882352941
 40
0.1764705882352941
 40
0.2352941176470588
 40
0.2352941176470588
 40
0.2352941176470588
 40
0.2352941176470588
 40
0.2941176470588235
 40
0.2941176470588235
 40
0.2941176470588235
 40
0.2941176470588235
 40
0.3529411764705883
 40
0.3529411764705883
 40
0.3529411764705883
 40
0.3529411764705883
 40
0.4117647058823529
 40
0.4117647058823529
 40
0.4117647058823529
 40
0.4117647058823529
 40
0.4705882352941176
 40
0.4705882352941176
 40
0.4705882352941176
 40
0.4705882352941176
 40
0.5294117647058824
 40
0.5294117647058824
 40
0.5294117647058824
 40
0.5294117647058824
 40
0.5882352941176471
 40
0.5882352941176471
 40
0.5882352941176471
 40
0.5882352941176471
 40
0.6470588235294118
 40
0.6470588235294118
 40
0.6470588235294118
 40
0.6470588235294118
 40
0.7058823529411765
 40
0.7058823529411765
 40
0.7058823529411765
 40
0.7058823529411765
 40
0.7647058823529411
 40
0.7647058823529411
 40
0.7647058823529411
 40
0.7647058823529411
 40
0.8235294117647058
 40
0.8235294117647058
 40
0.8235294117647058
 40
0.8235294117647058
 40
0.8823529411764706
 40
0.8823529411764706
 40
0.8823529411764706
 40
0.8823529411764706
 40
1.0
 40
1.0
 40
1.0
 40
1.0
 10
16.5264
 20
-6.7358
 30
0.0
 10
16.4233
 20
-6.6982
 30
0.0
 10
16.3471
 20
-6.6446
 30
0.0
 10
16.2973
 20
-6.5745
 30
0.0
 10
16.2973
 20
-6.5745
 30
0.0
 10
16.2479
 20
-6.5049
 30
0.0
 10
16.223
 20
-6.4211
 30
0.0
 10
16.223
 20
-6.3238
 30
0.0
 10
16.223
 20
-6.3238
 30
0.0
 10
16.223
 20
-6.1766
 30
0.0
 10
16.2757
 20
-6.0533
 30
0.0
 10
16.3815
 20
-5.9531
 30
0.0
 10
16.3815
 20
-5.9531
 30
0.0
 10
16.4873
 20
-5.8529
 30
0.0
 10
16.6275
 20
-5.8026
 30
0.0
 10
16.8029
 20
-5.8026
 30
0.0
 10
16.8029
 20
-5.8026
 30
0.0
 10
16.9793
 20
-5.8026
 30
0.0
 10
17.1214
 20
-5.8539
 30
0.0
 10
17.2291
 20
-5.9564
 30
0.0
 10
17.2291
 20
-5.9564
 30
0.0
 10
17.3363
 20
-6.059
 30
0.0
 10
17.39
 20
-6.1836
 30
0.0
 10
17.39
 20
-6.3308
 30
0.0
 10
17.39
 20
-6.3308
 30
0.0
 10
17.39
 20
-6.4244
 30
0.0
 10
17.3655
 20
-6.5058
 30
0.0
 10
17.3166
 20
-6.5754
 30
0.0
 10
17.3166
 20
-6.5754
 30
0.0
 10
17.2672
 20
-6.6446
 30
0.0
 10
17.1929
 20
-6.6982
 30
0.0
 10
17.0927
 20
-6.7358
 30
0.0
 10
17.0927
 20
-6.7358
 30
0.0
 10
17.2164
 20
-6.7763
 30
0.0
 10
17.3109
 20
-6.8412
 30
0.0
 10
17.3758
 20
-6.9315
 30
0.0
 10
17.3758
 20
-6.9315
 30
0.0
 10
17.4403
 20
-7.0213
 30
0.0
 10
17.4727
 20
-7.129
 30
0.0
 10
17.4727
 20
-7.2537
 30
0.0
 10
17.4727
 20
-7.2537
 30
0.0
 10
17.4727
 20
-7.4268
 30
0.0
 10
17.4116
 20
-7.5717
 30
0.0
 10
17.2898
 20
-7.6892
 30
0.0
 10
17.2898
 20
-7.6892
 30
0.0
 10
17.1675
 20
-7.8068
 30
0.0
 10
17.0066
 20
-7.8656
 30
0.0
 10
16.8072
 20
-7.8656
 30
0.0
 10
16.8072
 20
-7.8656
 30
0.0
 10
16.6077
 20
-7.8656
 30
0.0
 10
16.4473
 20
-7.8068
 30
0.0
 10
16.325
 20
-7.6888
 30
0.0
 10
16.325
 20
-7.6888
 30
0.0
 10
16.2027
 20
-7.5707
 30
0.0
 10
16.1416
 20
-7.4235
 30
0.0
 10
16.1416
 20
-7.2471
 30
0.0
 10
16.1416
 20
-7.2471
 30
0.0
 10
16.1416
 20
-7.1159
 30
0.0
 10
16.175
 20
-7.0058
 30
0.0
 10
16.2418
 20
-6.9169
 30
0.0
 10
16.2418
 20
-6.9169
 30
0.0
 10
16.3081
 20
-6.8285
 30
0.0
 10
16.4031
 20
-6.7678
 30
0.0
 10
16.5264
 20
-6.7358
 30
0.0
  0
SPLINE
  5
9E
330
1F
100
AcDbEntity
  8
DATUMS
 62
   250
100
AcDbSpline
210
0.0
220
0.0
230
1.0
 70
    11
 71
     3
 72
    36
 73
    32
 74
     0
 42
0.0000000001
 43
0.0000000001
 40
0.0
 40
0.0
 40
0.0
 40
0.0
 40
0.1111111111111111
 40
0.1111111111111111
 40
0.1111111111111111
 40
0.1111111111111111
 40
0.2222222222222222
 40
0.2222222222222222
 40
0.2222222222222222
 40
0.2222222222222222
 40
0.3333333333333333
 40
0.3333333333333333
 40
0.3333333333333333
 40
0.3333333333333333
 40
0.4444444444444444
 40
0.4444444444444444
 40
0.4444444444444444
 40
0.4444444444444444
 40
0.5555555555555556
 40
0.5555555555555556
 40
0.5555555555555556
 40
0.5555555555555556
 40
0.6666666666666666
 40
0.6666666666666666
 40
0.6666666666666666
 40
0.6666666666666666
 40
0.7777777777777778
 40
0.7777777777777778
 40
0.7777777777777778
 40
0.7777777777777778
 40
1.0
 40
1.0
 40
1.0
 40
1.0
 10
16.4765
 20
-6.3153
 30
0.0
 10
16.4765
 20
-6.4108
 30
0.0
 10
16.5075
 20
-6.4889
 30
0.0
 10
16.5687
 20
-6.5496
 30
0.0
 10
16.5687
 20
-6.5496
 30
0.0
 10
16.6303
 20
-6.6102
 30
0.0
 10
16.7103
 20
-6.6408
 30
0.0
 10
16.8086
 20
-6.6408
 30
0.0
 10
16.8086
 20
-6.6408
 30
0.0
 10
16.9041
 20
-6.6408
 30
0.0
 10
16.9826
 20
-6.6107
 30
0.0
 10
17.0438
 20
-6.5505
 30
0.0
 10
17.0438
 20
-6.5505
 30
0.0
 10
17.1049
 20
-6.4903
 30
0.0
 10
17.135
 20
-6.4164
 30
0.0
 10
17.135
 20
-6.3294
 30
0.0
 10
17.135
 20
-6.3294
 30
0.0
 10
17.135
 20
-6.2382
 30
0.0
 10
17.104
 20
-6.162
 30
0.0
 10
17.0409
 20
-6.0999
 30
0.0
 10
17.0409
 20
-6.0999
 30
0.0
 10
16.9779
 20
-6.0378
 30
0.0
 10
16.8998
 20
-6.0067
 30
0.0
 10
16.8058
 20
-6.0067
 30
0.0
 10
16.8058
 20
-6.0067
 30
0.0
 10
16.7112
 20
-6.0067
 30
0.0
 10
16.6327
 20
-6.0373
 30
0.0
 10
16.5701
 20
-6.0975
 30
0.0
 10
16.5701
 20
-6.0975
 30
0.0
 10
16.5075
 20
-6.1582
 30
0.0
 10
16.4765
 20
-6.2311
 30
0.0
 10
16.4765
 20
-6.3153
 30
0.0
  0
SPLINE
  5
9F
330
1F
100
AcDbEntity
  8
DATUMS
 62
   250
100
AcDbSpline
210
0.0
220
0.0
230
1.0
 70
    11
 71
     3
 72
    40
 73
    36
 74
     0
 42
0.0000000001
 43
0.0000000001
 40
0.0
 40
0.0
 40
0.0
 40
0.0
 40
0.1
 40
0.1
 40
0.1
 40
0.1
 40
0.2
 40
0.2
 40
0.2
 40
0.2
 40
0.3
 40
0.3
 40
0.3
 40
0.3
 40
0.4
 40
0.4
 40
0.4
 40
0.4
 40
0.5
 40
0.5
 40
0.5
 40
0.5
 40
0.6
 40
0.6
 40
0.6
 40
0.6
 40
0.7
 40
0.7
 40
0.7
 40
0.7
 40
0.8
 40
0.8
 40
0.8
 40
0.8
 40
1.0
 40
1.0
 40
1.0
 40
1.0
 10
16.3965
 20
-7.2485
 30
0.0
 10
16.3965
 20
-7.3191
 30
0.0
 10
16.4135
 20
-7.3877
 30
0.0
 10
16.4469
 20
-7.4536
 30
0.0
 10
16.4469
 20
-7.4536
 30
0.0
 10
16.4803
 20
-7.5199
 30
0.0
 10
16.5301
 20
-7.5712
 30
0.0
 10
16.5964
 20
-7.6074
 30
0.0
 10
16.5964
 20
-7.6074
 30
0.0
 10
16.6628
 20
-7.6436
 30
0.0
 10
16.7338
 20
-7.662
 30
0.0
 10
16.81
 20
-7.662
 30
0.0
 10
16.81
 20
-7.662
 30
0.0
 10
16.9285
 20
-7.662
 30
0.0
 10
17.0264
 20
-7.6239
 30
0.0
 10
17.1035
 20
-7.5472
 30
0.0
 10
17.1035
 20
-7.5472
 30
0.0
 10
17.1806
 20
-7.471
 30
0.0
 10
17.2192
 20
-7.3741
 30
0.0
 10
17.2192
 20
-7.2565
 30
0.0
 10
17.2192
 20
-7.2565
 30
0.0
 10
17.2192
 20
-7.137
 30
0.0
 10
17.1797
 20
-7.0383
 30
0.0
 10
17.1002
 20
-6.9602
 30
0.0
 10
17.1002
 20
-6.9602
 30
0.0
 10
17.0207
 20
-6.8821
 30
0.0
 10
16.921
 20
-6.8431
 30
0.0
 10
16.8015
 20
-6.8431
 30
0.0
 10
16.8015
 20
-6.8431
 30
0.0
 10
16.6849
 20
-6.8431
 30
0.0
 10
16.5884
 20
-6.8816
 30
0.0
 10
16.5118
 20
-6.9588
 30
0.0
 10
16.5118
 20
-6.9588
 30
0.0
 10
16.4351
 20
-7.0364
 30
0.0
 10
16.3965
 20
-7.1328
 30
0.0
 10
16.3965
 20
-7.2485
 30
0.0
  0
SPLINE
  5
A0
330
1F
100
AcDbEntity
  8
DATUMS
 62
   250
100
AcDbSpline
210
0.0
220
0.0
230
1.0
 70
    11
 71
     3
 72
    28
 73
    24
 74
     0
 42
0.0000000001
 43
0.0000000001
 40
0.0
 40
0.0
 40
0.0
 40
0.0
 40
0.1428571428571428
 40
0.1428571428571428
 40
0.1428571428571428
 40
0.1428571428571428
 40
0.2857142857142857
 40
0.2857142857142857
 40
0.2857142857142857
 40
0.2857142857142857
 40
0.4285714285714285
 40
0.4285714285714285
 40
0.4285714285714285
 40
0.4285714285714285
 40
0.5714285714285714
 40
0.5714285714285714
 40
0.5714285714285714
 40
0.5714285714285714
 40
0.7142857142857143
 40
0.7142857142857143
 40
0.7142857142857143
 40
0.7142857142857143
 40
1.0
 40
1.0
 40
1.0
 40
1.0
 10
17.7954
 20
-6.5265
 30
0.0
 10
17.7954
 20
-6.5265
 30
0.0
 10
17.7263
 20
-6.1417
 30
0.0
 10
17.7263
 20
-6.1417
 30
0.0
 10
17.7263
 20
-6.1417
 30
0.0
 10
17.7263
 20
-6.1417
 30
0.0
 10
17.7263
 20
-5.8111
 30
0.0
 10
17.7263
 20
-5.8111
 30
0.0
 10
17.7263
 20
-5.8111
 30
0.0
 10
17.7263
 20
-5.8111
 30
0.0
 10
18.0089
 20
-5.8111
 30
0.0
 10
18.0089
 20
-5.8111
 30
0.0
 10
18.0089
 20
-5.8111
 30
0.0
 10
18.0089
 20
-5.8111
 30
0.0
 10
18.0089
 20
-6.1417
 30
0.0
 10
18.0089
 20
-6.1417
 30
0.0
 10
18.0089
 20
-6.1417
 30
0.0
 10
18.0089
 20
-6.1417
 30
0.0
 10
17.9469
 20
-6.5265
 30
0.0
 10
17.9469
 20
-6.5265
 30
0.0
 10
17.9469
 20
-6.5265
 30
0.0
 10
17.9469
 20
-6.5265
 30
0.0
 10
17.7954
 20
-6.5265
 30
0.0
 10
17.7954
 20
-6.5265
 30
0.0
  0
SPLINE
  5
A1
330
1F
100
AcDbEntity
  8
DATUMS
 62
   250
100
AcDbSpline
210
0.0
220
0.0
230
1.0
 70
    11
 71
     3
 72
    28
 73
    24
 74
     0
 42
0.0000000001
 43
0.0000000001
 40
0.0
 40
0.0
 40
0.0
 40
0.0
 40
0.1428571428571428
 40
0.1428571428571428
 40
0.1428571428571428
 40
0.1428571428571428
 40
0.2857142857142857
 40
0.2857142857142857
 40
0.2857142857142857
 40
0.2857142857142857
 40
0.4285714285714285
 40
0.4285714285714285
 40
0.4285714285714285
 40
0.4285714285714285
 40
0.5714285714285714
 40
0.5714285714285714
 40
0.5714285714285714
 40
0.5714285714285714
 40
0.7142857142857143
 40
0.7142857142857143
 40
0.7142857142857143
 40
0.7142857142857143
 40
1.0
 40
1.0
 40
1.0
 40
1.0
 10
18.2517
 20
-6.5265
 30
0.0
 10
18.2517
 20
-6.5265
 30
0.0
 10
18.1839
 20
-6.1417
 30
0.0
 10
18.1839
 20
-6.1417
 30
0.0
 10
18.1839
 20
-6.1417
 30
0.0
 10
18.1839
 20
-6.1417
 30
0.0
 10
18.1839
 20
-5.8111
 30
0.0
 10
18.1839
 20
-5.8111
 30
0.0
 10
18.1839
 20
-5.8111
 30
0.0
 10
18.1839
 20
-5.8111
 30
0.0
 10
18.4666
 20
-5.8111
 30
0.0
 10
18.4666
 20
-5.8111
 30
0.0
 10
18.4666
 20
-5.8111
 30
0.0
 10
18.4666
 20
-5.8111
 30
0.0
 10
18.4666
 20
-6.1417
 30
0.0
 10
18.4666
 20
-6.1417
 30
0.0
 10
18.4666
 20
-6.1417
 30
0.0
 10
18.4666
 20
-6.1417
 30
0.0
 10
18.4003
 20
-6.5265
 30
0.0
 10
18.4003
 20
-6.5265
 30
0.0
 10
18.4003
 20
-6.5265
 30
0.0
 10
18.4003
 20
-6.5265
 30
0.0
 10
18.2517
 20
-6.5265
 30
0.0
 10
18.2517
 20
-6.5265
 30
0.0
  0
SPLINE
  5
A2
330
1F
100
AcDbEntity
  8
DATUMS
 62
   250
100
AcDbSpline
210
0.0
220
0.0
230
1.0
 70
    11
 71
     3
 72
    20
 73
    16
 74
     0
 42
0.0000000001
 43
0.0000000001
 40
0.0
 40
0.0
 40
0.0
 40
0.0
 40
0.2
 40
0.2
 40
0.2
 40
0.2
 40
0.4
 40
0.4
 40
0.4
 40
0.4
 40
0.6
 40
0.6
 40
0.6
 40
0.6
 40
1.0
 40
1.0
 40
1.0
 40
1.0
 10
20.6929
 20
-8.6578
 30
0.0
 10
20.6929
 20
-8.6578
 30
0.0
 10
17.6929
 20
-8.2197
 30
0.0
 10
17.6929
 20
-8.2197
 30
0.0
 10
17.6929
 20
-8.2197
 30
0.0
 10
17.6929
 20
-8.2197
 30
0.0
 10
17.6929
 20
-9.1866
 30
0.0
 10
17.6929
 20
-9.1866
 30
0.0
 10
17.6929
 20
-9.1866
 30
0.0
 10
17.6929
 20
-9.1866
 30
0.0
 10
20.6929
 20
-8.6591
 30
0.0
 10
20.6929
 20
-8.6591
 30
0.0
 10
20.6929
 20
-8.6591
 30
0.0
 10
20.6929
 20
-8.6591
 30
0.0
 10
20.6929
 20
-8.6578
 30
0.0
 10
20.6929
 20
-8.6578
 30
0.0
  0
SPLINE
  5
A3
330
1F
100
AcDbEntity
  8
DATUMS
 62
   250
100
AcDbSpline
210
0.0
220
0.0
230
1.0
 70
    11
 71
     3
 72
    20
 73
    16
 74
     0
 42
0.0000000001
 43
0.0000000001
 40
0.0
 40
0.0
 40
0.0
 40
0.0
 40
0.2
 40
0.2
 40
0.2
 40
0.2
 40
0.4
 40
0.4
 40
0.4
 40
0.4
 40
0.6
 40
0.6
 40
0.6
 40
0.6
 40
1.0
 40
1.0
 40
1.0
 40
1.0
 10
25.0694
 20
-8.6735
 30
0.0
 10
25.0694
 20
-8.6735
 30
0.0
 10
28.0695
 20
-9.1115
 30
0.0
 10
28.0695
 20
-9.1115
 30
0.0
 10
28.0695
 20
-9.1115
 30
0.0
 10
28.0695
 20
-9.1115
 30
0.0
 10
28.0695
 20
-8.1446
 30
0.0
 10
28.0695
 20
-8.1446
 30
0.0
 10
28.0695
 20
-8.1446
 30
0.0
 10
28.0695
 20
-8.1446
 30
0.0
 10
25.0694
 20
-8.6721
 30
0.0
 10
25.0694
 20
-8.6721
 30
0.0
 10
25.0694
 20
-8.6721
 30
0.0
 10
25.0694
 20
-8.6721
 30
0.0
 10
25.0694
 20
-8.6735
 30
0.0
 10
25.0694
 20
-8.6735
 30
0.0
  0
SPLINE
  5
A4
330
1F
100
AcDbEntity
  8
DATUMS
 62
   250
100
AcDbSpline
210
0.0
220
0.0
230
1.0
 70
    24
 71
     3
 72
     8
 73
     4
 74
     0
 42
0.0000000001
 43
0.0000000001
 40
0.0
 40
0.0
 40
0.0
 40
0.0
 40
1.0
 40
1.0
 40
1.0
 40
1.0
 10
10.5391
 20
-8.667
 30
0.0
 10
10.5391
 20
-8.667
 30
0.0
 10
28.8446
 20
-8.667
 30
0.0
 10
28.8446
 20
-8.667
 30
0.0
  0
SPLINE
  5
A5
330
1F
100
AcDbEntity
  8
DATUMS
  6
NEW_LINE18
 62
   250
100
AcDbSpline
210
0.0
220
0.0
230
1.0
 70
    24
 71
     3
 72
     8
 73
     4
 74
     0
 42
0.0000000001
 43
0.0000000001
 40
0.0
 40
0.0
 40
0.0
 40
0.0
 40
1.0
 40
1.0
 40
1.0
 40
1.0
 10
20.725
 20
-4.2704
 30
0.0
 10
20.725
 20
-4.2704
 30
0.0
 10
20.725
 20
-9.1653
 30
0.0
 10
20.725
 20
-9.1653
 30
0.0
  0
SPLINE
  5
A7
330
1F
100
AcDbEntity
  8
DATUMS
  6
NEW_LINE19
 62
   250
100
AcDbSpline
210
0.0
220
0.0
230
1.0
 70
    24
 71
     3
 72
     8
 73
     4
 74
     0
 42
0.0000000001
 43
0.0000000001
 40
0.0
 40
0.0
 40
0.0
 40
0.0
 40
1.0
 40
1.0
 40
1.0
 40
1.0
 10
25.0645
 20
-4.1547
 30
0.0
 10
25.0645
 20
-4.1547
 30
0.0
 10
25.0645
 20
-9.1212
 30
0.0
 10
25.0645
 20
-9.1212
 30
0.0
  0
SPLINE
  5
A9
330
1F
100
AcDbEntity
  8
DATUMS
 62
   250
100
AcDbSpline
210
0.0
220
0.0
230
1.0
 70
    24
 71
     3
 72
     8
 73
     4
 74
     0
 42
0.0000000001
 43
0.0000000001
 40
0.0
 40
0.0
 40
0.0
 40
0.0
 40
1.0
 40
1.0
 40
1.0
 40
1.0
 10
20.3335
 20
33.6475
 30
0.0
 10
20.3335
 20
33.6475
 30
0.0
 10
25.4532
 20
33.7595
 30
0.0
 10
25.4532
 20
33.7595
 30
0.0
  0
SPLINE
  5
AA
330
1F
100
AcDbEntity
  8
DATUMS
 62
   250
100
AcDbSpline
210
0.0
220
0.0
230
1.0
 70
    24
 71
     3
 72
     8
 73
     4
 74
     0
 42
0.0000000001
 43
0.0000000001
 40
0.0
 40
0.0
 40
0.0
 40
0.0
 40
1.0
 40
1.0
 40
1.0
 40
1.0
 10
20.3334
 20
34.1208
 30
0.0
 10
20.3334
 20
34.1208
 30
0.0
 10
25.4531
 20
34.2329
 30
0.0
 10
25.4531
 20
34.2329
 30
0.0
  0
SPLINE
  5
AB
330
1F
100
AcDbEntity
  8
DATUMS
 62
   250
100
AcDbSpline
210
0.0
220
0.0
230
1.0
 70
    24
 71
     3
 72
     8
 73
     4
 74
     0
 42
0.0000000001
 43
0.0000000001
 40
0.0
 40
0.0
 40
0.0
 40
0.0
 40
1.0
 40
1.0
 40
1.0
 40
1.0
 10
20.3334
 20
34.5942
 30
0.0
 10
20.3334
 20
34.5942
 30
0.0
 10
25.453
 20
34.7063
 30
0.0
 10
25.453
 20
34.7063
 30
0.0
  0
SPLINE
  5
AC
330
1F
100
AcDbEntity
  8
DATUMS
 62
   250
100
AcDbSpline
210
0.0
220
0.0
230
1.0
 70
    24
 71
     3
 72
     8
 73
     4
 74
     0
 42
0.0000000001
 43
0.0000000001
 40
0.0
 40
0.0
 40
0.0
 40
0.0
 40
1.0
 40
1.0
 40
1.0
 40
1.0
 10
20.3333
 20
35.0675
 30
0.0
 10
20.3333
 20
35.0675
 30
0.0
 10
25.453
 20
35.1796
 30
0.0
 10
25.453
 20
35.1796
 30
0.0
  0
SPLINE
  5
AD
330
1F
100
AcDbEntity
  8
DATUMS
 62
   250
100
AcDbSpline
210
0.0
220
0.0
230
1.0
 70
    24
 71
     3
 72
     8
 73
     4
 74
     0
 42
0.0000000001
 43
0.0000000001
 40
0.0
 40
0.0
 40
0.0
 40
0.0
 40
1.0
 40
1.0
 40
1.0
 40
1.0
 10
20.3332
 20
35.5409
 30
0.0
 10
20.3332
 20
35.5409
 30
0.0
 10
25.4529
 20
35.653
 30
0.0
 10
25.4529
 20
35.653
 30
0.0
  0
SPLINE
  5
AE
330
1F
100
AcDbEntity
  8
DATUMS
 62
   250
100
AcDbSpline
210
0.0
220
0.0
230
1.0
 70
    11
 71
     3
 72
    52
 73
    48
 74
     0
 42
0.0000000001
 43
0.0000000001
 40
0.0
 40
0.0
 40
0.0
 40
0.0
 40
0.0769230769230769
 40
0.0769230769230769
 40
0.0769230769230769
 40
0.0769230769230769
 40
0.1538461538461539
 40
0.1538461538461539
 40
0.1538461538461539
 40
0.1538461538461539
 40
0.2307692307692308
 40
0.2307692307692308
 40
0.2307692307692308
 40
0.2307692307692308
 40
0.3076923076923077
 40
0.3076923076923077
 40
0.3076923076923077
 40
0.3076923076923077
 40
0.3846153846153846
 40
0.3846153846153846
 40
0.3846153846153846
 40
0.3846153846153846
 40
0.4615384615384616
 40
0.4615384615384616
 40
0.4615384615384616
 40
0.4615384615384616
 40
0.5384615384615384
 40
0.5384615384615384
 40
0.5384615384615384
 40
0.5384615384615384
 40
0.6153846153846154
 40
0.6153846153846154
 40
0.6153846153846154
 40
0.6153846153846154
 40
0.6923076923076923
 40
0.6923076923076923
 40
0.6923076923076923
 40
0.6923076923076923
 40
0.7692307692307693
 40
0.7692307692307693
 40
0.7692307692307693
 40
0.7692307692307693
 40
0.8461538461538461
 40
0.8461538461538461
 40
0.8461538461538461
 40
0.8461538461538461
 40
1.0
 40
1.0
 40
1.0
 40
1.0
 10
20.3207
 20
25.3754
 30
0.0
 10
20.3451
 20
25.8595
 30
0.0
 10
20.4591
 20
26.3078
 30
0.0
 10
20.7398
 20
26.711
 30
0.0
 10
20.7398
 20
26.711
 30
0.0
 10
20.9203
 20
26.9705
 30
0.0
 10
21.1536
 20
27.1922
 30
0.0
 10
21.4219
 20
27.3594
 30
0.0
 10
21.4219
 20
27.3594
 30
0.0
 10
21.6902
 20
27.5266
 30
0.0
 10
21.992
 20
27.6384
 30
0.0
 10
22.3046
 20
27.6864
 30
0.0
 10
22.3046
 20
27.6864
 30
0.0
 10
22.617
 20
27.7341
 30
0.0
 10
22.9385
 20
27.7178
 30
0.0
 10
23.2446
 20
27.6387
 30
0.0
 10
23.2446
 20
27.6387
 30
0.0
 10
23.5506
 20
27.5594
 30
0.0
 10
23.8396
 20
27.4176
 30
0.0
 10
24.0895
 20
27.2242
 30
0.0
 10
24.0895
 20
27.2242
 30
0.0
 10
24.9221
 20
26.5796
 30
0.0
 10
25.2222
 20
25.4211
 30
0.0
 10
24.807
 20
24.4534
 30
0.0
 10
24.807
 20
24.4534
 30
0.0
 10
24.7136
 20
24.2356
 30
0.0
 10
24.5868
 20
24.0324
 30
0.0
 10
24.4325
 20
23.8525
 30
0.0
 10
24.4325
 20
23.8525
 30
0.0
 10
24.2781
 20
23.6727
 30
0.0
 10
24.0963
 20
23.5167
 30
0.0
 10
23.8951
 20
23.3912
 30
0.0
 10
23.8951
 20
23.3912
 30
0.0
 10
23.549
 20
23.1755
 30
0.0
 10
23.1782
 20
23.0812
 30
0.0
 10
22.7769
 20
23.0404
 30
0.0
 10
22.7769
 20
23.0404
 30
0.0
 10
22.5356
 20
23.0404
 30
0.0
 10
22.3077
 20
23.0512
 30
0.0
 10
22.0725
 20
23.112
 30
0.0
 10
22.0725
 20
23.112
 30
0.0
 10
21.3779
 20
23.292
 30
0.0
 10
20.793
 20
23.7942
 30
0.0
 10
20.5101
 20
24.4534
 30
0.0
 10
20.5101
 20
24.4534
 30
0.0
 10
20.3819
 20
24.752
 30
0.0
 10
20.3369
 20
25.0539
 30
0.0
 10
20.3207
 20
25.3754
 30
0.0
  0
SPLINE
  5
AF
330
1F
100
AcDbEntity
  8
DATUMS
 62
   250
100
AcDbSpline
210
0.0
220
0.0
230
1.0
 70
     8
 71
     3
 72
    40
 73
    36
 74
     0
 42
0.0000000001
 43
0.0000000001
 40
0.0
 40
0.0
 40
0.0
 40
0.0
 40
0.1
 40
0.1
 40
0.1
 40
0.1
 40
0.2
 40
0.2
 40
0.2
 40
0.2
 40
0.3
 40
0.3
 40
0.3
 40
0.3
 40
0.4
 40
0.4
 40
0.4
 40
0.4
 40
0.5
 40
0.5
 40
0.5
 40
0.5
 40
0.6
 40
0.6
 40
0.6
 40
0.6
 40
0.7
 40
0.7
 40
0.7
 40
0.7
 40
0.8
 40
0.8
 40
0.8
 40
0.8
 40
1.0
 40
1.0
 40
1.0
 40
1.0
 10
21.5247
 20
26.0648
 30
0.0
 10
21.6684
 20
26.2682
 30
0.0
 10
21.8235
 20
26.4372
 30
0.0
 10
22.048
 20
26.5535
 30
0.0
 10
22.048
 20
26.5535
 30
0.0
 10
22.7836
 20
26.9346
 30
0.0
 10
23.7127
 20
26.5311
 30
0.0
 10
23.9362
 20
25.7334
 30
0.0
 10
23.9362
 20
25.7334
 30
0.0
 10
23.9852
 20
25.5588
 30
0.0
 10
23.9978
 20
25.3744
 30
0.0
 10
23.973
 20
25.1947
 30
0.0
 10
23.973
 20
25.1947
 30
0.0
 10
23.9484
 20
25.0149
 30
0.0
 10
23.8866
 20
24.8408
 30
0.0
 10
23.7924
 20
24.686
 30
0.0
 10
23.7924
 20
24.686
 30
0.0
 10
23.698
 20
24.5309
 30
0.0
 10
23.5719
 20
24.3959
 30
0.0
 10
23.4238
 20
24.2913
 30
0.0
 10
23.4238
 20
24.2913
 30
0.0
 10
23.2172
 20
24.1455
 30
0.0
 10
22.9956
 20
24.0855
 30
0.0
 10
22.749
 20
24.0516
 30
0.0
 10
22.749
 20
24.0516
 30
0.0
 10
22.5623
 20
24.0516
 30
0.0
 10
22.3924
 20
24.0618
 30
0.0
 10
22.2141
 20
24.125
 30
0.0
 10
22.2141
 20
24.125
 30
0.0
 10
21.6289
 20
24.3331
 30
0.0
 10
21.2594
 20
24.9407
 30
0.0
 10
21.3439
 20
25.556
 30
0.0
 10
21.3439
 20
25.556
 30
0.0
 10
21.3783
 20
25.8067
 30
0.0
 10
21.4857
 20
26.0094
 30
0.0
 10
21.6293
 20
26.2129
 30
0.0
  0
SPLINE
  5
B0
330
1F
100
AcDbEntity
  8
DATUMS
 62
   250
100
AcDbSpline
210
0.0
220
0.0
230
1.0
 70
     8
 71
     3
 72
     8
 73
     4
 74
     0
 42
0.0000000001
 43
0.0000000001
 40
0.0
 40
0.0
 40
0.0
 40
0.0
 40
1.0
 40
1.0
 40
1.0
 40
1.0
 10
37.7597
 20
21.8175
 30
0.0
 10
38.0318
 20
21.7235
 30
0.0
 10
37.9244
 20
21.2272
 30
0.0
 10
37.9244
 20
21.0755
 30
0.0
  0
SPLINE
  5
B1
330
1F
100
AcDbEntity
  8
DATUMS
 62
   250
100
AcDbSpline
210
0.0
220
0.0
230
1.0
 70
    24
 71
     3
 72
     8
 73
     4
 74
     0
 42
0.0000000001
 43
0.0000000001
 40
0.0
 40
0.0
 40
0.0
 40
0.0
 40
1.0
 40
1.0
 40
1.0
 40
1.0
 10
37.9244
 20
21.0755
 30
0.0
 10
37.9244
 20
21.0755
 30
0.0
 10
37.9244
 20
17.5359
 30
0.0
 10
37.9244
 20
17.5359
 30
0.0
  0
SPLINE
  5
B2
330
1F
100
AcDbEntity
  8
DATUMS
 62
   250
100
AcDbSpline
210
0.0
220
0.0
230
1.0
 70
     8
 71
     3
 72
     8
 73
     4
 74
     0
 42
0.0000000001
 43
0.0000000001
 40
0.0
 40
0.0
 40
0.0
 40
0.0
 40
1.0
 40
1.0
 40
1.0
 40
1.0
 10
37.9244
 20
17.5359
 30
0.0
 10
37.9244
 20
17.3838
 30
0.0
 10
38.0318
 20
16.8881
 30
0.0
 10
37.7597
 20
16.7938
 30
0.0
  0
SPLINE
  5
B3
330
1F
100
AcDbEntity
  8
DATUMS
 62
   250
100
AcDbSpline
210
0.0
220
0.0
230
1.0
 70
     8
 71
     3
 72
     8
 73
     4
 74
     0
 42
0.0000000001
 43
0.0000000001
 40
0.0
 40
0.0
 40
0.0
 40
0.0
 40
1.0
 40
1.0
 40
1.0
 40
1.0
 10
37.9244
 20
17.0304
 30
0.0
 10
37.9144
 20
16.9413
 30
0.0
 10
37.8443
 20
16.8852
 30
0.0
 10
37.7597
 20
16.8649
 30
0.0
  0
SPLINE
  5
B4
330
1F
100
AcDbEntity
  8
DATUMS
 62
   250
100
AcDbSpline
210
0.0
220
0.0
230
1.0
 70
     8
 71
     3
 72
     8
 73
     4
 74
     0
 42
0.0000000001
 43
0.0000000001
 40
0.0
 40
0.0
 40
0.0
 40
0.0
 40
1.0
 40
1.0
 40
1.0
 40
1.0
 10
37.9244
 20
21.5811
 30
0.0
 10
37.9145
 20
21.6696
 30
0.0
 10
37.8443
 20
21.7262
 30
0.0
 10
37.7597
 20
21.7466
 30
0.0
  0
SPLINE
  5
B5
330
1F
100
AcDbEntity
  8
DATUMS
 62
   250
100
AcDbSpline
210
0.0
220
0.0
230
1.0
 70
    24
 71
     3
 72
     8
 73
     4
 74
     0
 42
0.0000000001
 43
0.0000000001
 40
0.0
 40
0.0
 40
0.0
 40
0.0
 40
1.0
 40
1.0
 40
1.0
 40
1.0
 10
36.5596
 20
34.2215
 30
0.0
 10
36.5596
 20
34.2215
 30
0.0
 10
36.5596
 20
-6.2158
 30
0.0
 10
36.5596
 20
-6.2158
 30
0.0
  0
SPLINE
  5
B6
330
1F
100
AcDbEntity
  8
DATUMS
 62
   250
100
AcDbSpline
210
0.0
220
0.0
230
1.0
 70
    24
 71
     3
 72
     8
 73
     4
 74
     0
 42
0.0000000001
 43
0.0000000001
 40
0.0
 40
0.0
 40
0.0
 40
0.0
 40
1.0
 40
1.0
 40
1.0
 40
1.0
 10
36.5596
 20
-6.2097
 30
0.0
 10
36.5596
 20
-6.2097
 30
0.0
 10
36.5596
 20
-6.1488
 30
0.0
 10
36.5596
 20
-6.1488
 30
0.0
  0
SPLINE
  5
B7
330
1F
100
AcDbEntity
  8
DATUMS
 62
   250
100
AcDbSpline
210
0.0
220
0.0
230
1.0
 70
    24
 71
     3
 72
     8
 73
     4
 74
     0
 42
0.0000000001
 43
0.0000000001
 40
0.0
 40
0.0
 40
0.0
 40
0.0
 40
1.0
 40
1.0
 40
1.0
 40
1.0
 10
36.5596
 20
34.1755
 30
0.0
 10
36.5596
 20
34.1755
 30
0.0
 10
36.5596
 20
34.0464
 30
0.0
 10
36.5596
 20
34.0464
 30
0.0
  0
SPLINE
  5
B8
330
1F
100
AcDbEntity
  8
DATUMS
 62
   250
100
AcDbSpline
210
0.0
220
0.0
230
1.0
 70
     8
 71
     3
 72
     8
 73
     4
 74
     0
 42
0.0000000001
 43
0.0000000001
 40
0.0
 40
0.0
 40
0.0
 40
0.0
 40
1.0
 40
1.0
 40
1.0
 40
1.0
 10
37.1221
 20
-5.5778
 30
0.0
 10
37.2883
 20
-5.3092
 30
0.0
 10
37.404
 20
-5.0147
 30
0.0
 10
37.461
 20
-4.7035
 30
0.0
  0
SPLINE
  5
B9
330
1F
100
AcDbEntity
  8
DATUMS
 62
   250
100
AcDbSpline
210
0.0
220
0.0
230
1.0
 70
     8
 71
     3
 72
    24
 73
    20
 74
     0
 42
0.0000000001
 43
0.0000000001
 40
0.0
 40
0.0
 40
0.0
 40
0.0
 40
0.1666666666666667
 40
0.1666666666666667
 40
0.1666666666666667
 40
0.1666666666666667
 40
0.3333333333333333
 40
0.3333333333333333
 40
0.3333333333333333
 40
0.3333333333333333
 40
0.5
 40
0.5
 40
0.5
 40
0.5
 40
0.6666666666666666
 40
0.6666666666666666
 40
0.6666666666666666
 40
0.6666666666666666
 40
1.0
 40
1.0
 40
1.0
 40
1.0
 10
37.461
 20
-4.7035
 30
0.0
 10
37.461
 20
-4.7035
 30
0.0
 10
37.4896
 20
-4.5008
 30
0.0
 10
37.4896
 20
-4.5008
 30
0.0
 10
37.4896
 20
-4.5008
 30
0.0
 10
37.4896
 20
-4.5008
 30
0.0
 10
37.5399
 20
-3.9977
 30
0.0
 10
37.5399
 20
-3.9977
 30
0.0
 10
37.5399
 20
-3.9977
 30
0.0
 10
37.5399
 20
-3.9977
 30
0.0
 10
37.7405
 20
-1.9922
 30
0.0
 10
37.7405
 20
-1.9922
 30
0.0
 10
37.7405
 20
-1.9922
 30
0.0
 10
37.7405
 20
-1.9922
 30
0.0
 10
37.7907
 20
-1.4891
 30
0.0
 10
37.7907
 20
-1.4891
 30
0.0
 10
37.7907
 20
-1.4891
 30
0.0
 10
37.7907
 20
-1.4891
 30
0.0
 10
37.7937
 20
-1.4285
 30
0.0
 10
37.7937
 20
-1.4285
 30
0.0
  0
SPLINE
  5
BA
330
1F
100
AcDbEntity
  8
DATUMS
 62
   250
100
AcDbSpline
210
0.0
220
0.0
230
1.0
 70
     8
 71
     3
 72
    12
 73
     8
 74
     0
 42
0.0000000001
 43
0.0000000001
 40
0.0
 40
0.0
 40
0.0
 40
0.0
 40
0.3333333333333333
 40
0.3333333333333333
 40
0.3333333333333333
 40
0.3333333333333333
 40
1.0
 40
1.0
 40
1.0
 40
1.0
 10
37.7937
 20
-1.4285
 30
0.0
 10
37.7937
 20
-1.2778
 30
0.0
 10
37.7733
 20
-1.1258
 30
0.0
 10
37.7677
 20
-0.9749
 30
0.0
 10
37.7677
 20
-0.9749
 30
0.0
 10
37.756
 20
-0.6586
 30
0.0
 10
37.7597
 20
-0.342
 30
0.0
 10
37.7597
 20
-0.0257
 30
0.0
  0
SPLINE
  5
BB
330
1F
100
AcDbEntity
  8
DATUMS
 62
   250
100
AcDbSpline
210
0.0
220
0.0
230
1.0
 70
    24
 71
     3
 72
     8
 73
     4
 74
     0
 42
0.0000000001
 43
0.0000000001
 40
0.0
 40
0.0
 40
0.0
 40
0.0
 40
1.0
 40
1.0
 40
1.0
 40
1.0
 10
37.7597
 20
-0.0257
 30
0.0
 10
37.7597
 20
-0.0257
 30
0.0
 10
37.7597
 20
28.0292
 30
0.0
 10
37.7597
 20
28.0292
 30
0.0
  0
SPLINE
  5
BC
330
1F
100
AcDbEntity
  8
DATUMS
 62
   250
100
AcDbSpline
210
0.0
220
0.0
230
1.0
 70
     8
 71
     3
 72
    12
 73
     8
 74
     0
 42
0.0000000001
 43
0.0000000001
 40
0.0
 40
0.0
 40
0.0
 40
0.0
 40
0.3333333333333333
 40
0.3333333333333333
 40
0.3333333333333333
 40
0.3333333333333333
 40
1.0
 40
1.0
 40
1.0
 40
1.0
 10
37.7597
 20
28.0292
 30
0.0
 10
37.7597
 20
28.3096
 30
0.0
 10
37.7565
 20
28.5903
 30
0.0
 10
37.7642
 20
28.8707
 30
0.0
 10
37.7642
 20
28.8707
 30
0.0
 10
37.7693
 20
29.0574
 30
0.0
 10
37.7937
 20
29.2454
 30
0.0
 10
37.7937
 20
29.432
 30
0.0
  0
SPLINE
  5
BD
330
1F
100
AcDbEntity
  8
DATUMS
 62
   250
100
AcDbSpline
210
0.0
220
0.0
230
1.0
 70
     8
 71
     3
 72
    12
 73
     8
 74
     0
 42
0.0000000001
 43
0.0000000001
 40
0.0
 40
0.0
 40
0.0
 40
0.0
 40
0.3333333333333333
 40
0.3333333333333333
 40
0.3333333333333333
 40
0.3333333333333333
 40
1.0
 40
1.0
 40
1.0
 40
1.0
 10
37.7937
 20
29.432
 30
0.0
 10
37.7937
 20
29.432
 30
0.0
 10
37.7907
 20
29.4927
 30
0.0
 10
37.7907
 20
29.4927
 30
0.0
 10
37.7907
 20
29.4927
 30
0.0
 10
37.7907
 20
29.4927
 30
0.0
 10
37.7603
 20
29.798
 30
0.0
 10
37.7603
 20
29.798
 30
0.0
  0
SPLINE
  5
BE
330
1F
100
AcDbEntity
  8
DATUMS
 62
   250
100
AcDbSpline
210
0.0
220
0.0
230
1.0
 70
     8
 71
     3
 72
    12
 73
     8
 74
     0
 42
0.0000000001
 43
0.0000000001
 40
0.0
 40
0.0
 40
0.0
 40
0.0
 40
0.3333333333333333
 40
0.3333333333333333
 40
0.3333333333333333
 40
0.3333333333333333
 40
1.0
 40
1.0
 40
1.0
 40
1.0
 10
37.7907
 20
29.4927
 30
0.0
 10
37.7907
 20
29.4927
 30
0.0
 10
37.7405
 20
29.9957
 30
0.0
 10
37.7405
 20
29.9957
 30
0.0
 10
37.7405
 20
29.9957
 30
0.0
 10
37.7405
 20
29.9957
 30
0.0
 10
37.5399
 20
32.0013
 30
0.0
 10
37.5399
 20
32.0013
 30
0.0
  0
SPLINE
  5
BF
330
1F
100
AcDbEntity
  8
DATUMS
 62
   250
100
AcDbSpline
210
0.0
220
0.0
230
1.0
 70
     8
 71
     3
 72
     8
 73
     4
 74
     0
 42
0.0000000001
 43
0.0000000001
 40
0.0
 40
0.0
 40
0.0
 40
0.0
 40
1.0
 40
1.0
 40
1.0
 40
1.0
 10
37.5399
 20
32.0013
 30
0.0
 10
37.5126
 20
32.2727
 30
0.0
 10
37.4974
 20
32.5453
 30
0.0
 10
37.4374
 20
32.8117
 30
0.0
  0
SPLINE
  5
C0
330
1F
100
AcDbEntity
  8
DATUMS
 62
   250
100
AcDbSpline
210
0.0
220
0.0
230
1.0
 70
     8
 71
     3
 72
     8
 73
     4
 74
     0
 42
0.0000000001
 43
0.0000000001
 40
0.0
 40
0.0
 40
0.0
 40
0.0
 40
1.0
 40
1.0
 40
1.0
 40
1.0
 10
37.4729
 20
32.6162
 30
0.0
 10
37.3998
 20
33.0292
 30
0.0
 10
37.2602
 20
33.4088
 30
0.0
 10
37.0087
 20
33.7495
 30
0.0
  0
SPLINE
  5
C1
330
1F
100
AcDbEntity
  8
DATUMS
 62
   250
100
AcDbSpline
210
0.0
220
0.0
230
1.0
 70
     8
 71
     3
 72
     8
 73
     4
 74
     0
 42
0.0000000001
 43
0.0000000001
 40
0.0
 40
0.0
 40
0.0
 40
0.0
 40
1.0
 40
1.0
 40
1.0
 40
1.0
 10
36.5596
 20
34.2215
 30
0.0
 10
36.7057
 20
34.0955
 30
0.0
 10
36.847
 20
33.9664
 30
0.0
 10
36.9638
 20
33.8109
 30
0.0
  0
SPLINE
  5
C2
330
1F
100
AcDbEntity
  8
DATUMS
 62
   250
100
AcDbSpline
210
0.0
220
0.0
230
1.0
 70
     8
 71
     3
 72
    12
 73
     8
 74
     0
 42
0.0000000001
 43
0.0000000001
 40
0.0
 40
0.0
 40
0.0
 40
0.0
 40
0.3333333333333333
 40
0.3333333333333333
 40
0.3333333333333333
 40
0.3333333333333333
 40
1.0
 40
1.0
 40
1.0
 40
1.0
 10
37.0929
 20
33.6279
 30
0.0
 10
37.0929
 20
33.6279
 30
0.0
 10
37.0066
 20
33.7524
 30
0.0
 10
37.0066
 20
33.7524
 30
0.0
 10
37.0066
 20
33.7524
 30
0.0
 10
37.0066
 20
33.7524
 30
0.0
 10
36.9462
 20
33.8342
 30
0.0
 10
36.9462
 20
33.8342
 30
0.0
  0
SPLINE
  5
C3
330
1F
100
AcDbEntity
  8
DATUMS
 62
   250
100
AcDbSpline
210
0.0
220
0.0
230
1.0
 70
     8
 71
     3
 72
     8
 73
     4
 74
     0
 42
0.0000000001
 43
0.0000000001
 40
0.0
 40
0.0
 40
0.0
 40
0.0
 40
1.0
 40
1.0
 40
1.0
 40
1.0
 10
37.1524
 20
-5.5291
 30
0.0
 10
36.9898
 20
-5.7958
 30
0.0
 10
36.7961
 20
-6.014
 30
0.0
 10
36.5596
 20
-6.218
 30
0.0
  0
SPLINE
  5
C4
330
1F
100
AcDbEntity
  8
DATUMS
 62
   250
100
AcDbSpline
210
0.0
220
0.0
230
1.0
 70
     8
 71
     3
 72
    20
 73
    16
 74
     0
 42
0.0000000001
 43
0.0000000001
 40
0.0
 40
0.0
 40
0.0
 40
0.0
 40
0.2
 40
0.2
 40
0.2
 40
0.2
 40
0.4
 40
0.4
 40
0.4
 40
0.4
 40
0.6
 40
0.6
 40
0.6
 40
0.6
 40
1.0
 40
1.0
 40
1.0
 40
1.0
 10
37.7907
 20
29.3668
 30
0.0
 10
37.7907
 20
29.3668
 30
0.0
 10
37.7414
 20
29.87
 30
0.0
 10
37.7414
 20
29.87
 30
0.0
 10
37.7414
 20
29.87
 30
0.0
 10
37.7414
 20
29.87
 30
0.0
 10
37.5388
 20
31.9374
 30
0.0
 10
37.5388
 20
31.9374
 30
0.0
 10
37.5388
 20
31.9374
 30
0.0
 10
37.5388
 20
31.9374
 30
0.0
 10
37.4896
 20
32.4404
 30
0.0
 10
37.4896
 20
32.4404
 30
0.0
 10
37.4896
 20
32.4404
 30
0.0
 10
37.4896
 20
32.4404
 30
0.0
 10
37.461
 20
32.5985
 30
0.0
 10
37.461
 20
32.5985
 30
0.0
  0
SPLINE
  5
C5
330
1F
100
AcDbEntity
  8
DATUMS
 62
   250
100
AcDbSpline
210
0.0
220
0.0
230
1.0
 70
     8
 71
     3
 72
     8
 73
     4
 74
     0
 42
0.0000000001
 43
0.0000000001
 40
0.0
 40
0.0
 40
0.0
 40
0.0
 40
1.0
 40
1.0
 40
1.0
 40
1.0
 10
37.461
 20
32.5985
 30
0.0
 10
37.3328
 20
33.1562
 30
0.0
 10
36.9861
 20
33.6423
 30
0.0
 10
36.5596
 20
34.0122
 30
0.0
  0
SPLINE
  5
C6
330
1F
100
AcDbEntity
  8
DATUMS
 62
   250
100
AcDbSpline
210
0.0
220
0.0
230
1.0
 70
    24
 71
     3
 72
    24
 73
    20
 74
     0
 42
0.0000000001
 43
0.0000000001
 40
0.0
 40
0.0
 40
0.0
 40
0.0
 40
0.1666666666666667
 40
0.1666666666666667
 40
0.1666666666666667
 40
0.1666666666666667
 40
0.3333333333333333
 40
0.3333333333333333
 40
0.3333333333333333
 40
0.3333333333333333
 40
0.5
 40
0.5
 40
0.5
 40
0.5
 40
0.6666666666666666
 40
0.6666666666666666
 40
0.6666666666666666
 40
0.6666666666666666
 40
1.0
 40
1.0
 40
1.0
 40
1.0
 10
37.4896
 20
-4.5008
 30
0.0
 10
37.4896
 20
-4.5008
 30
0.0
 10
37.4896
 20
-4.4369
 30
0.0
 10
37.4896
 20
-4.4369
 30
0.0
 10
37.4896
 20
-4.4369
 30
0.0
 10
37.4896
 20
-4.4369
 30
0.0
 10
37.4896
 20
-3.9315
 30
0.0
 10
37.4896
 20
-3.9315
 30
0.0
 10
37.4896
 20
-3.9315
 30
0.0
 10
37.4896
 20
-3.9315
 30
0.0
 10
37.4896
 20
31.935
 30
0.0
 10
37.4896
 20
31.935
 30
0.0
 10
37.4896
 20
31.935
 30
0.0
 10
37.4896
 20
31.935
 30
0.0
 10
37.4896
 20
32.4404
 30
0.0
 10
37.4896
 20
32.4404
 30
0.0
 10
37.4896
 20
32.4404
 30
0.0
 10
37.4896
 20
32.4404
 30
0.0
 10
37.4896
 20
32.5042
 30
0.0
 10
37.4896
 20
32.5042
 30
0.0
  0
SPLINE
  5
C7
330
1F
100
AcDbEntity
  8
DATUMS
 62
   250
100
AcDbSpline
210
0.0
220
0.0
230
1.0
 70
     8
 71
     3
 72
     8
 73
     4
 74
     0
 42
0.0000000001
 43
0.0000000001
 40
0.0
 40
0.0
 40
0.0
 40
0.0
 40
1.0
 40
1.0
 40
1.0
 40
1.0
 10
36.5596
 20
-6.0086
 30
0.0
 10
36.9861
 20
-5.6389
 30
0.0
 10
37.3328
 20
-5.1527
 30
0.0
 10
37.461
 20
-4.595
 30
0.0
  0
SPLINE
  5
C8
330
1F
100
AcDbEntity
  8
DATUMS
 62
   250
100
AcDbSpline
210
0.0
220
0.0
230
1.0
 70
     8
 71
     3
 72
    20
 73
    16
 74
     0
 42
0.0000000001
 43
0.0000000001
 40
0.0
 40
0.0
 40
0.0
 40
0.0
 40
0.2
 40
0.2
 40
0.2
 40
0.2
 40
0.4
 40
0.4
 40
0.4
 40
0.4
 40
0.6
 40
0.6
 40
0.6
 40
0.6
 40
1.0
 40
1.0
 40
1.0
 40
1.0
 10
37.461
 20
-4.595
 30
0.0
 10
37.461
 20
-4.595
 30
0.0
 10
37.4896
 20
-4.4369
 30
0.0
 10
37.4896
 20
-4.4369
 30
0.0
 10
37.4896
 20
-4.4369
 30
0.0
 10
37.4896
 20
-4.4369
 30
0.0
 10
37.5388
 20
-3.9338
 30
0.0
 10
37.5388
 20
-3.9338
 30
0.0
 10
37.5388
 20
-3.9338
 30
0.0
 10
37.5388
 20
-3.9338
 30
0.0
 10
37.7414
 20
-1.8663
 30
0.0
 10
37.7414
 20
-1.8663
 30
0.0
 10
37.7414
 20
-1.8663
 30
0.0
 10
37.7414
 20
-1.8663
 30
0.0
 10
37.7907
 20
-1.3633
 30
0.0
 10
37.7907
 20
-1.3633
 30
0.0
  0
SPLINE
  5
C9
330
1F
100
AcDbEntity
  8
DATUMS
 62
   250
100
AcDbSpline
210
0.0
220
0.0
230
1.0
 70
    24
 71
     3
 72
     8
 73
     4
 74
     0
 42
0.0000000001
 43
0.0000000001
 40
0.0
 40
0.0
 40
0.0
 40
0.0
 40
1.0
 40
1.0
 40
1.0
 40
1.0
 10
20.2731
 20
33.337
 30
0.0
 10
20.2731
 20
33.337
 30
0.0
 10
20.2731
 20
35.9403
 30
0.0
 10
20.2731
 20
35.9403
 30
0.0
  0
SPLINE
  5
CA
330
1F
100
AcDbEntity
  8
DATUMS
 62
   250
100
AcDbSpline
210
0.0
220
0.0
230
1.0
 70
    24
 71
     3
 72
     8
 73
     4
 74
     0
 42
0.0000000001
 43
0.0000000001
 40
0.0
 40
0.0
 40
0.0
 40
0.0
 40
1.0
 40
1.0
 40
1.0
 40
1.0
 10
20.2195
 20
33.337
 30
0.0
 10
20.2195
 20
33.337
 30
0.0
 10
20.2195
 20
31.694
 30
0.0
 10
20.2195
 20
31.694
 30
0.0
  0
SPLINE
  5
CB
330
1F
100
AcDbEntity
  8
DATUMS
 62
   250
100
AcDbSpline
210
0.0
220
0.0
230
1.0
 70
    24
 71
     3
 72
     8
 73
     4
 74
     0
 42
0.0000000001
 43
0.0000000001
 40
0.0
 40
0.0
 40
0.0
 40
0.0
 40
1.0
 40
1.0
 40
1.0
 40
1.0
 10
25.6031
 20
33.337
 30
0.0
 10
25.6031
 20
33.337
 30
0.0
 10
20.2195
 20
33.337
 30
0.0
 10
20.2195
 20
33.337
 30
0.0
  0
SPLINE
  5
CC
330
1F
100
AcDbEntity
  8
DATUMS
 62
   250
100
AcDbSpline
210
0.0
220
0.0
230
1.0
 70
    24
 71
     3
 72
     8
 73
     4
 74
     0
 42
0.0000000001
 43
0.0000000001
 40
0.0
 40
0.0
 40
0.0
 40
0.0
 40
1.0
 40
1.0
 40
1.0
 40
1.0
 10
25.6031
 20
31.694
 30
0.0
 10
25.6031
 20
31.694
 30
0.0
 10
25.6031
 20
33.337
 30
0.0
 10
25.6031
 20
33.337
 30
0.0
  0
SPLINE
  5
CD
330
1F
100
AcDbEntity
  8
DATUMS
 62
   250
100
AcDbSpline
210
0.0
220
0.0
230
1.0
 70
    24
 71
     3
 72
     8
 73
     4
 74
     0
 42
0.0000000001
 43
0.0000000001
 40
0.0
 40
0.0
 40
0.0
 40
0.0
 40
1.0
 40
1.0
 40
1.0
 40
1.0
 10
25.5495
 20
33.337
 30
0.0
 10
25.5495
 20
33.337
 30
0.0
 10
25.5495
 20
35.9403
 30
0.0
 10
25.5495
 20
35.9403
 30
0.0
  0
SPLINE
  5
CE
330
1F
100
AcDbEntity
  8
DATUMS
 62
   250
100
AcDbSpline
210
0.0
220
0.0
230
1.0
 70
    24
 71
     3
 72
     8
 73
     4
 74
     0
 42
0.0000000001
 43
0.0000000001
 40
0.0
 40
0.0
 40
0.0
 40
0.0
 40
1.0
 40
1.0
 40
1.0
 40
1.0
 10
25.2966
 20
36.193
 30
0.0
 10
25.2966
 20
36.193
 30
0.0
 10
25.5495
 20
35.9403
 30
0.0
 10
25.5495
 20
35.9403
 30
0.0
  0
SPLINE
  5
CF
330
1F
100
AcDbEntity
  8
DATUMS
 62
   250
100
AcDbSpline
210
0.0
220
0.0
230
1.0
 70
    24
 71
     3
 72
     8
 73
     4
 74
     0
 42
0.0000000001
 43
0.0000000001
 40
0.0
 40
0.0
 40
0.0
 40
0.0
 40
1.0
 40
1.0
 40
1.0
 40
1.0
 10
24.1216
 20
33.337
 30
0.0
 10
24.1216
 20
33.337
 30
0.0
 10
23.8929
 20
33.337
 30
0.0
 10
23.8929
 20
33.337
 30
0.0
  0
SPLINE
  5
D0
330
1F
100
AcDbEntity
  8
DATUMS
 62
   250
100
AcDbSpline
210
0.0
220
0.0
230
1.0
 70
    24
 71
     3
 72
     8
 73
     4
 74
     0
 42
0.0000000001
 43
0.0000000001
 40
0.0
 40
0.0
 40
0.0
 40
0.0
 40
1.0
 40
1.0
 40
1.0
 40
1.0
 10
21.9295
 20
33.337
 30
0.0
 10
21.9295
 20
33.337
 30
0.0
 10
21.7009
 20
33.337
 30
0.0
 10
21.7009
 20
33.337
 30
0.0
  0
SPLINE
  5
D1
330
1F
100
AcDbEntity
  8
DATUMS
 62
   250
100
AcDbSpline
210
0.0
220
0.0
230
1.0
 70
    24
 71
     3
 72
     8
 73
     4
 74
     0
 42
0.0000000001
 43
0.0000000001
 40
0.0
 40
0.0
 40
0.0
 40
0.0
 40
1.0
 40
1.0
 40
1.0
 40
1.0
 10
22.9112
 20
33.0965
 30
0.0
 10
22.9112
 20
33.0965
 30
0.0
 10
22.9112
 20
31.9345
 30
0.0
 10
22.9112
 20
31.9345
 30
0.0
  0
SPLINE
  5
D2
330
1F
100
AcDbEntity
  8
DATUMS
 62
   250
100
AcDbSpline
210
0.0
220
0.0
230
1.0
 70
    24
 71
     3
 72
     8
 73
     4
 74
     0
 42
0.0000000001
 43
0.0000000001
 40
0.0
 40
0.0
 40
0.0
 40
0.0
 40
1.0
 40
1.0
 40
1.0
 40
1.0
 10
22.9112
 20
35.9403
 30
0.0
 10
22.9112
 20
35.9403
 30
0.0
 10
24.9074
 20
35.9403
 30
0.0
 10
24.9074
 20
35.9403
 30
0.0
  0
SPLINE
  5
D3
330
1F
100
AcDbEntity
  8
DATUMS
 62
   250
100
AcDbSpline
210
0.0
220
0.0
230
1.0
 70
    24
 71
     3
 72
     8
 73
     4
 74
     0
 42
0.0000000001
 43
0.0000000001
 40
0.0
 40
0.0
 40
0.0
 40
0.0
 40
1.0
 40
1.0
 40
1.0
 40
1.0
 10
25.5495
 20
35.9403
 30
0.0
 10
25.5495
 20
35.9403
 30
0.0
 10
24.9074
 20
35.9403
 30
0.0
 10
24.9074
 20
35.9403
 30
0.0
  0
SPLINE
  5
D4
330
1F
100
AcDbEntity
  8
DATUMS
 62
   250
100
AcDbSpline
210
0.0
220
0.0
230
1.0
 70
    24
 71
     3
 72
     8
 73
     4
 74
     0
 42
0.0000000001
 43
0.0000000001
 40
0.0
 40
0.0
 40
0.0
 40
0.0
 40
1.0
 40
1.0
 40
1.0
 40
1.0
 10
21.0885
 20
35.9403
 30
0.0
 10
21.0885
 20
35.9403
 30
0.0
 10
20.2731
 20
35.9403
 30
0.0
 10
20.2731
 20
35.9403
 30
0.0
  0
SPLINE
  5
D5
330
1F
100
AcDbEntity
  8
DATUMS
 62
   250
100
AcDbSpline
210
0.0
220
0.0
230
1.0
 70
    24
 71
     3
 72
     8
 73
     4
 74
     0
 42
0.0000000001
 43
0.0000000001
 40
0.0
 40
0.0
 40
0.0
 40
0.0
 40
1.0
 40
1.0
 40
1.0
 40
1.0
 10
22.9112
 20
35.9403
 30
0.0
 10
22.9112
 20
35.9403
 30
0.0
 10
21.0885
 20
35.9403
 30
0.0
 10
21.0885
 20
35.9403
 30
0.0
  0
SPLINE
  5
D6
330
1F
100
AcDbEntity
  8
DATUMS
 62
   250
100
AcDbSpline
210
0.0
220
0.0
230
1.0
 70
    24
 71
     3
 72
     8
 73
     4
 74
     0
 42
0.0000000001
 43
0.0000000001
 40
0.0
 40
0.0
 40
0.0
 40
0.0
 40
1.0
 40
1.0
 40
1.0
 40
1.0
 10
25.2852
 20
36.193
 30
0.0
 10
23.6989
 20
36.193
 30
0.0
 10
22.1124
 20
36.193
 30
0.0
 10
20.5259
 20
36.193
 30
0.0
  0
SPLINE
  5
D7
330
1F
100
AcDbEntity
  8
DATUMS
 62
   250
100
AcDbSpline
210
0.0
220
0.0
230
1.0
 70
    24
 71
     3
 72
     8
 73
     4
 74
     0
 42
0.0000000001
 43
0.0000000001
 40
0.0
 40
0.0
 40
0.0
 40
0.0
 40
1.0
 40
1.0
 40
1.0
 40
1.0
 10
20.5259
 20
36.193
 30
0.0
 10
20.5259
 20
36.193
 30
0.0
 10
20.2731
 20
35.9403
 30
0.0
 10
20.2731
 20
35.9403
 30
0.0
  0
SPLINE
  5
D8
330
1F
100
AcDbEntity
  8
DATUMS
 62
   250
100
AcDbSpline
210
0.0
220
0.0
230
1.0
 70
     8
 71
     3
 72
    20
 73
    16
 74
     0
 42
0.0000000001
 43
0.0000000001
 40
0.0
 40
0.0
 40
0.0
 40
0.0
 40
0.2
 40
0.2
 40
0.2
 40
0.2
 40
0.4
 40
0.4
 40
0.4
 40
0.4
 40
0.6
 40
0.6
 40
0.6
 40
0.6
 40
1.0
 40
1.0
 40
1.0
 40
1.0
 10
25.6031
 20
33.0965
 30
0.0
 10
25.155
 20
33.2335
 30
0.0
 10
24.7258
 20
33.3192
 30
0.0
 10
24.2572
 20
33.337
 30
0.0
 10
24.2572
 20
33.337
 30
0.0
 10
23.7885
 20
33.3192
 30
0.0
 10
23.3592
 20
33.2335
 30
0.0
 10
22.9112
 20
33.0965
 30
0.0
 10
22.9112
 20
33.0965
 30
0.0
 10
22.4632
 20
33.2335
 30
0.0
 10
22.034
 20
33.3192
 30
0.0
 10
21.5654
 20
33.337
 30
0.0
 10
21.5654
 20
33.337
 30
0.0
 10
21.0967
 20
33.3192
 30
0.0
 10
20.6674
 20
33.2335
 30
0.0
 10
20.2195
 20
33.0965
 30
0.0
  0
SPLINE
  5
D9
330
1F
100
AcDbEntity
  8
DATUMS
 62
   250
100
AcDbSpline
210
0.0
220
0.0
230
1.0
 70
     8
 71
     3
 72
    12
 73
     8
 74
     0
 42
0.0000000001
 43
0.0000000001
 40
0.0
 40
0.0
 40
0.0
 40
0.0
 40
0.3333333333333333
 40
0.3333333333333333
 40
0.3333333333333333
 40
0.3333333333333333
 40
1.0
 40
1.0
 40
1.0
 40
1.0
 10
20.2195
 20
31.9345
 30
0.0
 10
20.8369
 20
31.7456
 30
0.0
 10
21.4483
 20
31.6388
 30
0.0
 10
22.094
 20
31.7334
 30
0.0
 10
22.094
 20
31.7334
 30
0.0
 10
22.2745
 20
31.76
 30
0.0
 10
22.4543
 20
31.7999
 30
0.0
 10
22.6302
 20
31.8485
 30
0.0
  0
SPLINE
  5
DA
330
1F
100
AcDbEntity
  8
DATUMS
 62
   250
100
AcDbSpline
210
0.0
220
0.0
230
1.0
 70
     8
 71
     3
 72
    12
 73
     8
 74
     0
 42
0.0000000001
 43
0.0000000001
 40
0.0
 40
0.0
 40
0.0
 40
0.0
 40
0.3333333333333333
 40
0.3333333333333333
 40
0.3333333333333333
 40
0.3333333333333333
 40
1.0
 40
1.0
 40
1.0
 40
1.0
 10
22.6302
 20
31.8485
 30
0.0
 10
22.6302
 20
31.8485
 30
0.0
 10
22.9112
 20
31.9345
 30
0.0
 10
22.9112
 20
31.9345
 30
0.0
 10
22.9112
 20
31.9345
 30
0.0
 10
22.9112
 20
31.9345
 30
0.0
 10
23.1923
 20
31.8485
 30
0.0
 10
23.1923
 20
31.8485
 30
0.0
  0
SPLINE
  5
DB
330
1F
100
AcDbEntity
  8
DATUMS
 62
   250
100
AcDbSpline
210
0.0
220
0.0
230
1.0
 70
     8
 71
     3
 72
    12
 73
     8
 74
     0
 42
0.0000000001
 43
0.0000000001
 40
0.0
 40
0.0
 40
0.0
 40
0.0
 40
0.3333333333333333
 40
0.3333333333333333
 40
0.3333333333333333
 40
0.3333333333333333
 40
1.0
 40
1.0
 40
1.0
 40
1.0
 10
23.1923
 20
31.8485
 30
0.0
 10
23.3684
 20
31.7998
 30
0.0
 10
23.548
 20
31.76
 30
0.0
 10
23.7286
 20
31.7334
 30
0.0
 10
23.7286
 20
31.7334
 30
0.0
 10
24.3742
 20
31.6388
 30
0.0
 10
24.9857
 20
31.7456
 30
0.0
 10
25.6031
 20
31.9345
 30
0.0
  0
SPLINE
  5
DC
330
1F
100
AcDbEntity
  8
DATUMS
 62
   250
100
AcDbSpline
210
0.0
220
0.0
230
1.0
 70
    24
 71
     3
 72
     8
 73
     4
 74
     0
 42
0.0000000001
 43
0.0000000001
 40
0.0
 40
0.0
 40
0.0
 40
0.0
 40
1.0
 40
1.0
 40
1.0
 40
1.0
 10
20.9904
 20
-4.0191
 30
0.0
 10
20.9904
 20
-4.0191
 30
0.0
 10
24.8321
 20
-4.0191
 30
0.0
 10
24.8321
 20
-4.0191
 30
0.0
  0
SPLINE
  5
DD
330
1F
100
AcDbEntity
  8
DATUMS
 62
   250
100
AcDbSpline
210
0.0
220
0.0
230
1.0
 70
    24
 71
     3
 72
     8
 73
     4
 74
     0
 42
0.0000000001
 43
0.0000000001
 40
0.0
 40
0.0
 40
0.0
 40
0.0
 40
1.0
 40
1.0
 40
1.0
 40
1.0
 10
22.9112
 20
-3.8927
 30
0.0
 10
22.9112
 20
-3.8927
 30
0.0
 10
20.8671
 20
-3.8927
 30
0.0
 10
20.8671
 20
-3.8927
 30
0.0
  0
SPLINE
  5
DE
330
1F
100
AcDbEntity
  8
DATUMS
 62
   250
100
AcDbSpline
210
0.0
220
0.0
230
1.0
 70
    24
 71
     3
 72
     8
 73
     4
 74
     0
 42
0.0000000001
 43
0.0000000001
 40
0.0
 40
0.0
 40
0.0
 40
0.0
 40
1.0
 40
1.0
 40
1.0
 40
1.0
 10
23.1326
 20
-3.8927
 30
0.0
 10
23.1326
 20
-3.8927
 30
0.0
 10
24.9555
 20
-3.8927
 30
0.0
 10
24.9555
 20
-3.8927
 30
0.0
  0
SPLINE
  5
DF
330
1F
100
AcDbEntity
  8
DATUMS
 62
   250
100
AcDbSpline
210
0.0
220
0.0
230
1.0
 70
    24
 71
     3
 72
     8
 73
     4
 74
     0
 42
0.0000000001
 43
0.0000000001
 40
0.0
 40
0.0
 40
0.0
 40
0.0
 40
1.0
 40
1.0
 40
1.0
 40
1.0
 10
22.9112
 20
-4.0191
 30
0.0
 10
22.9112
 20
-4.0191
 30
0.0
 10
22.9112
 20
-3.6906
 30
0.0
 10
22.9112
 20
-3.6906
 30
0.0
  0
SPLINE
  5
E0
330
1F
100
AcDbEntity
  8
DATUMS
 62
   250
100
AcDbSpline
210
0.0
220
0.0
230
1.0
 70
     8
 71
     3
 72
     8
 73
     4
 74
     0
 42
0.0000000001
 43
0.0000000001
 40
0.0
 40
0.0
 40
0.0
 40
0.0
 40
1.0
 40
1.0
 40
1.0
 40
1.0
 10
20.9904
 20
-4.0191
 30
0.0
 10
20.82
 20
-3.8444
 30
0.0
 10
20.8671
 20
-3.9516
 30
0.0
 10
20.8671
 20
-3.6906
 30
0.0
  0
SPLINE
  5
E1
330
1F
100
AcDbEntity
  8
DATUMS
 62
   250
100
AcDbSpline
210
0.0
220
0.0
230
1.0
 70
     8
 71
     3
 72
     8
 73
     4
 74
     0
 42
0.0000000001
 43
0.0000000001
 40
0.0
 40
0.0
 40
0.0
 40
0.0
 40
1.0
 40
1.0
 40
1.0
 40
1.0
 10
24.9555
 20
-3.6906
 30
0.0
 10
24.9555
 20
-3.9516
 30
0.0
 10
25.0026
 20
-3.8444
 30
0.0
 10
24.8321
 20
-4.0191
 30
0.0
  0
SPLINE
  5
E2
330
1F
100
AcDbEntity
  8
DATUMS
 62
   250
100
AcDbSpline
210
0.0
220
0.0
230
1.0
 70
    24
 71
     3
 72
     8
 73
     4
 74
     0
 42
0.0000000001
 43
0.0000000001
 40
0.0
 40
0.0
 40
0.0
 40
0.0
 40
1.0
 40
1.0
 40
1.0
 40
1.0
 10
35.5992
 20
2.5776
 30
0.0
 10
35.5992
 20
2.5776
 30
0.0
 10
35.5992
 20
2.6029
 30
0.0
 10
35.5992
 20
2.6029
 30
0.0
  0
SPLINE
  5
E3
330
1F
100
AcDbEntity
  8
DATUMS
 62
   250
100
AcDbSpline
210
0.0
220
0.0
230
1.0
 70
    24
 71
     3
 72
     8
 73
     4
 74
     0
 42
0.0000000001
 43
0.0000000001
 40
0.0
 40
0.0
 40
0.0
 40
0.0
 40
1.0
 40
1.0
 40
1.0
 40
1.0
 10
35.8014
 20
2.6029
 30
0.0
 10
35.8014
 20
2.6029
 30
0.0
 10
35.8014
 20
1.5414
 30
0.0
 10
35.8014
 20
1.5414
 30
0.0
  0
SPLINE
  5
E4
330
1F
100
AcDbEntity
  8
DATUMS
 62
   250
100
AcDbSpline
210
0.0
220
0.0
230
1.0
 70
    24
 71
     3
 72
     8
 73
     4
 74
     0
 42
0.0000000001
 43
0.0000000001
 40
0.0
 40
0.0
 40
0.0
 40
0.0
 40
1.0
 40
1.0
 40
1.0
 40
1.0
 10
35.5992
 20
1.5414
 30
0.0
 10
35.5992
 20
1.5414
 30
0.0
 10
35.5992
 20
1.5666
 30
0.0
 10
35.5992
 20
1.5666
 30
0.0
  0
SPLINE
  5
E5
330
1F
100
AcDbEntity
  8
DATUMS
 62
   250
100
AcDbSpline
210
0.0
220
0.0
230
1.0
 70
    24
 71
     3
 72
     8
 73
     4
 74
     0
 42
0.0000000001
 43
0.0000000001
 40
0.0
 40
0.0
 40
0.0
 40
0.0
 40
1.0
 40
1.0
 40
1.0
 40
1.0
 10
35.8014
 20
1.5666
 30
0.0
 10
35.8014
 20
1.5666
 30
0.0
 10
34.1729
 20
1.5666
 30
0.0
 10
34.1729
 20
1.5666
 30
0.0
  0
SPLINE
  5
E6
330
1F
100
AcDbEntity
  8
DATUMS
 62
   250
100
AcDbSpline
210
0.0
220
0.0
230
1.0
 70
    24
 71
     3
 72
     8
 73
     4
 74
     0
 42
0.0000000001
 43
0.0000000001
 40
0.0
 40
0.0
 40
0.0
 40
0.0
 40
1.0
 40
1.0
 40
1.0
 40
1.0
 10
34.1729
 20
2.5776
 30
0.0
 10
34.1729
 20
2.5776
 30
0.0
 10
34.1729
 20
1.5666
 30
0.0
 10
34.1729
 20
1.5666
 30
0.0
  0
SPLINE
  5
E7
330
1F
100
AcDbEntity
  8
DATUMS
 62
   250
100
AcDbSpline
210
0.0
220
0.0
230
1.0
 70
    24
 71
     3
 72
     8
 73
     4
 74
     0
 42
0.0000000001
 43
0.0000000001
 40
0.0
 40
0.0
 40
0.0
 40
0.0
 40
1.0
 40
1.0
 40
1.0
 40
1.0
 10
35.8014
 20
2.5776
 30
0.0
 10
35.8014
 20
2.5776
 30
0.0
 10
34.1729
 20
2.5776
 30
0.0
 10
34.1729
 20
2.5776
 30
0.0
  0
SPLINE
  5
E8
330
1F
100
AcDbEntity
  8
DATUMS
 62
   250
100
AcDbSpline
210
0.0
220
0.0
230
1.0
 70
    24
 71
     3
 72
     8
 73
     4
 74
     0
 42
0.0000000001
 43
0.0000000001
 40
0.0
 40
0.0
 40
0.0
 40
0.0
 40
1.0
 40
1.0
 40
1.0
 40
1.0
 10
35.5992
 20
-0.9608
 30
0.0
 10
35.5992
 20
-0.9608
 30
0.0
 10
35.5992
 20
-0.9355
 30
0.0
 10
35.5992
 20
-0.9355
 30
0.0
  0
SPLINE
  5
E9
330
1F
100
AcDbEntity
  8
DATUMS
 62
   250
100
AcDbSpline
210
0.0
220
0.0
230
1.0
 70
    24
 71
     3
 72
     8
 73
     4
 74
     0
 42
0.0000000001
 43
0.0000000001
 40
0.0
 40
0.0
 40
0.0
 40
0.0
 40
1.0
 40
1.0
 40
1.0
 40
1.0
 10
35.8014
 20
-0.9355
 30
0.0
 10
35.8014
 20
-0.9355
 30
0.0
 10
35.8014
 20
-1.9971
 30
0.0
 10
35.8014
 20
-1.9971
 30
0.0
  0
SPLINE
  5
EA
330
1F
100
AcDbEntity
  8
DATUMS
 62
   250
100
AcDbSpline
210
0.0
220
0.0
230
1.0
 70
    24
 71
     3
 72
     8
 73
     4
 74
     0
 42
0.0000000001
 43
0.0000000001
 40
0.0
 40
0.0
 40
0.0
 40
0.0
 40
1.0
 40
1.0
 40
1.0
 40
1.0
 10
35.5992
 20
-1.9971
 30
0.0
 10
35.5992
 20
-1.9971
 30
0.0
 10
35.5992
 20
-1.9718
 30
0.0
 10
35.5992
 20
-1.9718
 30
0.0
  0
SPLINE
  5
EB
330
1F
100
AcDbEntity
  8
DATUMS
 62
   250
100
AcDbSpline
210
0.0
220
0.0
230
1.0
 70
    24
 71
     3
 72
     8
 73
     4
 74
     0
 42
0.0000000001
 43
0.0000000001
 40
0.0
 40
0.0
 40
0.0
 40
0.0
 40
1.0
 40
1.0
 40
1.0
 40
1.0
 10
35.8014
 20
-1.9718
 30
0.0
 10
35.8014
 20
-1.9718
 30
0.0
 10
34.1729
 20
-1.9718
 30
0.0
 10
34.1729
 20
-1.9718
 30
0.0
  0
SPLINE
  5
EC
330
1F
100
AcDbEntity
  8
DATUMS
 62
   250
100
AcDbSpline
210
0.0
220
0.0
230
1.0
 70
    24
 71
     3
 72
     8
 73
     4
 74
     0
 42
0.0000000001
 43
0.0000000001
 40
0.0
 40
0.0
 40
0.0
 40
0.0
 40
1.0
 40
1.0
 40
1.0
 40
1.0
 10
34.1729
 20
-0.9608
 30
0.0
 10
34.1729
 20
-0.9608
 30
0.0
 10
34.1729
 20
-1.9718
 30
0.0
 10
34.1729
 20
-1.9718
 30
0.0
  0
SPLINE
  5
ED
330
1F
100
AcDbEntity
  8
DATUMS
 62
   250
100
AcDbSpline
210
0.0
220
0.0
230
1.0
 70
    24
 71
     3
 72
     8
 73
     4
 74
     0
 42
0.0000000001
 43
0.0000000001
 40
0.0
 40
0.0
 40
0.0
 40
0.0
 40
1.0
 40
1.0
 40
1.0
 40
1.0
 10
35.8014
 20
-0.9608
 30
0.0
 10
35.8014
 20
-0.9608
 30
0.0
 10
34.1729
 20
-0.9608
 30
0.0
 10
34.1729
 20
-0.9608
 30
0.0
  0
SPLINE
  5
EE
330
1F
100
AcDbEntity
  8
DATUMS
 62
   250
100
AcDbSpline
210
0.0
220
0.0
230
1.0
 70
    24
 71
     3
 72
     8
 73
     4
 74
     0
 42
0.0000000001
 43
0.0000000001
 40
0.0
 40
0.0
 40
0.0
 40
0.0
 40
1.0
 40
1.0
 40
1.0
 40
1.0
 10
35.574
 20
2.5776
 30
0.0
 10
35.574
 20
2.5776
 30
0.0
 10
35.574
 20
1.5666
 30
0.0
 10
35.574
 20
1.5666
 30
0.0
  0
SPLINE
  5
EF
330
1F
100
AcDbEntity
  8
DATUMS
 62
   250
100
AcDbSpline
210
0.0
220
0.0
230
1.0
 70
    24
 71
     3
 72
     8
 73
     4
 74
     0
 42
0.0000000001
 43
0.0000000001
 40
0.0
 40
0.0
 40
0.0
 40
0.0
 40
1.0
 40
1.0
 40
1.0
 40
1.0
 10
35.574
 20
-0.9608
 30
0.0
 10
35.574
 20
-0.9608
 30
0.0
 10
35.574
 20
-1.9718
 30
0.0
 10
35.574
 20
-1.9718
 30
0.0
  0
SPLINE
  5
F0
330
1F
100
AcDbEntity
  8
DATUMS
 62
   250
100
AcDbSpline
210
0.0
220
0.0
230
1.0
 70
    24
 71
     3
 72
     8
 73
     4
 74
     0
 42
0.0000000001
 43
0.0000000001
 40
0.0
 40
0.0
 40
0.0
 40
0.0
 40
1.0
 40
1.0
 40
1.0
 40
1.0
 10
34.1729
 20
-3.6906
 30
0.0
 10
34.1729
 20
-3.6906
 30
0.0
 10
34.1729
 20
-3.8927
 30
0.0
 10
34.1729
 20
-3.8927
 30
0.0
  0
SPLINE
  5
F1
330
1F
100
AcDbEntity
  8
DATUMS
 62
   250
100
AcDbSpline
210
0.0
220
0.0
230
1.0
 70
     8
 71
     3
 72
     8
 73
     4
 74
     0
 42
0.0000000001
 43
0.0000000001
 40
0.0
 40
0.0
 40
0.0
 40
0.0
 40
1.0
 40
1.0
 40
1.0
 40
1.0
 10
35.7989
 20
-3.6906
 30
0.0
 10
35.7868
 20
-3.8127
 30
0.0
 10
35.6882
 20
-3.8814
 30
0.0
 10
35.574
 20
-3.8927
 30
0.0
  0
SPLINE
  5
F2
330
1F
100
AcDbEntity
  8
DATUMS
 62
   250
100
AcDbSpline
210
0.0
220
0.0
230
1.0
 70
    24
 71
     3
 72
     8
 73
     4
 74
     0
 42
0.0000000001
 43
0.0000000001
 40
0.0
 40
0.0
 40
0.0
 40
0.0
 40
1.0
 40
1.0
 40
1.0
 40
1.0
 10
35.574
 20
-3.8927
 30
0.0
 10
35.574
 20
-3.8927
 30
0.0
 10
34.1729
 20
-3.8927
 30
0.0
 10
34.1729
 20
-3.8927
 30
0.0
  0
SPLINE
  5
F3
330
1F
100
AcDbEntity
  8
DATUMS
 62
   250
100
AcDbSpline
210
0.0
220
0.0
230
1.0
 70
    24
 71
     3
 72
     8
 73
     4
 74
     0
 42
0.0000000001
 43
0.0000000001
 40
0.0
 40
0.0
 40
0.0
 40
0.0
 40
1.0
 40
1.0
 40
1.0
 40
1.0
 10
35.5992
 20
28.9391
 30
0.0
 10
35.5992
 20
28.9391
 30
0.0
 10
35.5992
 20
28.9643
 30
0.0
 10
35.5992
 20
28.9643
 30
0.0
  0
SPLINE
  5
F4
330
1F
100
AcDbEntity
  8
DATUMS
 62
   250
100
AcDbSpline
210
0.0
220
0.0
230
1.0
 70
    24
 71
     3
 72
     8
 73
     4
 74
     0
 42
0.0000000001
 43
0.0000000001
 40
0.0
 40
0.0
 40
0.0
 40
0.0
 40
1.0
 40
1.0
 40
1.0
 40
1.0
 10
35.8014
 20
30.0006
 30
0.0
 10
35.8014
 20
30.0006
 30
0.0
 10
35.8014
 20
28.9391
 30
0.0
 10
35.8014
 20
28.9391
 30
0.0
  0
SPLINE
  5
F5
330
1F
100
AcDbEntity
  8
DATUMS
 62
   250
100
AcDbSpline
210
0.0
220
0.0
230
1.0
 70
    24
 71
     3
 72
     8
 73
     4
 74
     0
 42
0.0000000001
 43
0.0000000001
 40
0.0
 40
0.0
 40
0.0
 40
0.0
 40
1.0
 40
1.0
 40
1.0
 40
1.0
 10
35.8014
 20
28.9643
 30
0.0
 10
35.8014
 20
28.9643
 30
0.0
 10
34.1729
 20
28.9643
 30
0.0
 10
34.1729
 20
28.9643
 30
0.0
  0
SPLINE
  5
F6
330
1F
100
AcDbEntity
  8
DATUMS
 62
   250
100
AcDbSpline
210
0.0
220
0.0
230
1.0
 70
    24
 71
     3
 72
     8
 73
     4
 74
     0
 42
0.0000000001
 43
0.0000000001
 40
0.0
 40
0.0
 40
0.0
 40
0.0
 40
1.0
 40
1.0
 40
1.0
 40
1.0
 10
34.1729
 20
29.9754
 30
0.0
 10
34.1729
 20
29.9754
 30
0.0
 10
34.1729
 20
28.9643
 30
0.0
 10
34.1729
 20
28.9643
 30
0.0
  0
SPLINE
  5
F7
330
1F
100
AcDbEntity
  8
DATUMS
 62
   250
100
AcDbSpline
210
0.0
220
0.0
230
1.0
 70
    24
 71
     3
 72
     8
 73
     4
 74
     0
 42
0.0000000001
 43
0.0000000001
 40
0.0
 40
0.0
 40
0.0
 40
0.0
 40
1.0
 40
1.0
 40
1.0
 40
1.0
 10
35.8014
 20
29.9754
 30
0.0
 10
35.8014
 20
29.9754
 30
0.0
 10
34.1729
 20
29.9754
 30
0.0
 10
34.1729
 20
29.9754
 30
0.0
  0
SPLINE
  5
F8
330
1F
100
AcDbEntity
  8
DATUMS
 62
   250
100
AcDbSpline
210
0.0
220
0.0
230
1.0
 70
    24
 71
     3
 72
     8
 73
     4
 74
     0
 42
0.0000000001
 43
0.0000000001
 40
0.0
 40
0.0
 40
0.0
 40
0.0
 40
1.0
 40
1.0
 40
1.0
 40
1.0
 10
35.5992
 20
30.0006
 30
0.0
 10
35.5992
 20
30.0006
 30
0.0
 10
35.5992
 20
29.9754
 30
0.0
 10
35.5992
 20
29.9754
 30
0.0
  0
SPLINE
  5
F9
330
1F
100
AcDbEntity
  8
DATUMS
 62
   250
100
AcDbSpline
210
0.0
220
0.0
230
1.0
 70
    24
 71
     3
 72
     8
 73
     4
 74
     0
 42
0.0000000001
 43
0.0000000001
 40
0.0
 40
0.0
 40
0.0
 40
0.0
 40
1.0
 40
1.0
 40
1.0
 40
1.0
 10
35.5992
 20
26.4369
 30
0.0
 10
35.5992
 20
26.4369
 30
0.0
 10
35.5992
 20
26.4621
 30
0.0
 10
35.5992
 20
26.4621
 30
0.0
  0
SPLINE
  5
FA
330
1F
100
AcDbEntity
  8
DATUMS
 62
   250
100
AcDbSpline
210
0.0
220
0.0
230
1.0
 70
    24
 71
     3
 72
     8
 73
     4
 74
     0
 42
0.0000000001
 43
0.0000000001
 40
0.0
 40
0.0
 40
0.0
 40
0.0
 40
1.0
 40
1.0
 40
1.0
 40
1.0
 10
35.8014
 20
26.4621
 30
0.0
 10
35.8014
 20
26.4621
 30
0.0
 10
35.8014
 20
25.4007
 30
0.0
 10
35.8014
 20
25.4007
 30
0.0
  0
SPLINE
  5
FB
330
1F
100
AcDbEntity
  8
DATUMS
 62
   250
100
AcDbSpline
210
0.0
220
0.0
230
1.0
 70
    24
 71
     3
 72
     8
 73
     4
 74
     0
 42
0.0000000001
 43
0.0000000001
 40
0.0
 40
0.0
 40
0.0
 40
0.0
 40
1.0
 40
1.0
 40
1.0
 40
1.0
 10
35.5992
 20
25.4007
 30
0.0
 10
35.5992
 20
25.4007
 30
0.0
 10
35.5992
 20
25.4259
 30
0.0
 10
35.5992
 20
25.4259
 30
0.0
  0
SPLINE
  5
FC
330
1F
100
AcDbEntity
  8
DATUMS
 62
   250
100
AcDbSpline
210
0.0
220
0.0
230
1.0
 70
    24
 71
     3
 72
     8
 73
     4
 74
     0
 42
0.0000000001
 43
0.0000000001
 40
0.0
 40
0.0
 40
0.0
 40
0.0
 40
1.0
 40
1.0
 40
1.0
 40
1.0
 10
35.8014
 20
25.4259
 30
0.0
 10
35.8014
 20
25.4259
 30
0.0
 10
34.1729
 20
25.4259
 30
0.0
 10
34.1729
 20
25.4259
 30
0.0
  0
SPLINE
  5
FD
330
1F
100
AcDbEntity
  8
DATUMS
 62
   250
100
AcDbSpline
210
0.0
220
0.0
230
1.0
 70
    24
 71
     3
 72
     8
 73
     4
 74
     0
 42
0.0000000001
 43
0.0000000001
 40
0.0
 40
0.0
 40
0.0
 40
0.0
 40
1.0
 40
1.0
 40
1.0
 40
1.0
 10
34.1729
 20
26.4369
 30
0.0
 10
34.1729
 20
26.4369
 30
0.0
 10
34.1729
 20
25.4259
 30
0.0
 10
34.1729
 20
25.4259
 30
0.0
  0
SPLINE
  5
FE
330
1F
100
AcDbEntity
  8
DATUMS
 62
   250
100
AcDbSpline
210
0.0
220
0.0
230
1.0
 70
    24
 71
     3
 72
     8
 73
     4
 74
     0
 42
0.0000000001
 43
0.0000000001
 40
0.0
 40
0.0
 40
0.0
 40
0.0
 40
1.0
 40
1.0
 40
1.0
 40
1.0
 10
35.8014
 20
26.4369
 30
0.0
 10
35.8014
 20
26.4369
 30
0.0
 10
34.1729
 20
26.4369
 30
0.0
 10
34.1729
 20
26.4369
 30
0.0
  0
SPLINE
  5
FF
330
1F
100
AcDbEntity
  8
DATUMS
 62
   250
100
AcDbSpline
210
0.0
220
0.0
230
1.0
 70
    24
 71
     3
 72
     8
 73
     4
 74
     0
 42
0.0000000001
 43
0.0000000001
 40
0.0
 40
0.0
 40
0.0
 40
0.0
 40
1.0
 40
1.0
 40
1.0
 40
1.0
 10
34.1729
 20
31.694
 30
0.0
 10
34.1729
 20
31.694
 30
0.0
 10
34.1729
 20
31.8963
 30
0.0
 10
34.1729
 20
31.8963
 30
0.0
  0
SPLINE
  5
100
330
1F
100
AcDbEntity
  8
DATUMS
 62
   250
100
AcDbSpline
210
0.0
220
0.0
230
1.0
 70
    24
 71
     3
 72
     8
 73
     4
 74
     0
 42
0.0000000001
 43
0.0000000001
 40
0.0
 40
0.0
 40
0.0
 40
0.0
 40
1.0
 40
1.0
 40
1.0
 40
1.0
 10
35.574
 20
29.9754
 30
0.0
 10
35.574
 20
29.9754
 30
0.0
 10
35.574
 20
28.9643
 30
0.0
 10
35.574
 20
28.9643
 30
0.0
  0
SPLINE
  5
101
330
1F
100
AcDbEntity
  8
DATUMS
 62
   250
100
AcDbSpline
210
0.0
220
0.0
230
1.0
 70
    24
 71
     3
 72
     8
 73
     4
 74
     0
 42
0.0000000001
 43
0.0000000001
 40
0.0
 40
0.0
 40
0.0
 40
0.0
 40
1.0
 40
1.0
 40
1.0
 40
1.0
 10
35.574
 20
26.4369
 30
0.0
 10
35.574
 20
26.4369
 30
0.0
 10
35.574
 20
25.4259
 30
0.0
 10
35.574
 20
25.4259
 30
0.0
  0
SPLINE
  5
102
330
1F
100
AcDbEntity
  8
DATUMS
 62
   250
100
AcDbSpline
210
0.0
220
0.0
230
1.0
 70
     8
 71
     3
 72
     8
 73
     4
 74
     0
 42
0.0000000001
 43
0.0000000001
 40
0.0
 40
0.0
 40
0.0
 40
0.0
 40
1.0
 40
1.0
 40
1.0
 40
1.0
 10
35.7989
 20
31.694
 30
0.0
 10
35.7674
 20
32.013
 30
0.0
 10
35.2093
 20
31.8963
 30
0.0
 10
35.0683
 20
31.8963
 30
0.0
  0
SPLINE
  5
103
330
1F
100
AcDbEntity
  8
DATUMS
 62
   250
100
AcDbSpline
210
0.0
220
0.0
230
1.0
 70
    24
 71
     3
 72
    12
 73
     8
 74
     0
 42
0.0000000001
 43
0.0000000001
 40
0.0
 40
0.0
 40
0.0
 40
0.0
 40
0.3333333333333333
 40
0.3333333333333333
 40
0.3333333333333333
 40
0.3333333333333333
 40
1.0
 40
1.0
 40
1.0
 40
1.0
 10
35.0683
 20
31.8963
 30
0.0
 10
35.0683
 20
31.8963
 30
0.0
 10
34.6785
 20
31.8963
 30
0.0
 10
34.6785
 20
31.8963
 30
0.0
 10
34.6785
 20
31.8963
 30
0.0
 10
34.6785
 20
31.8963
 30
0.0
 10
34.1729
 20
31.8963
 30
0.0
 10
34.1729
 20
31.8963
 30
0.0
  0
SPLINE
  5
104
330
1F
100
AcDbEntity
  8
DATUMS
 62
   250
100
AcDbSpline
210
0.0
220
0.0
230
1.0
 70
    24
 71
     3
 72
     8
 73
     4
 74
     0
 42
0.0000000001
 43
0.0000000001
 40
0.0
 40
0.0
 40
0.0
 40
0.0
 40
1.0
 40
1.0
 40
1.0
 40
1.0
 10
35.8014
 20
25.4007
 30
0.0
 10
35.8014
 20
25.4007
 30
0.0
 10
35.574
 20
25.4007
 30
0.0
 10
35.574
 20
25.4007
 30
0.0
  0
SPLINE
  5
105
330
1F
100
AcDbEntity
  8
DATUMS
 62
   250
100
AcDbSpline
210
0.0
220
0.0
230
1.0
 70
    24
 71
     3
 72
     8
 73
     4
 74
     0
 42
0.0000000001
 43
0.0000000001
 40
0.0
 40
0.0
 40
0.0
 40
0.0
 40
1.0
 40
1.0
 40
1.0
 40
1.0
 10
35.8266
 20
25.4007
 30
0.0
 10
35.8266
 20
25.4007
 30
0.0
 10
35.8266
 20
26.4621
 30
0.0
 10
35.8266
 20
26.4621
 30
0.0
  0
SPLINE
  5
106
330
1F
100
AcDbEntity
  8
DATUMS
 62
   250
100
AcDbSpline
210
0.0
220
0.0
230
1.0
 70
    24
 71
     3
 72
     8
 73
     4
 74
     0
 42
0.0000000001
 43
0.0000000001
 40
0.0
 40
0.0
 40
0.0
 40
0.0
 40
1.0
 40
1.0
 40
1.0
 40
1.0
 10
35.574
 20
26.4621
 30
0.0
 10
35.574
 20
26.4621
 30
0.0
 10
35.574
 20
26.4369
 30
0.0
 10
35.574
 20
26.4369
 30
0.0
  0
SPLINE
  5
107
330
1F
100
AcDbEntity
  8
DATUMS
 62
   250
100
AcDbSpline
210
0.0
220
0.0
230
1.0
 70
    24
 71
     3
 72
     8
 73
     4
 74
     0
 42
0.0000000001
 43
0.0000000001
 40
0.0
 40
0.0
 40
0.0
 40
0.0
 40
1.0
 40
1.0
 40
1.0
 40
1.0
 10
35.574
 20
26.4621
 30
0.0
 10
35.574
 20
26.4621
 30
0.0
 10
35.8266
 20
26.4621
 30
0.0
 10
35.8266
 20
26.4621
 30
0.0
  0
SPLINE
  5
108
330
1F
100
AcDbEntity
  8
DATUMS
 62
   250
100
AcDbSpline
210
0.0
220
0.0
230
1.0
 70
    24
 71
     3
 72
     8
 73
     4
 74
     0
 42
0.0000000001
 43
0.0000000001
 40
0.0
 40
0.0
 40
0.0
 40
0.0
 40
1.0
 40
1.0
 40
1.0
 40
1.0
 10
35.574
 20
25.4007
 30
0.0
 10
35.574
 20
25.4007
 30
0.0
 10
35.8266
 20
25.4007
 30
0.0
 10
35.8266
 20
25.4007
 30
0.0
  0
SPLINE
  5
109
330
1F
100
AcDbEntity
  8
DATUMS
 62
   250
100
AcDbSpline
210
0.0
220
0.0
230
1.0
 70
    24
 71
     3
 72
     8
 73
     4
 74
     0
 42
0.0000000001
 43
0.0000000001
 40
0.0
 40
0.0
 40
0.0
 40
0.0
 40
1.0
 40
1.0
 40
1.0
 40
1.0
 10
35.574
 20
25.4007
 30
0.0
 10
35.574
 20
25.4007
 30
0.0
 10
35.574
 20
25.4259
 30
0.0
 10
35.574
 20
25.4259
 30
0.0
  0
SPLINE
  5
10A
330
1F
100
AcDbEntity
  8
DATUMS
 62
   250
100
AcDbSpline
210
0.0
220
0.0
230
1.0
 70
    24
 71
     3
 72
     8
 73
     4
 74
     0
 42
0.0000000001
 43
0.0000000001
 40
0.0
 40
0.0
 40
0.0
 40
0.0
 40
1.0
 40
1.0
 40
1.0
 40
1.0
 10
16.7443
 20
31.694
 30
0.0
 10
16.7443
 20
31.694
 30
0.0
 10
16.7443
 20
-3.6906
 30
0.0
 10
16.7443
 20
-3.6906
 30
0.0
  0
SPLINE
  5
10B
330
1F
100
AcDbEntity
  8
DATUMS
 62
   250
100
AcDbSpline
210
0.0
220
0.0
230
1.0
 70
    24
 71
     3
 72
     8
 73
     4
 74
     0
 42
0.0000000001
 43
0.0000000001
 40
0.0
 40
0.0
 40
0.0
 40
0.0
 40
1.0
 40
1.0
 40
1.0
 40
1.0
 10
35.574
 20
-1.9718
 30
0.0
 10
35.574
 20
-1.9718
 30
0.0
 10
35.574
 20
-1.9971
 30
0.0
 10
35.574
 20
-1.9971
 30
0.0
  0
SPLINE
  5
10C
330
1F
100
AcDbEntity
  8
DATUMS
 62
   250
100
AcDbSpline
210
0.0
220
0.0
230
1.0
 70
    24
 71
     3
 72
     8
 73
     4
 74
     0
 42
0.0000000001
 43
0.0000000001
 40
0.0
 40
0.0
 40
0.0
 40
0.0
 40
1.0
 40
1.0
 40
1.0
 40
1.0
 10
35.8266
 20
-1.9971
 30
0.0
 10
35.8266
 20
-1.9971
 30
0.0
 10
35.574
 20
-1.9971
 30
0.0
 10
35.574
 20
-1.9971
 30
0.0
  0
SPLINE
  5
10D
330
1F
100
AcDbEntity
  8
DATUMS
 62
   250
100
AcDbSpline
210
0.0
220
0.0
230
1.0
 70
    24
 71
     3
 72
     8
 73
     4
 74
     0
 42
0.0000000001
 43
0.0000000001
 40
0.0
 40
0.0
 40
0.0
 40
0.0
 40
1.0
 40
1.0
 40
1.0
 40
1.0
 10
35.8266
 20
-1.9971
 30
0.0
 10
35.8266
 20
-1.9971
 30
0.0
 10
35.8266
 20
-0.9355
 30
0.0
 10
35.8266
 20
-0.9355
 30
0.0
  0
SPLINE
  5
10E
330
1F
100
AcDbEntity
  8
DATUMS
 62
   250
100
AcDbSpline
210
0.0
220
0.0
230
1.0
 70
    24
 71
     3
 72
     8
 73
     4
 74
     0
 42
0.0000000001
 43
0.0000000001
 40
0.0
 40
0.0
 40
0.0
 40
0.0
 40
1.0
 40
1.0
 40
1.0
 40
1.0
 10
35.574
 20
-0.9608
 30
0.0
 10
35.574
 20
-0.9608
 30
0.0
 10
35.574
 20
-0.9355
 30
0.0
 10
35.574
 20
-0.9355
 30
0.0
  0
SPLINE
  5
10F
330
1F
100
AcDbEntity
  8
DATUMS
 62
   250
100
AcDbSpline
210
0.0
220
0.0
230
1.0
 70
    24
 71
     3
 72
     8
 73
     4
 74
     0
 42
0.0000000001
 43
0.0000000001
 40
0.0
 40
0.0
 40
0.0
 40
0.0
 40
1.0
 40
1.0
 40
1.0
 40
1.0
 10
35.8266
 20
-0.9355
 30
0.0
 10
35.8266
 20
-0.9355
 30
0.0
 10
35.574
 20
-0.9355
 30
0.0
 10
35.574
 20
-0.9355
 30
0.0
  0
SPLINE
  5
110
330
1F
100
AcDbEntity
  8
DATUMS
 62
   250
100
AcDbSpline
210
0.0
220
0.0
230
1.0
 70
    24
 71
     3
 72
     8
 73
     4
 74
     0
 42
0.0000000001
 43
0.0000000001
 40
0.0
 40
0.0
 40
0.0
 40
0.0
 40
1.0
 40
1.0
 40
1.0
 40
1.0
 10
35.8266
 20
1.5414
 30
0.0
 10
35.8266
 20
1.5414
 30
0.0
 10
35.574
 20
1.5414
 30
0.0
 10
35.574
 20
1.5414
 30
0.0
  0
SPLINE
  5
111
330
1F
100
AcDbEntity
  8
DATUMS
 62
   250
100
AcDbSpline
210
0.0
220
0.0
230
1.0
 70
    24
 71
     3
 72
     8
 73
     4
 74
     0
 42
0.0000000001
 43
0.0000000001
 40
0.0
 40
0.0
 40
0.0
 40
0.0
 40
1.0
 40
1.0
 40
1.0
 40
1.0
 10
35.574
 20
1.5666
 30
0.0
 10
35.574
 20
1.5666
 30
0.0
 10
35.574
 20
1.5414
 30
0.0
 10
35.574
 20
1.5414
 30
0.0
  0
SPLINE
  5
112
330
1F
100
AcDbEntity
  8
DATUMS
 62
   250
100
AcDbSpline
210
0.0
220
0.0
230
1.0
 70
    24
 71
     3
 72
     8
 73
     4
 74
     0
 42
0.0000000001
 43
0.0000000001
 40
0.0
 40
0.0
 40
0.0
 40
0.0
 40
1.0
 40
1.0
 40
1.0
 40
1.0
 10
35.8266
 20
1.5414
 30
0.0
 10
35.8266
 20
1.5414
 30
0.0
 10
35.8266
 20
2.6029
 30
0.0
 10
35.8266
 20
2.6029
 30
0.0
  0
SPLINE
  5
113
330
1F
100
AcDbEntity
  8
DATUMS
 62
   250
100
AcDbSpline
210
0.0
220
0.0
230
1.0
 70
    24
 71
     3
 72
     8
 73
     4
 74
     0
 42
0.0000000001
 43
0.0000000001
 40
0.0
 40
0.0
 40
0.0
 40
0.0
 40
1.0
 40
1.0
 40
1.0
 40
1.0
 10
35.574
 20
2.5776
 30
0.0
 10
35.574
 20
2.5776
 30
0.0
 10
35.574
 20
2.6029
 30
0.0
 10
35.574
 20
2.6029
 30
0.0
  0
SPLINE
  5
114
330
1F
100
AcDbEntity
  8
DATUMS
 62
   250
100
AcDbSpline
210
0.0
220
0.0
230
1.0
 70
    24
 71
     3
 72
     8
 73
     4
 74
     0
 42
0.0000000001
 43
0.0000000001
 40
0.0
 40
0.0
 40
0.0
 40
0.0
 40
1.0
 40
1.0
 40
1.0
 40
1.0
 10
35.8266
 20
2.6029
 30
0.0
 10
35.8266
 20
2.6029
 30
0.0
 10
35.574
 20
2.6029
 30
0.0
 10
35.574
 20
2.6029
 30
0.0
  0
SPLINE
  5
115
330
1F
100
AcDbEntity
  8
DATUMS
 62
   250
100
AcDbSpline
210
0.0
220
0.0
230
1.0
 70
    24
 71
     3
 72
     8
 73
     4
 74
     0
 42
0.0000000001
 43
0.0000000001
 40
0.0
 40
0.0
 40
0.0
 40
0.0
 40
1.0
 40
1.0
 40
1.0
 40
1.0
 10
35.8266
 20
28.9391
 30
0.0
 10
35.8266
 20
28.9391
 30
0.0
 10
35.574
 20
28.9391
 30
0.0
 10
35.574
 20
28.9391
 30
0.0
  0
SPLINE
  5
116
330
1F
100
AcDbEntity
  8
DATUMS
 62
   250
100
AcDbSpline
210
0.0
220
0.0
230
1.0
 70
    24
 71
     3
 72
     8
 73
     4
 74
     0
 42
0.0000000001
 43
0.0000000001
 40
0.0
 40
0.0
 40
0.0
 40
0.0
 40
1.0
 40
1.0
 40
1.0
 40
1.0
 10
35.574
 20
28.9643
 30
0.0
 10
35.574
 20
28.9643
 30
0.0
 10
35.574
 20
28.9391
 30
0.0
 10
35.574
 20
28.9391
 30
0.0
  0
SPLINE
  5
117
330
1F
100
AcDbEntity
  8
DATUMS
 62
   250
100
AcDbSpline
210
0.0
220
0.0
230
1.0
 70
    24
 71
     3
 72
     8
 73
     4
 74
     0
 42
0.0000000001
 43
0.0000000001
 40
0.0
 40
0.0
 40
0.0
 40
0.0
 40
1.0
 40
1.0
 40
1.0
 40
1.0
 10
35.8266
 20
28.9391
 30
0.0
 10
35.8266
 20
28.9391
 30
0.0
 10
35.8266
 20
30.0006
 30
0.0
 10
35.8266
 20
30.0006
 30
0.0
  0
SPLINE
  5
118
330
1F
100
AcDbEntity
  8
DATUMS
 62
   250
100
AcDbSpline
210
0.0
220
0.0
230
1.0
 70
    24
 71
     3
 72
     8
 73
     4
 74
     0
 42
0.0000000001
 43
0.0000000001
 40
0.0
 40
0.0
 40
0.0
 40
0.0
 40
1.0
 40
1.0
 40
1.0
 40
1.0
 10
35.574
 20
29.9754
 30
0.0
 10
35.574
 20
29.9754
 30
0.0
 10
35.574
 20
30.0006
 30
0.0
 10
35.574
 20
30.0006
 30
0.0
  0
SPLINE
  5
119
330
1F
100
AcDbEntity
  8
DATUMS
 62
   250
100
AcDbSpline
210
0.0
220
0.0
230
1.0
 70
    24
 71
     3
 72
     8
 73
     4
 74
     0
 42
0.0000000001
 43
0.0000000001
 40
0.0
 40
0.0
 40
0.0
 40
0.0
 40
1.0
 40
1.0
 40
1.0
 40
1.0
 10
35.8266
 20
30.0006
 30
0.0
 10
35.8266
 20
30.0006
 30
0.0
 10
35.574
 20
30.0006
 30
0.0
 10
35.574
 20
30.0006
 30
0.0
  0
SPLINE
  5
11A
330
1F
100
AcDbEntity
  8
DATUMS
 62
   250
100
AcDbSpline
210
0.0
220
0.0
230
1.0
 70
    24
 71
     3
 72
    12
 73
     8
 74
     0
 42
0.0000000001
 43
0.0000000001
 40
0.0
 40
0.0
 40
0.0
 40
0.0
 40
0.3333333333333333
 40
0.3333333333333333
 40
0.3333333333333333
 40
0.3333333333333333
 40
1.0
 40
1.0
 40
1.0
 40
1.0
 10
36.5596
 20
-3.6906
 30
0.0
 10
36.5596
 20
-3.6906
 30
0.0
 10
36.0541
 20
-3.6906
 30
0.0
 10
36.0541
 20
-3.6906
 30
0.0
 10
36.0541
 20
-3.6906
 30
0.0
 10
36.0541
 20
-3.6906
 30
0.0
 10
17.2497
 20
-3.6906
 30
0.0
 10
17.2497
 20
-3.6906
 30
0.0
  0
SPLINE
  5
11B
330
1F
100
AcDbEntity
  8
DATUMS
 62
   250
100
AcDbSpline
210
0.0
220
0.0
230
1.0
 70
     8
 71
     3
 72
    12
 73
     8
 74
     0
 42
0.0000000001
 43
0.0000000001
 40
0.0
 40
0.0
 40
0.0
 40
0.0
 40
0.3333333333333333
 40
0.3333333333333333
 40
0.3333333333333333
 40
0.3333333333333333
 40
1.0
 40
1.0
 40
1.0
 40
1.0
 10
17.2497
 20
-3.6906
 30
0.0
 10
16.983
 20
-3.6906
 30
0.0
 10
16.5633
 20
-3.7817
 30
0.0
 10
16.394
 20
-3.4884
 30
0.0
 10
16.394
 20
-3.4884
 30
0.0
 10
16.2834
 20
-3.297
 30
0.0
 10
16.3399
 20
-2.9354
 30
0.0
 10
16.3399
 20
-2.7806
 30
0.0
  0
SPLINE
  5
11C
330
1F
100
AcDbEntity
  8
DATUMS
 62
   250
100
AcDbSpline
210
0.0
220
0.0
230
1.0
 70
    24
 71
     3
 72
     8
 73
     4
 74
     0
 42
0.0000000001
 43
0.0000000001
 40
0.0
 40
0.0
 40
0.0
 40
0.0
 40
1.0
 40
1.0
 40
1.0
 40
1.0
 10
16.3399
 20
-2.7806
 30
0.0
 10
16.3399
 20
-2.7806
 30
0.0
 10
16.3399
 20
30.7841
 30
0.0
 10
16.3399
 20
30.7841
 30
0.0
  0
SPLINE
  5
11D
330
1F
100
AcDbEntity
  8
DATUMS
 62
   250
100
AcDbSpline
210
0.0
220
0.0
230
1.0
 70
     8
 71
     3
 72
    12
 73
     8
 74
     0
 42
0.0000000001
 43
0.0000000001
 40
0.0
 40
0.0
 40
0.0
 40
0.0
 40
0.3333333333333333
 40
0.3333333333333333
 40
0.3333333333333333
 40
0.3333333333333333
 40
1.0
 40
1.0
 40
1.0
 40
1.0
 10
16.3399
 20
30.7841
 30
0.0
 10
16.3399
 20
31.0507
 30
0.0
 10
16.2487
 20
31.4704
 30
0.0
 10
16.5419
 20
31.6399
 30
0.0
 10
16.5419
 20
31.6399
 30
0.0
 10
16.7335
 20
31.7503
 30
0.0
 10
17.0949
 20
31.694
 30
0.0
 10
17.2497
 20
31.694
 30
0.0
  0
SPLINE
  5
11E
330
1F
100
AcDbEntity
  8
DATUMS
 62
   250
100
AcDbSpline
210
0.0
220
0.0
230
1.0
 70
    24
 71
     3
 72
    12
 73
     8
 74
     0
 42
0.0000000001
 43
0.0000000001
 40
0.0
 40
0.0
 40
0.0
 40
0.0
 40
0.3333333333333333
 40
0.3333333333333333
 40
0.3333333333333333
 40
0.3333333333333333
 40
1.0
 40
1.0
 40
1.0
 40
1.0
 10
17.2497
 20
31.694
 30
0.0
 10
17.2497
 20
31.694
 30
0.0
 10
36.0541
 20
31.694
 30
0.0
 10
36.0541
 20
31.694
 30
0.0
 10
36.0541
 20
31.694
 30
0.0
 10
36.0541
 20
31.694
 30
0.0
 10
36.5596
 20
31.694
 30
0.0
 10
36.5596
 20
31.694
 30
0.0
  0
SPLINE
  5
11F
330
1F
100
AcDbEntity
  8
DATUMS
 62
   250
100
AcDbSpline
210
0.0
220
0.0
230
1.0
 70
     8
 71
     3
 72
     8
 73
     4
 74
     0
 42
0.0000000001
 43
0.0000000001
 40
0.0
 40
0.0
 40
0.0
 40
0.0
 40
1.0
 40
1.0
 40
1.0
 40
1.0
 10
16.3399
 20
31.2897
 30
0.0
 10
16.3618
 20
31.4852
 30
0.0
 10
16.5968
 20
31.5998
 30
0.0
 10
16.7443
 20
31.694
 30
0.0
  0
SPLINE
  5
120
330
1F
100
AcDbEntity
  8
DATUMS
 62
   250
100
AcDbSpline
210
0.0
220
0.0
230
1.0
 70
     8
 71
     3
 72
     8
 73
     4
 74
     0
 42
0.0000000001
 43
0.0000000001
 40
0.0
 40
0.0
 40
0.0
 40
0.0
 40
1.0
 40
1.0
 40
1.0
 40
1.0
 10
16.7443
 20
-3.6906
 30
0.0
 10
16.5968
 20
-3.5962
 30
0.0
 10
16.3618
 20
-3.4817
 30
0.0
 10
16.3399
 20
-3.2861
 30
0.0
  0
SPLINE
  5
121
330
1F
100
AcDbEntity
  8
DATUMS
 62
   250
100
AcDbSpline
210
0.0
220
0.0
230
1.0
 70
     8
 71
     3
 72
    12
 73
     8
 74
     0
 42
0.0000000001
 43
0.0000000001
 40
0.0
 40
0.0
 40
0.0
 40
0.0
 40
0.3333333333333333
 40
0.3333333333333333
 40
0.3333333333333333
 40
0.3333333333333333
 40
1.0
 40
1.0
 40
1.0
 40
1.0
 10
-28.0226
 20
-28.3836
 30
0.0
 10
-28.1346
 20
-28.2873
 30
0.0
 10
-28.1688
 20
-28.2675
 30
0.0
 10
-28.2604
 20
-28.1501
 30
0.0
 10
-28.2604
 20
-28.1501
 30
0.0
 10
-28.5609
 20
-27.7654
 30
0.0
 10
-28.528
 20
-27.3323
 30
0.0
 10
-28.528
 20
-26.867
 30
0.0
  0
SPLINE
  5
122
330
1F
100
AcDbEntity
  8
DATUMS
 62
   250
100
AcDbSpline
210
0.0
220
0.0
230
1.0
 70
    24
 71
     3
 72
     8
 73
     4
 74
     0
 42
0.0000000001
 43
0.0000000001
 40
0.0
 40
0.0
 40
0.0
 40
0.0
 40
1.0
 40
1.0
 40
1.0
 40
1.0
 10
-28.528
 20
-26.867
 30
0.0
 10
-28.528
 20
-26.867
 30
0.0
 10
-28.528
 20
-25.2241
 30
0.0
 10
-28.528
 20
-25.2241
 30
0.0
  0
SPLINE
  5
123
330
1F
100
AcDbEntity
  8
DATUMS
 62
   250
100
AcDbSpline
210
0.0
220
0.0
230
1.0
 70
     8
 71
     3
 72
    12
 73
     8
 74
     0
 42
0.0000000001
 43
0.0000000001
 40
0.0
 40
0.0
 40
0.0
 40
0.0
 40
0.3333333333333333
 40
0.3333333333333333
 40
0.3333333333333333
 40
0.3333333333333333
 40
1.0
 40
1.0
 40
1.0
 40
1.0
 10
-28.528
 20
-25.2241
 30
0.0
 10
-28.528
 20
-24.7588
 30
0.0
 10
-28.5609
 20
-24.3257
 30
0.0
 10
-28.2604
 20
-23.941
 30
0.0
 10
-28.2604
 20
-23.941
 30
0.0
 10
-28.1688
 20
-23.8236
 30
0.0
 10
-28.1346
 20
-23.8039
 30
0.0
 10
-28.0226
 20
-23.7077
 30
0.0
  0
SPLINE
  5
124
330
1F
100
AcDbEntity
  8
DATUMS
 62
   250
100
AcDbSpline
210
0.0
220
0.0
230
1.0
 70
     8
 71
     3
 72
     8
 73
     4
 74
     0
 42
0.0000000001
 43
0.0000000001
 40
0.0
 40
0.0
 40
0.0
 40
0.0
 40
1.0
 40
1.0
 40
1.0
 40
1.0
 10
-7.8222
 20
-41.1468
 30
0.0
 10
-7.8583
 20
-41.2508
 30
0.0
 10
-7.9547
 20
-41.3033
 30
0.0
 10
-8.0587
 20
-41.3115
 30
0.0
  0
SPLINE
  5
125
330
1F
100
AcDbEntity
  8
DATUMS
 62
   250
100
AcDbSpline
210
0.0
220
0.0
230
1.0
 70
    24
 71
     3
 72
    12
 73
     8
 74
     0
 42
0.0000000001
 43
0.0000000001
 40
0.0
 40
0.0
 40
0.0
 40
0.0
 40
0.3333333333333333
 40
0.3333333333333333
 40
0.3333333333333333
 40
0.3333333333333333
 40
1.0
 40
1.0
 40
1.0
 40
1.0
 10
-8.0587
 20
-41.3115
 30
0.0
 10
-8.0587
 20
-41.3115
 30
0.0
 10
-8.5641
 20
-41.3115
 30
0.0
 10
-8.5641
 20
-41.3115
 30
0.0
 10
-8.5641
 20
-41.3115
 30
0.0
 10
-8.5641
 20
-41.3115
 30
0.0
 10
-14.6238
 20
-41.3115
 30
0.0
 10
-14.6238
 20
-41.3115
 30
0.0
  0
SPLINE
  5
126
330
1F
100
AcDbEntity
  8
DATUMS
 62
   250
100
AcDbSpline
210
0.0
220
0.0
230
1.0
 70
     8
 71
     3
 72
     8
 73
     4
 74
     0
 42
0.0000000001
 43
0.0000000001
 40
0.0
 40
0.0
 40
0.0
 40
0.0
 40
1.0
 40
1.0
 40
1.0
 40
1.0
 10
-14.6238
 20
-41.3115
 30
0.0
 10
-14.7747
 20
-41.3115
 30
0.0
 10
-15.2715
 20
-41.4197
 30
0.0
 10
-15.3658
 20
-41.1468
 30
0.0
  0
SPLINE
  5
127
330
1F
100
AcDbEntity
  8
DATUMS
 62
   250
100
AcDbSpline
210
0.0
220
0.0
230
1.0
 70
     8
 71
     3
 72
     8
 73
     4
 74
     0
 42
0.0000000001
 43
0.0000000001
 40
0.0
 40
0.0
 40
0.0
 40
0.0
 40
1.0
 40
1.0
 40
1.0
 40
1.0
 10
-7.8932
 20
-41.1468
 30
0.0
 10
-7.9136
 20
-41.2314
 30
0.0
 10
-7.9694
 20
-41.3015
 30
0.0
 10
-8.0587
 20
-41.3115
 30
0.0
  0
SPLINE
  5
128
330
1F
100
AcDbEntity
  8
DATUMS
 62
   250
100
AcDbSpline
210
0.0
220
0.0
230
1.0
 70
     8
 71
     3
 72
     8
 73
     4
 74
     0
 42
0.0000000001
 43
0.0000000001
 40
0.0
 40
0.0
 40
0.0
 40
0.0
 40
1.0
 40
1.0
 40
1.0
 40
1.0
 10
-15.1294
 20
-41.3115
 30
0.0
 10
-15.2186
 20
-41.3015
 30
0.0
 10
-15.2744
 20
-41.2314
 30
0.0
 10
-15.2948
 20
-41.1468
 30
0.0
  0
SPLINE
  5
129
330
1F
100
AcDbEntity
  8
DATUMS
 62
   250
100
AcDbSpline
210
0.0
220
0.0
230
1.0
 70
    24
 71
     3
 72
     8
 73
     4
 74
     0
 42
0.0000000001
 43
0.0000000001
 40
0.0
 40
0.0
 40
0.0
 40
0.0
 40
1.0
 40
1.0
 40
1.0
 40
1.0
 10
7.36
 20
-39.9466
 30
0.0
 10
7.36
 20
-39.9466
 30
0.0
 10
-30.5479
 20
-39.9466
 30
0.0
 10
-30.5479
 20
-39.9466
 30
0.0
  0
SPLINE
  5
12A
330
1F
100
AcDbEntity
  8
DATUMS
 62
   250
100
AcDbSpline
210
0.0
220
0.0
230
1.0
 70
    24
 71
     3
 72
     8
 73
     4
 74
     0
 42
0.0000000001
 43
0.0000000001
 40
0.0
 40
0.0
 40
0.0
 40
0.0
 40
1.0
 40
1.0
 40
1.0
 40
1.0
 10
7.316
 20
-39.9466
 30
0.0
 10
7.316
 20
-39.9466
 30
0.0
 10
7.1869
 20
-39.9466
 30
0.0
 10
7.1869
 20
-39.9466
 30
0.0
  0
SPLINE
  5
12B
330
1F
100
AcDbEntity
  8
DATUMS
 62
   250
100
AcDbSpline
210
0.0
220
0.0
230
1.0
 70
    24
 71
     3
 72
     8
 73
     4
 74
     0
 42
0.0000000001
 43
0.0000000001
 40
0.0
 40
0.0
 40
0.0
 40
0.0
 40
1.0
 40
1.0
 40
1.0
 40
1.0
 10
-30.4808
 20
-39.9466
 30
0.0
 10
-30.4808
 20
-39.9466
 30
0.0
 10
-30.5417
 20
-39.9466
 30
0.0
 10
-30.5417
 20
-39.9466
 30
0.0
  0
SPLINE
  5
12C
330
1F
100
AcDbEntity
  8
DATUMS
 62
   250
100
AcDbSpline
210
0.0
220
0.0
230
1.0
 70
     8
 71
     3
 72
     8
 73
     4
 74
     0
 42
0.0000000001
 43
0.0000000001
 40
0.0
 40
0.0
 40
0.0
 40
0.0
 40
1.0
 40
1.0
 40
1.0
 40
1.0
 10
-29.9099
 20
-40.5093
 30
0.0
 10
-29.6416
 20
-40.6753
 30
0.0
 10
-29.3466
 20
-40.7911
 30
0.0
 10
-29.0356
 20
-40.8481
 30
0.0
  0
SPLINE
  5
12D
330
1F
100
AcDbEntity
  8
DATUMS
 62
   250
100
AcDbSpline
210
0.0
220
0.0
230
1.0
 70
     8
 71
     3
 72
    24
 73
    20
 74
     0
 42
0.0000000001
 43
0.0000000001
 40
0.0
 40
0.0
 40
0.0
 40
0.0
 40
0.1666666666666667
 40
0.1666666666666667
 40
0.1666666666666667
 40
0.1666666666666667
 40
0.3333333333333333
 40
0.3333333333333333
 40
0.3333333333333333
 40
0.3333333333333333
 40
0.5
 40
0.5
 40
0.5
 40
0.5
 40
0.6666666666666666
 40
0.6666666666666666
 40
0.6666666666666666
 40
0.6666666666666666
 40
1.0
 40
1.0
 40
1.0
 40
1.0
 10
-29.0356
 20
-40.8481
 30
0.0
 10
-29.0356
 20
-40.8481
 30
0.0
 10
-28.8328
 20
-40.8766
 30
0.0
 10
-28.8328
 20
-40.8766
 30
0.0
 10
-28.8328
 20
-40.8766
 30
0.0
 10
-28.8328
 20
-40.8766
 30
0.0
 10
-28.3298
 20
-40.9269
 30
0.0
 10
-28.3298
 20
-40.9269
 30
0.0
 10
-28.3298
 20
-40.9269
 30
0.0
 10
-28.3298
 20
-40.9269
 30
0.0
 10
-26.3241
 20
-41.1275
 30
0.0
 10
-26.3241
 20
-41.1275
 30
0.0
 10
-26.3241
 20
-41.1275
 30
0.0
 10
-26.3241
 20
-41.1275
 30
0.0
 10
-25.8212
 20
-41.1778
 30
0.0
 10
-25.8212
 20
-41.1778
 30
0.0
 10
-25.8212
 20
-41.1778
 30
0.0
 10
-25.8212
 20
-41.1778
 30
0.0
 10
-25.7604
 20
-41.1807
 30
0.0
 10
-25.7604
 20
-41.1807
 30
0.0
  0
SPLINE
  5
12E
330
1F
100
AcDbEntity
  8
DATUMS
 62
   250
100
AcDbSpline
210
0.0
220
0.0
230
1.0
 70
     8
 71
     3
 72
    12
 73
     8
 74
     0
 42
0.0000000001
 43
0.0000000001
 40
0.0
 40
0.0
 40
0.0
 40
0.0
 40
0.3333333333333333
 40
0.3333333333333333
 40
0.3333333333333333
 40
0.3333333333333333
 40
1.0
 40
1.0
 40
1.0
 40
1.0
 10
-25.7604
 20
-41.1807
 30
0.0
 10
-25.6097
 20
-41.1807
 30
0.0
 10
-25.4578
 20
-41.1604
 30
0.0
 10
-25.307
 20
-41.1547
 30
0.0
 10
-25.307
 20
-41.1547
 30
0.0
 10
-24.9908
 20
-41.143
 30
0.0
 10
-24.6741
 20
-41.1468
 30
0.0
 10
-24.3577
 20
-41.1468
 30
0.0
  0
SPLINE
  5
12F
330
1F
100
AcDbEntity
  8
DATUMS
 62
   250
100
AcDbSpline
210
0.0
220
0.0
230
1.0
 70
    24
 71
     3
 72
     8
 73
     4
 74
     0
 42
0.0000000001
 43
0.0000000001
 40
0.0
 40
0.0
 40
0.0
 40
0.0
 40
1.0
 40
1.0
 40
1.0
 40
1.0
 10
-24.3577
 20
-41.1468
 30
0.0
 10
-24.3577
 20
-41.1468
 30
0.0
 10
1.1697
 20
-41.1468
 30
0.0
 10
1.1697
 20
-41.1468
 30
0.0
  0
SPLINE
  5
130
330
1F
100
AcDbEntity
  8
DATUMS
 62
   250
100
AcDbSpline
210
0.0
220
0.0
230
1.0
 70
     8
 71
     3
 72
    12
 73
     8
 74
     0
 42
0.0000000001
 43
0.0000000001
 40
0.0
 40
0.0
 40
0.0
 40
0.0
 40
0.3333333333333333
 40
0.3333333333333333
 40
0.3333333333333333
 40
0.3333333333333333
 40
1.0
 40
1.0
 40
1.0
 40
1.0
 10
1.1697
 20
-41.1468
 30
0.0
 10
1.45
 20
-41.1468
 30
0.0
 10
1.7308
 20
-41.1436
 30
0.0
 10
2.0112
 20
-41.1513
 30
0.0
 10
2.0112
 20
-41.1513
 30
0.0
 10
2.198
 20
-41.1565
 30
0.0
 10
2.3859
 20
-41.1807
 30
0.0
 10
2.5725
 20
-41.1807
 30
0.0
  0
SPLINE
  5
131
330
1F
100
AcDbEntity
  8
DATUMS
 62
   250
100
AcDbSpline
210
0.0
220
0.0
230
1.0
 70
     8
 71
     3
 72
    12
 73
     8
 74
     0
 42
0.0000000001
 43
0.0000000001
 40
0.0
 40
0.0
 40
0.0
 40
0.0
 40
0.3333333333333333
 40
0.3333333333333333
 40
0.3333333333333333
 40
0.3333333333333333
 40
1.0
 40
1.0
 40
1.0
 40
1.0
 10
2.5725
 20
-41.1807
 30
0.0
 10
2.5725
 20
-41.1807
 30
0.0
 10
2.6331
 20
-41.1778
 30
0.0
 10
2.6331
 20
-41.1778
 30
0.0
 10
2.6331
 20
-41.1778
 30
0.0
 10
2.6331
 20
-41.1778
 30
0.0
 10
2.9385
 20
-41.1472
 30
0.0
 10
2.9385
 20
-41.1472
 30
0.0
  0
SPLINE
  5
132
330
1F
100
AcDbEntity
  8
DATUMS
 62
   250
100
AcDbSpline
210
0.0
220
0.0
230
1.0
 70
     8
 71
     3
 72
    20
 73
    16
 74
     0
 42
0.0000000001
 43
0.0000000001
 40
0.0
 40
0.0
 40
0.0
 40
0.0
 40
0.2
 40
0.2
 40
0.2
 40
0.2
 40
0.4
 40
0.4
 40
0.4
 40
0.4
 40
0.6
 40
0.6
 40
0.6
 40
0.6
 40
1.0
 40
1.0
 40
1.0
 40
1.0
 10
2.6331
 20
-41.1778
 30
0.0
 10
2.6331
 20
-41.1778
 30
0.0
 10
3.1362
 20
-41.1275
 30
0.0
 10
3.1362
 20
-41.1275
 30
0.0
 10
3.1362
 20
-41.1275
 30
0.0
 10
3.1362
 20
-41.1275
 30
0.0
 10
5.1417
 20
-40.9269
 30
0.0
 10
5.1417
 20
-40.9269
 30
0.0
 10
5.1417
 20
-40.9269
 30
0.0
 10
5.1417
 20
-40.9269
 30
0.0
 10
5.6448
 20
-40.8766
 30
0.0
 10
5.6448
 20
-40.8766
 30
0.0
 10
5.6448
 20
-40.8766
 30
0.0
 10
5.6448
 20
-40.8766
 30
0.0
 10
5.8476
 20
-40.8481
 30
0.0
 10
5.8476
 20
-40.8481
 30
0.0
  0
SPLINE
  5
133
330
1F
100
AcDbEntity
  8
DATUMS
 62
   250
100
AcDbSpline
210
0.0
220
0.0
230
1.0
 70
     8
 71
     3
 72
     8
 73
     4
 74
     0
 42
0.0000000001
 43
0.0000000001
 40
0.0
 40
0.0
 40
0.0
 40
0.0
 40
1.0
 40
1.0
 40
1.0
 40
1.0
 10
5.8476
 20
-40.8481
 30
0.0
 10
6.2254
 20
-40.7789
 30
0.0
 10
6.5814
 20
-40.6236
 30
0.0
 10
6.8901
 20
-40.3958
 30
0.0
  0
SPLINE
  5
134
330
1F
100
AcDbEntity
  8
DATUMS
 62
   250
100
AcDbSpline
210
0.0
220
0.0
230
1.0
 70
     8
 71
     3
 72
     8
 73
     4
 74
     0
 42
0.0000000001
 43
0.0000000001
 40
0.0
 40
0.0
 40
0.0
 40
0.0
 40
1.0
 40
1.0
 40
1.0
 40
1.0
 10
6.9514
 20
-40.3507
 30
0.0
 10
7.107
 20
-40.2341
 30
0.0
 10
7.2357
 20
-40.093
 30
0.0
 10
7.3619
 20
-39.9466
 30
0.0
  0
SPLINE
  5
135
330
1F
100
AcDbEntity
  8
DATUMS
 62
   250
100
AcDbSpline
210
0.0
220
0.0
230
1.0
 70
     8
 71
     3
 72
     8
 73
     4
 74
     0
 42
0.0000000001
 43
0.0000000001
 40
0.0
 40
0.0
 40
0.0
 40
0.0
 40
1.0
 40
1.0
 40
1.0
 40
1.0
 10
6.6731
 20
-40.5394
 30
0.0
 10
6.7769
 20
-40.4748
 30
0.0
 10
6.8766
 20
-40.406
 30
0.0
 10
6.9748
 20
-40.3333
 30
0.0
  0
SPLINE
  5
136
330
1F
100
AcDbEntity
  8
DATUMS
 62
   250
100
AcDbSpline
210
0.0
220
0.0
230
1.0
 70
     8
 71
     3
 72
     8
 73
     4
 74
     0
 42
0.0000000001
 43
0.0000000001
 40
0.0
 40
0.0
 40
0.0
 40
0.0
 40
1.0
 40
1.0
 40
1.0
 40
1.0
 10
-30.55
 20
-39.9466
 30
0.0
 10
-30.3475
 20
-40.1815
 30
0.0
 10
-30.126
 20
-40.3779
 30
0.0
 10
-29.8611
 20
-40.5394
 30
0.0
  0
SPLINE
  5
137
330
1F
100
AcDbEntity
  8
DATUMS
 62
   250
100
AcDbSpline
210
0.0
220
0.0
230
1.0
 70
     8
 71
     3
 72
    32
 73
    28
 74
     0
 42
0.0000000001
 43
0.0000000001
 40
0.0
 40
0.0
 40
0.0
 40
0.0
 40
0.125
 40
0.125
 40
0.125
 40
0.125
 40
0.25
 40
0.25
 40
0.25
 40
0.25
 40
0.375
 40
0.375
 40
0.375
 40
0.375
 40
0.5
 40
0.5
 40
0.5
 40
0.5
 40
0.625
 40
0.625
 40
0.625
 40
0.625
 40
0.75
 40
0.75
 40
0.75
 40
0.75
 40
1.0
 40
1.0
 40
1.0
 40
1.0
 10
5.6448
 20
-40.8766
 30
0.0
 10
5.6448
 20
-40.8766
 30
0.0
 10
5.6128
 20
-40.8782
 30
0.0
 10
5.6128
 20
-40.8782
 30
0.0
 10
5.6128
 20
-40.8782
 30
0.0
 10
5.6128
 20
-40.8782
 30
0.0
 10
5.5809
 20
-40.8766
 30
0.0
 10
5.5809
 20
-40.8766
 30
0.0
 10
5.5809
 20
-40.8766
 30
0.0
 10
5.5809
 20
-40.8766
 30
0.0
 10
5.0755
 20
-40.8766
 30
0.0
 10
5.0755
 20
-40.8766
 30
0.0
 10
5.0755
 20
-40.8766
 30
0.0
 10
5.0755
 20
-40.8766
 30
0.0
 10
-28.2634
 20
-40.8766
 30
0.0
 10
-28.2634
 20
-40.8766
 30
0.0
 10
-28.2634
 20
-40.8766
 30
0.0
 10
-28.2634
 20
-40.8766
 30
0.0
 10
-28.7689
 20
-40.8766
 30
0.0
 10
-28.7689
 20
-40.8766
 30
0.0
 10
-28.7689
 20
-40.8766
 30
0.0
 10
-28.7689
 20
-40.8766
 30
0.0
 10
-28.8007
 20
-40.8782
 30
0.0
 10
-28.8007
 20
-40.8782
 30
0.0
 10
-28.8007
 20
-40.8782
 30
0.0
 10
-28.8007
 20
-40.8782
 30
0.0
 10
-28.8328
 20
-40.8766
 30
0.0
 10
-28.8328
 20
-40.8766
 30
0.0
  0
SPLINE
  5
138
330
1F
100
AcDbEntity
  8
DATUMS
 62
   250
100
AcDbSpline
210
0.0
220
0.0
230
1.0
 70
     8
 71
     3
 72
     8
 73
     4
 74
     0
 42
0.0000000001
 43
0.0000000001
 40
0.0
 40
0.0
 40
0.0
 40
0.0
 40
1.0
 40
1.0
 40
1.0
 40
1.0
 10
-30.3407
 20
-39.9466
 30
0.0
 10
-29.9708
 20
-40.373
 30
0.0
 10
-29.4848
 20
-40.7199
 30
0.0
 10
-28.9271
 20
-40.8481
 30
0.0
  0
SPLINE
  5
139
330
1F
100
AcDbEntity
  8
DATUMS
 62
   250
100
AcDbSpline
210
0.0
220
0.0
230
1.0
 70
     8
 71
     3
 72
    20
 73
    16
 74
     0
 42
0.0000000001
 43
0.0000000001
 40
0.0
 40
0.0
 40
0.0
 40
0.0
 40
0.2
 40
0.2
 40
0.2
 40
0.2
 40
0.4
 40
0.4
 40
0.4
 40
0.4
 40
0.6
 40
0.6
 40
0.6
 40
0.6
 40
1.0
 40
1.0
 40
1.0
 40
1.0
 10
-28.9271
 20
-40.8481
 30
0.0
 10
-28.9271
 20
-40.8481
 30
0.0
 10
-28.7689
 20
-40.8766
 30
0.0
 10
-28.7689
 20
-40.8766
 30
0.0
 10
-28.7689
 20
-40.8766
 30
0.0
 10
-28.7689
 20
-40.8766
 30
0.0
 10
-28.2658
 20
-40.9259
 30
0.0
 10
-28.2658
 20
-40.9259
 30
0.0
 10
-28.2658
 20
-40.9259
 30
0.0
 10
-28.2658
 20
-40.9259
 30
0.0
 10
-26.1985
 20
-41.1286
 30
0.0
 10
-26.1985
 20
-41.1286
 30
0.0
 10
-26.1985
 20
-41.1286
 30
0.0
 10
-26.1985
 20
-41.1286
 30
0.0
 10
-25.6954
 20
-41.1778
 30
0.0
 10
-25.6954
 20
-41.1778
 30
0.0
  0
SPLINE
  5
13A
330
1F
100
AcDbEntity
  8
DATUMS
 62
   250
100
AcDbSpline
210
0.0
220
0.0
230
1.0
 70
     8
 71
     3
 72
    20
 73
    16
 74
     0
 42
0.0000000001
 43
0.0000000001
 40
0.0
 40
0.0
 40
0.0
 40
0.0
 40
0.2
 40
0.2
 40
0.2
 40
0.2
 40
0.4
 40
0.4
 40
0.4
 40
0.4
 40
0.6
 40
0.6
 40
0.6
 40
0.6
 40
1.0
 40
1.0
 40
1.0
 40
1.0
 10
2.5074
 20
-41.1778
 30
0.0
 10
2.5074
 20
-41.1778
 30
0.0
 10
3.0104
 20
-41.1286
 30
0.0
 10
3.0104
 20
-41.1286
 30
0.0
 10
3.0104
 20
-41.1286
 30
0.0
 10
3.0104
 20
-41.1286
 30
0.0
 10
5.0779
 20
-40.9259
 30
0.0
 10
5.0779
 20
-40.9259
 30
0.0
 10
5.0779
 20
-40.9259
 30
0.0
 10
5.0779
 20
-40.9259
 30
0.0
 10
5.5809
 20
-40.8766
 30
0.0
 10
5.5809
 20
-40.8766
 30
0.0
 10
5.5809
 20
-40.8766
 30
0.0
 10
5.5809
 20
-40.8766
 30
0.0
 10
5.7391
 20
-40.8481
 30
0.0
 10
5.7391
 20
-40.8481
 30
0.0
  0
SPLINE
  5
13B
330
1F
100
AcDbEntity
  8
DATUMS
 62
   250
100
AcDbSpline
210
0.0
220
0.0
230
1.0
 70
     8
 71
     3
 72
     8
 73
     4
 74
     0
 42
0.0000000001
 43
0.0000000001
 40
0.0
 40
0.0
 40
0.0
 40
0.0
 40
1.0
 40
1.0
 40
1.0
 40
1.0
 10
5.7391
 20
-40.8481
 30
0.0
 10
6.2968
 20
-40.7199
 30
0.0
 10
6.7829
 20
-40.373
 30
0.0
 10
7.1526
 20
-39.9466
 30
0.0
  0
SPLINE
  5
13C
330
1F
100
AcDbEntity
  8
DATUMS
 62
   250
100
AcDbSpline
210
0.0
220
0.0
230
1.0
 70
    24
 71
     3
 72
     8
 73
     4
 74
     0
 42
0.0000000001
 43
0.0000000001
 40
0.0
 40
0.0
 40
0.0
 40
0.0
 40
1.0
 40
1.0
 40
1.0
 40
1.0
 10
-13.1481
 20
-23.6065
 30
0.0
 10
-13.1481
 20
-23.6065
 30
0.0
 10
-14.7022
 20
-26.2984
 30
0.0
 10
-14.7022
 20
-26.2984
 30
0.0
  0
SPLINE
  5
13D
330
1F
100
AcDbEntity
  8
DATUMS
 62
   250
100
AcDbSpline
210
0.0
220
0.0
230
1.0
 70
    24
 71
     3
 72
     8
 73
     4
 74
     0
 42
0.0000000001
 43
0.0000000001
 40
0.0
 40
0.0
 40
0.0
 40
0.0
 40
1.0
 40
1.0
 40
1.0
 40
1.0
 10
-14.7022
 20
-26.2984
 30
0.0
 10
-14.7022
 20
-26.2984
 30
0.0
 10
-13.1481
 20
-28.9901
 30
0.0
 10
-13.1481
 20
-28.9901
 30
0.0
  0
SPLINE
  5
13E
330
1F
100
AcDbEntity
  8
DATUMS
 62
   250
100
AcDbSpline
210
0.0
220
0.0
230
1.0
 70
    24
 71
     3
 72
     8
 73
     4
 74
     0
 42
0.0000000001
 43
0.0000000001
 40
0.0
 40
0.0
 40
0.0
 40
0.0
 40
1.0
 40
1.0
 40
1.0
 40
1.0
 10
-10.0398
 20
-28.9901
 30
0.0
 10
-10.0398
 20
-28.9901
 30
0.0
 10
-13.1481
 20
-28.9901
 30
0.0
 10
-13.1481
 20
-28.9901
 30
0.0
  0
SPLINE
  5
13F
330
1F
100
AcDbEntity
  8
DATUMS
 62
   250
100
AcDbSpline
210
0.0
220
0.0
230
1.0
 70
    24
 71
     3
 72
     8
 73
     4
 74
     0
 42
0.0000000001
 43
0.0000000001
 40
0.0
 40
0.0
 40
0.0
 40
0.0
 40
1.0
 40
1.0
 40
1.0
 40
1.0
 10
-10.0398
 20
-28.9901
 30
0.0
 10
-10.0398
 20
-28.9901
 30
0.0
 10
-8.4859
 20
-26.2984
 30
0.0
 10
-8.4859
 20
-26.2984
 30
0.0
  0
SPLINE
  5
140
330
1F
100
AcDbEntity
  8
DATUMS
 62
   250
100
AcDbSpline
210
0.0
220
0.0
230
1.0
 70
    24
 71
     3
 72
     8
 73
     4
 74
     0
 42
0.0000000001
 43
0.0000000001
 40
0.0
 40
0.0
 40
0.0
 40
0.0
 40
1.0
 40
1.0
 40
1.0
 40
1.0
 10
-8.4859
 20
-26.2984
 30
0.0
 10
-8.4859
 20
-26.2984
 30
0.0
 10
-10.0398
 20
-23.6065
 30
0.0
 10
-10.0398
 20
-23.6065
 30
0.0
  0
SPLINE
  5
141
330
1F
100
AcDbEntity
  8
DATUMS
 62
   250
100
AcDbSpline
210
0.0
220
0.0
230
1.0
 70
    24
 71
     3
 72
     8
 73
     4
 74
     0
 42
0.0000000001
 43
0.0000000001
 40
0.0
 40
0.0
 40
0.0
 40
0.0
 40
1.0
 40
1.0
 40
1.0
 40
1.0
 10
-13.1481
 20
-23.6065
 30
0.0
 10
-13.1481
 20
-23.6065
 30
0.0
 10
-10.0398
 20
-23.6065
 30
0.0
 10
-10.0398
 20
-23.6065
 30
0.0
  0
SPLINE
  5
142
330
1F
100
AcDbEntity
  8
DATUMS
 62
   250
100
AcDbSpline
210
0.0
220
0.0
230
1.0
 70
    24
 71
     3
 72
     8
 73
     4
 74
     0
 42
0.0000000001
 43
0.0000000001
 40
0.0
 40
0.0
 40
0.0
 40
0.0
 40
1.0
 40
1.0
 40
1.0
 40
1.0
 10
-13.9825
 20
-26.2984
 30
0.0
 10
-13.9825
 20
-26.2984
 30
0.0
 10
-14.2352
 20
-26.2984
 30
0.0
 10
-14.2352
 20
-26.2984
 30
0.0
  0
SPLINE
  5
143
330
1F
100
AcDbEntity
  8
DATUMS
 62
   250
100
AcDbSpline
210
0.0
220
0.0
230
1.0
 70
    24
 71
     3
 72
     8
 73
     4
 74
     0
 42
0.0000000001
 43
0.0000000001
 40
0.0
 40
0.0
 40
0.0
 40
0.0
 40
1.0
 40
1.0
 40
1.0
 40
1.0
 10
-8.9527
 20
-26.2984
 30
0.0
 10
-8.9527
 20
-26.2984
 30
0.0
 10
-9.2056
 20
-26.2984
 30
0.0
 10
-9.2056
 20
-26.2984
 30
0.0
  0
SPLINE
  5
144
330
1F
100
AcDbEntity
  8
DATUMS
 62
   250
100
AcDbSpline
210
0.0
220
0.0
230
1.0
 70
    11
 71
     3
 72
    48
 73
    44
 74
     0
 42
0.0000000001
 43
0.0000000001
 40
0.0
 40
0.0
 40
0.0
 40
0.0
 40
0.0833333333333333
 40
0.0833333333333333
 40
0.0833333333333333
 40
0.0833333333333333
 40
0.1666666666666667
 40
0.1666666666666667
 40
0.1666666666666667
 40
0.1666666666666667
 40
0.25
 40
0.25
 40
0.25
 40
0.25
 40
0.3333333333333333
 40
0.3333333333333333
 40
0.3333333333333333
 40
0.3333333333333333
 40
0.4166666666666667
 40
0.4166666666666667
 40
0.4166666666666667
 40
0.4166666666666667
 40
0.5
 40
0.5
 40
0.5
 40
0.5
 40
0.5833333333333334
 40
0.5833333333333334
 40
0.5833333333333334
 40
0.5833333333333334
 40
0.6666666666666666
 40
0.6666666666666666
 40
0.6666666666666666
 40
0.6666666666666666
 40
0.75
 40
0.75
 40
0.75
 40
0.75
 40
0.8333333333333334
 40
0.8333333333333334
 40
0.8333333333333334
 40
0.8333333333333334
 40
1.0
 40
1.0
 40
1.0
 40
1.0
 10
-14.046
 20
-27.2801
 30
0.0
 10
-13.8327
 20
-27.7472
 30
0.0
 10
-13.5493
 20
-28.1484
 30
0.0
 10
-13.1261
 20
-28.4499
 30
0.0
 10
-13.1261
 20
-28.4499
 30
0.0
 10
-12.7842
 20
-28.6931
 30
0.0
 10
-12.3851
 20
-28.8529
 30
0.0
 10
-11.9699
 20
-28.9127
 30
0.0
 10
-11.9699
 20
-28.9127
 30
0.0
 10
-11.6379
 20
-28.9604
 30
0.0
 10
-11.2973
 20
-28.9441
 30
0.0
 10
-10.9713
 20
-28.865
 30
0.0
 10
-10.9713
 20
-28.865
 30
0.0
 10
-10.6453
 20
-28.7859
 30
0.0
 10
-10.3351
 20
-28.6443
 30
0.0
 10
-10.062
 20
-28.4499
 30
0.0
 10
-10.062
 20
-28.4499
 30
0.0
 10
-9.0809
 20
-27.7512
 30
0.0
 10
-8.6944
 20
-26.4348
 30
0.0
 10
-9.142
 20
-25.3167
 30
0.0
 10
-9.142
 20
-25.3167
 30
0.0
 10
-9.2667
 20
-25.0053
 30
0.0
 10
-9.451
 20
-24.7185
 30
0.0
 10
-9.6826
 20
-24.4758
 30
0.0
 10
-9.6826
 20
-24.4758
 30
0.0
 10
-9.914
 20
-24.2329
 30
0.0
 10
-10.1918
 20
-24.0352
 30
0.0
 10
-10.4968
 20
-23.8958
 30
0.0
 10
-10.4968
 20
-23.8958
 30
0.0
 10
-10.8892
 20
-23.7166
 30
0.0
 10
-11.2924
 20
-23.6601
 30
0.0
 10
-11.7198
 20
-23.6601
 30
0.0
 10
-11.7198
 20
-23.6601
 30
0.0
 10
-12.0593
 20
-23.6926
 30
0.0
 10
-12.3784
 20
-23.7529
 30
0.0
 10
-12.6911
 20
-23.8958
 30
0.0
 10
-12.6911
 20
-23.8958
 30
0.0
 10
-13.6221
 20
-24.3209
 30
0.0
 10
-14.2352
 20
-25.275
 30
0.0
 10
-14.2352
 20
-26.2984
 30
0.0
 10
-14.2352
 20
-26.2984
 30
0.0
 10
-14.2352
 20
-26.6423
 30
0.0
 10
-14.1577
 20
-26.9576
 30
0.0
 10
-14.046
 20
-27.2801
 30
0.0
  0
SPLINE
  5
145
330
1F
100
AcDbEntity
  8
DATUMS
 62
   250
100
AcDbSpline
210
0.0
220
0.0
230
1.0
 70
     8
 71
     3
 72
    44
 73
    40
 74
     0
 42
0.0000000001
 43
0.0000000001
 40
0.0
 40
0.0
 40
0.0
 40
0.0
 40
0.0909090909090909
 40
0.0909090909090909
 40
0.0909090909090909
 40
0.0909090909090909
 40
0.1818181818181818
 40
0.1818181818181818
 40
0.1818181818181818
 40
0.1818181818181818
 40
0.2727272727272727
 40
0.2727272727272727
 40
0.2727272727272727
 40
0.2727272727272727
 40
0.3636363636363636
 40
0.3636363636363636
 40
0.3636363636363636
 40
0.3636363636363636
 40
0.4545454545454545
 40
0.4545454545454545
 40
0.4545454545454545
 40
0.4545454545454545
 40
0.5454545454545454
 40
0.5454545454545454
 40
0.5454545454545454
 40
0.5454545454545454
 40
0.6363636363636364
 40
0.6363636363636364
 40
0.6363636363636364
 40
0.6363636363636364
 40
0.7272727272727273
 40
0.7272727272727273
 40
0.7272727272727273
 40
0.7272727272727273
 40
0.8181818181818182
 40
0.8181818181818182
 40
0.8181818181818182
 40
0.8181818181818182
 40
1.0
 40
1.0
 40
1.0
 40
1.0
 10
-11.8134
 20
-24.3518
 30
0.0
 10
-12.2579
 20
-24.4275
 30
0.0
 10
-12.6549
 20
-24.5892
 30
0.0
 10
-12.979
 20
-24.9133
 30
0.0
 10
-12.979
 20
-24.9133
 30
0.0
 10
-13.1346
 20
-25.0687
 30
0.0
 10
-13.2634
 20
-25.2503
 30
0.0
 10
-13.3588
 20
-25.4486
 30
0.0
 10
-13.3588
 20
-25.4486
 30
0.0
 10
-13.7858
 20
-26.3351
 30
0.0
 10
-13.4694
 20
-27.4332
 30
0.0
 10
-12.6361
 20
-27.9569
 30
0.0
 10
-12.6361
 20
-27.9569
 30
0.0
 10
-12.45
 20
-28.0738
 30
0.0
 10
-12.2442
 20
-28.1591
 30
0.0
 10
-12.03
 20
-28.208
 30
0.0
 10
-12.03
 20
-28.208
 30
0.0
 10
-11.8156
 20
-28.2569
 30
0.0
 10
-11.5931
 20
-28.2695
 30
0.0
 10
-11.3747
 20
-28.2449
 30
0.0
 10
-11.3747
 20
-28.2449
 30
0.0
 10
-11.1562
 20
-28.2202
 30
0.0
 10
-10.9422
 20
-28.1586
 30
0.0
 10
-10.7441
 20
-28.0631
 30
0.0
 10
-10.7441
 20
-28.0631
 30
0.0
 10
-9.9305
 20
-27.6714
 30
0.0
 10
-9.4834
 20
-26.7428
 30
0.0
 10
-9.6842
 20
-25.8625
 30
0.0
 10
-9.6842
 20
-25.8625
 30
0.0
 10
-9.7333
 20
-25.6482
 30
0.0
 10
-9.8184
 20
-25.4424
 30
0.0
 10
-9.9354
 20
-25.2562
 30
0.0
 10
-9.9354
 20
-25.2562
 30
0.0
 10
-10.21
 20
-24.8194
 30
0.0
 10
-10.6551
 20
-24.5034
 30
0.0
 10
-11.158
 20
-24.3888
 30
0.0
 10
-11.158
 20
-24.3888
 30
0.0
 10
-11.349
 20
-24.3452
 30
0.0
 10
-11.3994
 20
-24.3506
 30
0.0
 10
-11.594
 20
-24.3395
 30
0.0
  0
SPLINE
  5
146
330
1F
100
AcDbEntity
  8
DATUMS
 62
   250
100
AcDbSpline
210
0.0
220
0.0
230
1.0
 70
    24
 71
     3
 72
     8
 73
     4
 74
     0
 42
0.0000000001
 43
0.0000000001
 40
0.0
 40
0.0
 40
0.0
 40
0.0
 40
1.0
 40
1.0
 40
1.0
 40
1.0
 10
-11.594
 20
-24.3395
 30
0.0
 10
-11.594
 20
-24.3395
 30
0.0
 10
-11.8134
 20
-24.3518
 30
0.0
 10
-11.8134
 20
-24.3518
 30
0.0
  0
SPLINE
  5
147
330
1F
100
AcDbEntity
  8
DATUMS
 62
   250
100
AcDbSpline
210
0.0
220
0.0
230
1.0
 70
    11
 71
     3
 72
    40
 73
    36
 74
     0
 42
0.0000000001
 43
0.0000000001
 40
0.0
 40
0.0
 40
0.0
 40
0.0
 40
0.1
 40
0.1
 40
0.1
 40
0.1
 40
0.2
 40
0.2
 40
0.2
 40
0.2
 40
0.3
 40
0.3
 40
0.3
 40
0.3
 40
0.4
 40
0.4
 40
0.4
 40
0.4
 40
0.5
 40
0.5
 40
0.5
 40
0.5
 40
0.6
 40
0.6
 40
0.6
 40
0.6
 40
0.7
 40
0.7
 40
0.7
 40
0.7
 40
0.8
 40
0.8
 40
0.8
 40
0.8
 40
1.0
 40
1.0
 40
1.0
 40
1.0
 10
-11.298
 20
-24.7466
 30
0.0
 10
-11.5603
 20
-24.7136
 30
0.0
 10
-11.4287
 20
-24.7218
 30
0.0
 10
-11.6932
 20
-24.7218
 30
0.0
 10
-11.6932
 20
-24.7218
 30
0.0
 10
-11.8677
 20
-24.7439
 30
0.0
 10
-11.9138
 20
-24.7413
 30
0.0
 10
-12.082
 20
-24.796
 30
0.0
 10
-12.082
 20
-24.796
 30
0.0
 10
-12.4618
 20
-24.9194
 30
0.0
 10
-12.7861
 20
-25.1876
 30
0.0
 10
-12.9783
 20
-25.5374
 30
0.0
 10
-12.9783
 20
-25.5374
 30
0.0
 10
-13.074
 20
-25.7114
 30
0.0
 10
-13.1363
 20
-25.9034
 30
0.0
 10
-13.1612
 20
-26.1004
 30
0.0
 10
-13.1612
 20
-26.1004
 30
0.0
 10
-13.2739
 20
-26.9917
 30
0.0
 10
-12.5898
 20
-27.8184
 30
0.0
 10
-11.6932
 20
-27.8749
 30
0.0
 10
-11.6932
 20
-27.8749
 30
0.0
 10
-11.495
 20
-27.8874
 30
0.0
 10
-11.2947
 20
-27.862
 30
0.0
 10
-11.1059
 20
-27.8008
 30
0.0
 10
-11.1059
 20
-27.8008
 30
0.0
 10
-10.2514
 20
-27.5231
 30
0.0
 10
-9.7944
 20
-26.5522
 30
0.0
 10
-10.1253
 20
-25.7168
 30
0.0
 10
-10.1253
 20
-25.7168
 30
0.0
 10
-10.2722
 20
-25.3457
 30
0.0
 10
-10.5603
 20
-25.0389
 30
0.0
 10
-10.9214
 20
-24.8691
 30
0.0
 10
-10.9214
 20
-24.8691
 30
0.0
 10
-11.0815
 20
-24.7937
 30
0.0
 10
-11.1276
 20
-24.7904
 30
0.0
 10
-11.298
 20
-24.7466
 30
0.0
  0
SPLINE
  5
148
330
1F
100
AcDbEntity
  8
DATUMS
 62
   250
100
AcDbSpline
210
0.0
220
0.0
230
1.0
 70
     8
 71
     3
 72
    12
 73
     8
 74
     0
 42
0.0000000001
 43
0.0000000001
 40
0.0
 40
0.0
 40
0.0
 40
0.0
 40
0.3333333333333333
 40
0.3333333333333333
 40
0.3333333333333333
 40
0.3333333333333333
 40
1.0
 40
1.0
 40
1.0
 40
1.0
 10
-13.9825
 20
-26.2984
 30
0.0
 10
-13.9716
 20
-26.5128
 30
0.0
 10
-13.9769
 20
-26.568
 30
0.0
 10
-13.9336
 20
-26.7792
 30
0.0
 10
-13.9336
 20
-26.7792
 30
0.0
 10
-13.827
 20
-27.2977
 30
0.0
 10
-13.5485
 20
-27.7643
 30
0.0
 10
-13.1477
 20
-28.1083
 30
0.0
  0
SPLINE
  5
149
330
1F
100
AcDbEntity
  8
DATUMS
 62
   250
100
AcDbSpline
210
0.0
220
0.0
230
1.0
 70
    11
 71
     3
 72
    48
 73
    44
 74
     0
 42
0.0000000001
 43
0.0000000001
 40
0.0
 40
0.0
 40
0.0
 40
0.0
 40
0.0833333333333333
 40
0.0833333333333333
 40
0.0833333333333333
 40
0.0833333333333333
 40
0.1666666666666667
 40
0.1666666666666667
 40
0.1666666666666667
 40
0.1666666666666667
 40
0.25
 40
0.25
 40
0.25
 40
0.25
 40
0.3333333333333333
 40
0.3333333333333333
 40
0.3333333333333333
 40
0.3333333333333333
 40
0.4166666666666667
 40
0.4166666666666667
 40
0.4166666666666667
 40
0.4166666666666667
 40
0.5
 40
0.5
 40
0.5
 40
0.5
 40
0.5833333333333334
 40
0.5833333333333334
 40
0.5833333333333334
 40
0.5833333333333334
 40
0.6666666666666666
 40
0.6666666666666666
 40
0.6666666666666666
 40
0.6666666666666666
 40
0.75
 40
0.75
 40
0.75
 40
0.75
 40
0.8333333333333334
 40
0.8333333333333334
 40
0.8333333333333334
 40
0.8333333333333334
 40
1.0
 40
1.0
 40
1.0
 40
1.0
 10
-12.3525
 20
-28.881
 30
0.0
 10
-12.0991
 20
-28.9425
 30
0.0
 10
-11.8561
 20
-28.9901
 30
0.0
 10
-11.594
 20
-28.9901
 30
0.0
 10
-11.594
 20
-28.9901
 30
0.0
 10
-10.9939
 20
-28.9901
 30
0.0
 10
-10.4016
 20
-28.7852
 30
0.0
 10
-9.9301
 20
-28.4142
 30
0.0
 10
-9.9301
 20
-28.4142
 30
0.0
 10
-8.9651
 20
-27.6554
 30
0.0
 10
-8.6357
 20
-26.2967
 30
0.0
 10
-9.1454
 20
-25.1801
 30
0.0
 10
-9.1454
 20
-25.1801
 30
0.0
 10
-9.2519
 20
-24.9471
 30
0.0
 10
-9.3919
 20
-24.7294
 30
0.0
 10
-9.5597
 20
-24.5357
 30
0.0
 10
-9.5597
 20
-24.5357
 30
0.0
 10
-9.7835
 20
-24.2773
 30
0.0
 10
-10.0566
 20
-24.0625
 30
0.0
 10
-10.3605
 20
-23.9058
 30
0.0
 10
-10.3605
 20
-23.9058
 30
0.0
 10
-10.7514
 20
-23.7043
 30
0.0
 10
-11.1591
 20
-23.6273
 30
0.0
 10
-11.594
 20
-23.6065
 30
0.0
 10
-11.594
 20
-23.6065
 30
0.0
 10
-12.0289
 20
-23.6273
 30
0.0
 10
-12.4365
 20
-23.7043
 30
0.0
 10
-12.8274
 20
-23.9058
 30
0.0
 10
-12.8274
 20
-23.9058
 30
0.0
 10
-13.9184
 20
-24.4684
 30
0.0
 10
-14.4993
 20
-25.7401
 30
0.0
 10
-14.2099
 20
-26.933
 30
0.0
 10
-14.2099
 20
-26.933
 30
0.0
 10
-14.1293
 20
-27.2652
 30
0.0
 10
-13.9849
 20
-27.5813
 30
0.0
 10
-13.7866
 20
-27.8598
 30
0.0
 10
-13.7866
 20
-27.8598
 30
0.0
 10
-13.5386
 20
-28.208
 30
0.0
 10
-13.2075
 20
-28.495
 30
0.0
 10
-12.8274
 20
-28.6909
 30
0.0
 10
-12.8274
 20
-28.6909
 30
0.0
 10
-12.6247
 20
-28.7955
 30
0.0
 10
-12.5673
 20
-28.8066
 30
0.0
 10
-12.3525
 20
-28.881
 30
0.0
  0
SPLINE
  5
14A
330
1F
100
AcDbEntity
  8
DATUMS
 62
   250
100
AcDbSpline
210
0.0
220
0.0
230
1.0
 70
     8
 71
     3
 72
    12
 73
     8
 74
     0
 42
0.0000000001
 43
0.0000000001
 40
0.0
 40
0.0
 40
0.0
 40
0.0
 40
0.3333333333333333
 40
0.3333333333333333
 40
0.3333333333333333
 40
0.3333333333333333
 40
1.0
 40
1.0
 40
1.0
 40
1.0
 10
-11.715
 20
-28.6837
 30
0.0
 10
-11.5003
 20
-28.6837
 30
0.0
 10
-11.4454
 20
-28.692
 30
0.0
 10
-11.2324
 20
-28.6592
 30
0.0
 10
-11.2324
 20
-28.6592
 30
0.0
 10
-10.709
 20
-28.5791
 30
0.0
 10
-10.229
 20
-28.3246
 30
0.0
 10
-9.8652
 20
-27.9419
 30
0.0
  0
SPLINE
  5
14B
330
1F
100
AcDbEntity
  8
DATUMS
 62
   250
100
AcDbSpline
210
0.0
220
0.0
230
1.0
 70
     8
 71
     3
 72
    12
 73
     8
 74
     0
 42
0.0000000001
 43
0.0000000001
 40
0.0
 40
0.0
 40
0.0
 40
0.0
 40
0.3333333333333333
 40
0.3333333333333333
 40
0.3333333333333333
 40
0.3333333333333333
 40
1.0
 40
1.0
 40
1.0
 40
1.0
 10
-10.0403
 20
-24.4884
 30
0.0
 10
-9.6395
 20
-24.8324
 30
0.0
 10
-9.361
 20
-25.299
 30
0.0
 10
-9.2545
 20
-25.8175
 30
0.0
 10
-9.2545
 20
-25.8175
 30
0.0
 10
-9.211
 20
-26.0287
 30
0.0
 10
-9.2165
 20
-26.0839
 30
0.0
 10
-9.2056
 20
-26.2984
 30
0.0
  0
SPLINE
  5
14C
330
1F
100
AcDbEntity
  8
DATUMS
 62
   250
100
AcDbSpline
210
0.0
220
0.0
230
1.0
 70
    24
 71
     3
 72
     8
 73
     4
 74
     0
 42
0.0000000001
 43
0.0000000001
 40
0.0
 40
0.0
 40
0.0
 40
0.0
 40
1.0
 40
1.0
 40
1.0
 40
1.0
 10
-11.473
 20
-23.9129
 30
0.0
 10
-11.473
 20
-23.9129
 30
0.0
 10
-11.715
 20
-23.9129
 30
0.0
 10
-11.715
 20
-23.9129
 30
0.0
  0
SPLINE
  5
14D
330
1F
100
AcDbEntity
  8
DATUMS
 62
   250
100
AcDbSpline
210
0.0
220
0.0
230
1.0
 70
     8
 71
     3
 72
    12
 73
     8
 74
     0
 42
0.0000000001
 43
0.0000000001
 40
0.0
 40
0.0
 40
0.0
 40
0.0
 40
0.3333333333333333
 40
0.3333333333333333
 40
0.3333333333333333
 40
0.3333333333333333
 40
1.0
 40
1.0
 40
1.0
 40
1.0
 10
-11.715
 20
-23.9129
 30
0.0
 10
-11.9286
 20
-23.9346
 30
0.0
 10
-11.984
 20
-23.9321
 30
0.0
 10
-12.1926
 20
-23.9861
 30
0.0
 10
-12.1926
 20
-23.9861
 30
0.0
 10
-12.626
 20
-24.0984
 30
0.0
 10
-13.0152
 20
-24.3313
 30
0.0
 10
-13.3228
 20
-24.6548
 30
0.0
  0
SPLINE
  5
14E
330
1F
100
AcDbEntity
  8
DATUMS
 62
   250
100
AcDbSpline
210
0.0
220
0.0
230
1.0
 70
    11
 71
     3
 72
    44
 73
    40
 74
     0
 42
0.0000000001
 43
0.0000000001
 40
0.0
 40
0.0
 40
0.0
 40
0.0
 40
0.0909090909090909
 40
0.0909090909090909
 40
0.0909090909090909
 40
0.0909090909090909
 40
0.1818181818181818
 40
0.1818181818181818
 40
0.1818181818181818
 40
0.1818181818181818
 40
0.2727272727272727
 40
0.2727272727272727
 40
0.2727272727272727
 40
0.2727272727272727
 40
0.3636363636363636
 40
0.3636363636363636
 40
0.3636363636363636
 40
0.3636363636363636
 40
0.4545454545454545
 40
0.4545454545454545
 40
0.4545454545454545
 40
0.4545454545454545
 40
0.5454545454545454
 40
0.5454545454545454
 40
0.5454545454545454
 40
0.5454545454545454
 40
0.6363636363636364
 40
0.6363636363636364
 40
0.6363636363636364
 40
0.6363636363636364
 40
0.7272727272727273
 40
0.7272727272727273
 40
0.7272727272727273
 40
0.7272727272727273
 40
0.8181818181818182
 40
0.8181818181818182
 40
0.8181818181818182
 40
0.8181818181818182
 40
1.0
 40
1.0
 40
1.0
 40
1.0
 10
-12.6682
 20
-26.2984
 30
0.0
 10
-12.6517
 20
-26.0775
 30
0.0
 10
-12.6086
 20
-25.8797
 30
0.0
 10
-12.4815
 20
-25.6932
 30
0.0
 10
-12.4815
 20
-25.6932
 30
0.0
 10
-12.099
 20
-25.1324
 30
0.0
 10
-11.2684
 20
-25.0701
 30
0.0
 10
-10.8065
 20
-25.5677
 30
0.0
 10
-10.8065
 20
-25.5677
 30
0.0
 10
-10.7336
 20
-25.6463
 30
0.0
 10
-10.6728
 20
-25.7355
 30
0.0
 10
-10.6263
 20
-25.8323
 30
0.0
 10
-10.6263
 20
-25.8323
 30
0.0
 10
-10.5564
 20
-25.9773
 30
0.0
 10
-10.5199
 20
-26.1375
 30
0.0
 10
-10.5199
 20
-26.2984
 30
0.0
 10
-10.5199
 20
-26.2984
 30
0.0
 10
-10.5199
 20
-26.4592
 30
0.0
 10
-10.5564
 20
-26.6195
 30
0.0
 10
-10.6263
 20
-26.7644
 30
0.0
 10
-10.6263
 20
-26.7644
 30
0.0
 10
-10.6961
 20
-26.9094
 30
0.0
 10
-10.7985
 20
-27.0379
 30
0.0
 10
-10.9243
 20
-27.1382
 30
0.0
 10
-10.9243
 20
-27.1382
 30
0.0
 10
-11.1008
 20
-27.279
 30
0.0
 10
-11.2947
 20
-27.3365
 30
0.0
 10
-11.5138
 20
-27.3695
 30
0.0
 10
-11.5138
 20
-27.3695
 30
0.0
 10
-11.6559
 20
-27.3695
 30
0.0
 10
-11.6932
 20
-27.3774
 30
0.0
 10
-11.833
 20
-27.3455
 30
0.0
 10
-11.833
 20
-27.3455
 30
0.0
 10
-12.2036
 20
-27.2611
 30
0.0
 10
-12.5083
 20
-26.9782
 30
0.0
 10
-12.6204
 20
-26.6151
 30
0.0
 10
-12.6204
 20
-26.6151
 30
0.0
 10
-12.6627
 20
-26.4779
 30
0.0
 10
-12.6575
 20
-26.4401
 30
0.0
 10
-12.6682
 20
-26.2984
 30
0.0
  0
SPLINE
  5
14F
330
1F
100
AcDbEntity
  8
DATUMS
 62
   250
100
AcDbSpline
210
0.0
220
0.0
230
1.0
 70
    24
 71
     3
 72
     8
 73
     4
 74
     0
 42
0.0000000001
 43
0.0000000001
 40
0.0
 40
0.0
 40
0.0
 40
0.0
 40
1.0
 40
1.0
 40
1.0
 40
1.0
 10
-0.3973
 20
-39.1884
 30
0.0
 10
-0.3973
 20
-39.1884
 30
0.0
 10
-1.4589
 20
-39.1884
 30
0.0
 10
-1.4589
 20
-39.1884
 30
0.0
  0
SPLINE
  5
150
330
1F
100
AcDbEntity
  8
DATUMS
 62
   250
100
AcDbSpline
210
0.0
220
0.0
230
1.0
 70
    24
 71
     3
 72
     8
 73
     4
 74
     0
 42
0.0000000001
 43
0.0000000001
 40
0.0
 40
0.0
 40
0.0
 40
0.0
 40
1.0
 40
1.0
 40
1.0
 40
1.0
 10
-1.4336
 20
-38.9863
 30
0.0
 10
-1.4336
 20
-38.9863
 30
0.0
 10
-1.4589
 20
-38.9863
 30
0.0
 10
-1.4589
 20
-38.9863
 30
0.0
  0
SPLINE
  5
151
330
1F
100
AcDbEntity
  8
DATUMS
 62
   250
100
AcDbSpline
210
0.0
220
0.0
230
1.0
 70
    24
 71
     3
 72
     8
 73
     4
 74
     0
 42
0.0000000001
 43
0.0000000001
 40
0.0
 40
0.0
 40
0.0
 40
0.0
 40
1.0
 40
1.0
 40
1.0
 40
1.0
 10
-1.4336
 20
-39.1884
 30
0.0
 10
-1.4336
 20
-39.1884
 30
0.0
 10
-1.4336
 20
-37.56
 30
0.0
 10
-1.4336
 20
-37.56
 30
0.0
  0
SPLINE
  5
152
330
1F
100
AcDbEntity
  8
DATUMS
 62
   250
100
AcDbSpline
210
0.0
220
0.0
230
1.0
 70
    24
 71
     3
 72
     8
 73
     4
 74
     0
 42
0.0000000001
 43
0.0000000001
 40
0.0
 40
0.0
 40
0.0
 40
0.0
 40
1.0
 40
1.0
 40
1.0
 40
1.0
 10
-0.4226
 20
-37.56
 30
0.0
 10
-0.4226
 20
-37.56
 30
0.0
 10
-1.4336
 20
-37.56
 30
0.0
 10
-1.4336
 20
-37.56
 30
0.0
  0
SPLINE
  5
153
330
1F
100
AcDbEntity
  8
DATUMS
 62
   250
100
AcDbSpline
210
0.0
220
0.0
230
1.0
 70
    24
 71
     3
 72
     8
 73
     4
 74
     0
 42
0.0000000001
 43
0.0000000001
 40
0.0
 40
0.0
 40
0.0
 40
0.0
 40
1.0
 40
1.0
 40
1.0
 40
1.0
 10
-0.4226
 20
-39.1884
 30
0.0
 10
-0.4226
 20
-39.1884
 30
0.0
 10
-0.4226
 20
-37.56
 30
0.0
 10
-0.4226
 20
-37.56
 30
0.0
  0
SPLINE
  5
154
330
1F
100
AcDbEntity
  8
DATUMS
 62
   250
100
AcDbSpline
210
0.0
220
0.0
230
1.0
 70
    24
 71
     3
 72
     8
 73
     4
 74
     0
 42
0.0000000001
 43
0.0000000001
 40
0.0
 40
0.0
 40
0.0
 40
0.0
 40
1.0
 40
1.0
 40
1.0
 40
1.0
 10
-0.4226
 20
-38.9863
 30
0.0
 10
-0.4226
 20
-38.9863
 30
0.0
 10
-0.3973
 20
-38.9863
 30
0.0
 10
-0.3973
 20
-38.9863
 30
0.0
  0
SPLINE
  5
155
330
1F
100
AcDbEntity
  8
DATUMS
 62
   250
100
AcDbSpline
210
0.0
220
0.0
230
1.0
 70
    24
 71
     3
 72
     8
 73
     4
 74
     0
 42
0.0000000001
 43
0.0000000001
 40
0.0
 40
0.0
 40
0.0
 40
0.0
 40
1.0
 40
1.0
 40
1.0
 40
1.0
 10
2.1049
 20
-38.9863
 30
0.0
 10
2.1049
 20
-38.9863
 30
0.0
 10
2.0795
 20
-38.9863
 30
0.0
 10
2.0795
 20
-38.9863
 30
0.0
  0
SPLINE
  5
156
330
1F
100
AcDbEntity
  8
DATUMS
 62
   250
100
AcDbSpline
210
0.0
220
0.0
230
1.0
 70
    24
 71
     3
 72
     8
 73
     4
 74
     0
 42
0.0000000001
 43
0.0000000001
 40
0.0
 40
0.0
 40
0.0
 40
0.0
 40
1.0
 40
1.0
 40
1.0
 40
1.0
 10
3.1412
 20
-39.1884
 30
0.0
 10
3.1412
 20
-39.1884
 30
0.0
 10
2.0795
 20
-39.1884
 30
0.0
 10
2.0795
 20
-39.1884
 30
0.0
  0
SPLINE
  5
157
330
1F
100
AcDbEntity
  8
DATUMS
 62
   250
100
AcDbSpline
210
0.0
220
0.0
230
1.0
 70
    24
 71
     3
 72
     8
 73
     4
 74
     0
 42
0.0000000001
 43
0.0000000001
 40
0.0
 40
0.0
 40
0.0
 40
0.0
 40
1.0
 40
1.0
 40
1.0
 40
1.0
 10
2.1049
 20
-39.1884
 30
0.0
 10
2.1049
 20
-39.1884
 30
0.0
 10
2.1049
 20
-37.56
 30
0.0
 10
2.1049
 20
-37.56
 30
0.0
  0
SPLINE
  5
158
330
1F
100
AcDbEntity
  8
DATUMS
 62
   250
100
AcDbSpline
210
0.0
220
0.0
230
1.0
 70
    24
 71
     3
 72
     8
 73
     4
 74
     0
 42
0.0000000001
 43
0.0000000001
 40
0.0
 40
0.0
 40
0.0
 40
0.0
 40
1.0
 40
1.0
 40
1.0
 40
1.0
 10
3.1159
 20
-37.56
 30
0.0
 10
3.1159
 20
-37.56
 30
0.0
 10
2.1049
 20
-37.56
 30
0.0
 10
2.1049
 20
-37.56
 30
0.0
  0
SPLINE
  5
159
330
1F
100
AcDbEntity
  8
DATUMS
 62
   250
100
AcDbSpline
210
0.0
220
0.0
230
1.0
 70
    24
 71
     3
 72
     8
 73
     4
 74
     0
 42
0.0000000001
 43
0.0000000001
 40
0.0
 40
0.0
 40
0.0
 40
0.0
 40
1.0
 40
1.0
 40
1.0
 40
1.0
 10
3.1159
 20
-39.1884
 30
0.0
 10
3.1159
 20
-39.1884
 30
0.0
 10
3.1159
 20
-37.56
 30
0.0
 10
3.1159
 20
-37.56
 30
0.0
  0
SPLINE
  5
15A
330
1F
100
AcDbEntity
  8
DATUMS
 62
   250
100
AcDbSpline
210
0.0
220
0.0
230
1.0
 70
    24
 71
     3
 72
     8
 73
     4
 74
     0
 42
0.0000000001
 43
0.0000000001
 40
0.0
 40
0.0
 40
0.0
 40
0.0
 40
1.0
 40
1.0
 40
1.0
 40
1.0
 10
3.1159
 20
-38.9863
 30
0.0
 10
3.1159
 20
-38.9863
 30
0.0
 10
3.1412
 20
-38.9863
 30
0.0
 10
3.1412
 20
-38.9863
 30
0.0
  0
SPLINE
  5
15B
330
1F
100
AcDbEntity
  8
DATUMS
 62
   250
100
AcDbSpline
210
0.0
220
0.0
230
1.0
 70
    24
 71
     3
 72
     8
 73
     4
 74
     0
 42
0.0000000001
 43
0.0000000001
 40
0.0
 40
0.0
 40
0.0
 40
0.0
 40
1.0
 40
1.0
 40
1.0
 40
1.0
 10
4.8346
 20
-37.56
 30
0.0
 10
4.8346
 20
-37.56
 30
0.0
 10
5.0367
 20
-37.56
 30
0.0
 10
5.0367
 20
-37.56
 30
0.0
  0
SPLINE
  5
15C
330
1F
100
AcDbEntity
  8
DATUMS
 62
   250
100
AcDbSpline
210
0.0
220
0.0
230
1.0
 70
    24
 71
     3
 72
     8
 73
     4
 74
     0
 42
0.0000000001
 43
0.0000000001
 40
0.0
 40
0.0
 40
0.0
 40
0.0
 40
1.0
 40
1.0
 40
1.0
 40
1.0
 10
-0.4226
 20
-38.961
 30
0.0
 10
-0.4226
 20
-38.961
 30
0.0
 10
-1.4336
 20
-38.961
 30
0.0
 10
-1.4336
 20
-38.961
 30
0.0
  0
SPLINE
  5
15D
330
1F
100
AcDbEntity
  8
DATUMS
 62
   250
100
AcDbSpline
210
0.0
220
0.0
230
1.0
 70
    24
 71
     3
 72
     8
 73
     4
 74
     0
 42
0.0000000001
 43
0.0000000001
 40
0.0
 40
0.0
 40
0.0
 40
0.0
 40
1.0
 40
1.0
 40
1.0
 40
1.0
 10
3.1159
 20
-38.961
 30
0.0
 10
3.1159
 20
-38.961
 30
0.0
 10
2.1049
 20
-38.961
 30
0.0
 10
2.1049
 20
-38.961
 30
0.0
  0
SPLINE
  5
15E
330
1F
100
AcDbEntity
  8
DATUMS
 62
   250
100
AcDbSpline
210
0.0
220
0.0
230
1.0
 70
    24
 71
     3
 72
    12
 73
     8
 74
     0
 42
0.0000000001
 43
0.0000000001
 40
0.0
 40
0.0
 40
0.0
 40
0.0
 40
0.3333333333333333
 40
0.3333333333333333
 40
0.3333333333333333
 40
0.3333333333333333
 40
1.0
 40
1.0
 40
1.0
 40
1.0
 10
5.0367
 20
-37.56
 30
0.0
 10
5.0367
 20
-37.56
 30
0.0
 10
5.0367
 20
-38.0656
 30
0.0
 10
5.0367
 20
-38.0656
 30
0.0
 10
5.0367
 20
-38.0656
 30
0.0
 10
5.0367
 20
-38.0656
 30
0.0
 10
5.0367
 20
-38.4555
 30
0.0
 10
5.0367
 20
-38.4555
 30
0.0
  0
SPLINE
  5
15F
330
1F
100
AcDbEntity
  8
DATUMS
 62
   250
100
AcDbSpline
210
0.0
220
0.0
230
1.0
 70
     8
 71
     3
 72
     8
 73
     4
 74
     0
 42
0.0000000001
 43
0.0000000001
 40
0.0
 40
0.0
 40
0.0
 40
0.0
 40
1.0
 40
1.0
 40
1.0
 40
1.0
 10
5.0367
 20
-38.4555
 30
0.0
 10
5.0367
 20
-38.5963
 30
0.0
 10
5.1535
 20
-39.1546
 30
0.0
 10
4.8346
 20
-39.1859
 30
0.0
  0
SPLINE
  5
160
330
1F
100
AcDbEntity
  8
DATUMS
 62
   250
100
AcDbSpline
210
0.0
220
0.0
230
1.0
 70
    24
 71
     3
 72
     8
 73
     4
 74
     0
 42
0.0000000001
 43
0.0000000001
 40
0.0
 40
0.0
 40
0.0
 40
0.0
 40
1.0
 40
1.0
 40
1.0
 40
1.0
 10
-21.7292
 20
-39.1884
 30
0.0
 10
-21.7292
 20
-39.1884
 30
0.0
 10
-22.7907
 20
-39.1884
 30
0.0
 10
-22.7907
 20
-39.1884
 30
0.0
  0
SPLINE
  5
161
330
1F
100
AcDbEntity
  8
DATUMS
 62
   250
100
AcDbSpline
210
0.0
220
0.0
230
1.0
 70
    24
 71
     3
 72
     8
 73
     4
 74
     0
 42
0.0000000001
 43
0.0000000001
 40
0.0
 40
0.0
 40
0.0
 40
0.0
 40
1.0
 40
1.0
 40
1.0
 40
1.0
 10
-22.7653
 20
-38.9863
 30
0.0
 10
-22.7653
 20
-38.9863
 30
0.0
 10
-22.7907
 20
-38.9863
 30
0.0
 10
-22.7907
 20
-38.9863
 30
0.0
  0
SPLINE
  5
162
330
1F
100
AcDbEntity
  8
DATUMS
 62
   250
100
AcDbSpline
210
0.0
220
0.0
230
1.0
 70
    24
 71
     3
 72
     8
 73
     4
 74
     0
 42
0.0000000001
 43
0.0000000001
 40
0.0
 40
0.0
 40
0.0
 40
0.0
 40
1.0
 40
1.0
 40
1.0
 40
1.0
 10
-22.7653
 20
-39.1884
 30
0.0
 10
-22.7653
 20
-39.1884
 30
0.0
 10
-22.7653
 20
-37.56
 30
0.0
 10
-22.7653
 20
-37.56
 30
0.0
  0
SPLINE
  5
163
330
1F
100
AcDbEntity
  8
DATUMS
 62
   250
100
AcDbSpline
210
0.0
220
0.0
230
1.0
 70
    24
 71
     3
 72
     8
 73
     4
 74
     0
 42
0.0000000001
 43
0.0000000001
 40
0.0
 40
0.0
 40
0.0
 40
0.0
 40
1.0
 40
1.0
 40
1.0
 40
1.0
 10
-21.7544
 20
-37.56
 30
0.0
 10
-21.7544
 20
-37.56
 30
0.0
 10
-22.7653
 20
-37.56
 30
0.0
 10
-22.7653
 20
-37.56
 30
0.0
  0
SPLINE
  5
164
330
1F
100
AcDbEntity
  8
DATUMS
 62
   250
100
AcDbSpline
210
0.0
220
0.0
230
1.0
 70
    24
 71
     3
 72
     8
 73
     4
 74
     0
 42
0.0000000001
 43
0.0000000001
 40
0.0
 40
0.0
 40
0.0
 40
0.0
 40
1.0
 40
1.0
 40
1.0
 40
1.0
 10
-21.7544
 20
-39.1884
 30
0.0
 10
-21.7544
 20
-39.1884
 30
0.0
 10
-21.7544
 20
-37.56
 30
0.0
 10
-21.7544
 20
-37.56
 30
0.0
  0
SPLINE
  5
165
330
1F
100
AcDbEntity
  8
DATUMS
 62
   250
100
AcDbSpline
210
0.0
220
0.0
230
1.0
 70
    24
 71
     3
 72
     8
 73
     4
 74
     0
 42
0.0000000001
 43
0.0000000001
 40
0.0
 40
0.0
 40
0.0
 40
0.0
 40
1.0
 40
1.0
 40
1.0
 40
1.0
 10
-21.7544
 20
-38.9863
 30
0.0
 10
-21.7544
 20
-38.9863
 30
0.0
 10
-21.7292
 20
-38.9863
 30
0.0
 10
-21.7292
 20
-38.9863
 30
0.0
  0
SPLINE
  5
166
330
1F
100
AcDbEntity
  8
DATUMS
 62
   250
100
AcDbSpline
210
0.0
220
0.0
230
1.0
 70
    24
 71
     3
 72
     8
 73
     4
 74
     0
 42
0.0000000001
 43
0.0000000001
 40
0.0
 40
0.0
 40
0.0
 40
0.0
 40
1.0
 40
1.0
 40
1.0
 40
1.0
 10
-25.2676
 20
-39.1884
 30
0.0
 10
-25.2676
 20
-39.1884
 30
0.0
 10
-26.3292
 20
-39.1884
 30
0.0
 10
-26.3292
 20
-39.1884
 30
0.0
  0
SPLINE
  5
167
330
1F
100
AcDbEntity
  8
DATUMS
 62
   250
100
AcDbSpline
210
0.0
220
0.0
230
1.0
 70
    24
 71
     3
 72
     8
 73
     4
 74
     0
 42
0.0000000001
 43
0.0000000001
 40
0.0
 40
0.0
 40
0.0
 40
0.0
 40
1.0
 40
1.0
 40
1.0
 40
1.0
 10
-26.3038
 20
-38.9863
 30
0.0
 10
-26.3038
 20
-38.9863
 30
0.0
 10
-26.3292
 20
-38.9863
 30
0.0
 10
-26.3292
 20
-38.9863
 30
0.0
  0
SPLINE
  5
168
330
1F
100
AcDbEntity
  8
DATUMS
 62
   250
100
AcDbSpline
210
0.0
220
0.0
230
1.0
 70
    24
 71
     3
 72
     8
 73
     4
 74
     0
 42
0.0000000001
 43
0.0000000001
 40
0.0
 40
0.0
 40
0.0
 40
0.0
 40
1.0
 40
1.0
 40
1.0
 40
1.0
 10
-26.3038
 20
-39.1884
 30
0.0
 10
-26.3038
 20
-39.1884
 30
0.0
 10
-26.3038
 20
-37.56
 30
0.0
 10
-26.3038
 20
-37.56
 30
0.0
  0
SPLINE
  5
169
330
1F
100
AcDbEntity
  8
DATUMS
 62
   250
100
AcDbSpline
210
0.0
220
0.0
230
1.0
 70
    24
 71
     3
 72
     8
 73
     4
 74
     0
 42
0.0000000001
 43
0.0000000001
 40
0.0
 40
0.0
 40
0.0
 40
0.0
 40
1.0
 40
1.0
 40
1.0
 40
1.0
 10
-25.2929
 20
-37.56
 30
0.0
 10
-25.2929
 20
-37.56
 30
0.0
 10
-26.3038
 20
-37.56
 30
0.0
 10
-26.3038
 20
-37.56
 30
0.0
  0
SPLINE
  5
16A
330
1F
100
AcDbEntity
  8
DATUMS
 62
   250
100
AcDbSpline
210
0.0
220
0.0
230
1.0
 70
    24
 71
     3
 72
     8
 73
     4
 74
     0
 42
0.0000000001
 43
0.0000000001
 40
0.0
 40
0.0
 40
0.0
 40
0.0
 40
1.0
 40
1.0
 40
1.0
 40
1.0
 10
-25.2929
 20
-39.1884
 30
0.0
 10
-25.2929
 20
-39.1884
 30
0.0
 10
-25.2929
 20
-37.56
 30
0.0
 10
-25.2929
 20
-37.56
 30
0.0
  0
SPLINE
  5
16B
330
1F
100
AcDbEntity
  8
DATUMS
 62
   250
100
AcDbSpline
210
0.0
220
0.0
230
1.0
 70
    24
 71
     3
 72
     8
 73
     4
 74
     0
 42
0.0000000001
 43
0.0000000001
 40
0.0
 40
0.0
 40
0.0
 40
0.0
 40
1.0
 40
1.0
 40
1.0
 40
1.0
 10
-25.2929
 20
-38.9863
 30
0.0
 10
-25.2929
 20
-38.9863
 30
0.0
 10
-25.2676
 20
-38.9863
 30
0.0
 10
-25.2676
 20
-38.9863
 30
0.0
  0
SPLINE
  5
16C
330
1F
100
AcDbEntity
  8
DATUMS
 62
   250
100
AcDbSpline
210
0.0
220
0.0
230
1.0
 70
    24
 71
     3
 72
     8
 73
     4
 74
     0
 42
0.0000000001
 43
0.0000000001
 40
0.0
 40
0.0
 40
0.0
 40
0.0
 40
1.0
 40
1.0
 40
1.0
 40
1.0
 10
-25.2929
 20
-38.961
 30
0.0
 10
-25.2929
 20
-38.961
 30
0.0
 10
-26.3038
 20
-38.961
 30
0.0
 10
-26.3038
 20
-38.961
 30
0.0
  0
SPLINE
  5
16D
330
1F
100
AcDbEntity
  8
DATUMS
 62
   250
100
AcDbSpline
210
0.0
220
0.0
230
1.0
 70
    24
 71
     3
 72
     8
 73
     4
 74
     0
 42
0.0000000001
 43
0.0000000001
 40
0.0
 40
0.0
 40
0.0
 40
0.0
 40
1.0
 40
1.0
 40
1.0
 40
1.0
 10
-21.7544
 20
-38.961
 30
0.0
 10
-21.7544
 20
-38.961
 30
0.0
 10
-22.7653
 20
-38.961
 30
0.0
 10
-22.7653
 20
-38.961
 30
0.0
  0
SPLINE
  5
16E
330
1F
100
AcDbEntity
  8
DATUMS
 62
   250
100
AcDbSpline
210
0.0
220
0.0
230
1.0
 70
    24
 71
     3
 72
     8
 73
     4
 74
     0
 42
0.0000000001
 43
0.0000000001
 40
0.0
 40
0.0
 40
0.0
 40
0.0
 40
1.0
 40
1.0
 40
1.0
 40
1.0
 10
-28.0226
 20
-37.56
 30
0.0
 10
-28.0226
 20
-37.56
 30
0.0
 10
-28.2248
 20
-37.56
 30
0.0
 10
-28.2248
 20
-37.56
 30
0.0
  0
SPLINE
  5
16F
330
1F
100
AcDbEntity
  8
DATUMS
 62
   250
100
AcDbSpline
210
0.0
220
0.0
230
1.0
 70
     8
 71
     3
 72
     8
 73
     4
 74
     0
 42
0.0000000001
 43
0.0000000001
 40
0.0
 40
0.0
 40
0.0
 40
0.0
 40
1.0
 40
1.0
 40
1.0
 40
1.0
 10
-28.0226
 20
-39.1859
 30
0.0
 10
-28.3414
 20
-39.1546
 30
0.0
 10
-28.2248
 20
-38.5963
 30
0.0
 10
-28.2248
 20
-38.4555
 30
0.0
  0
SPLINE
  5
170
330
1F
100
AcDbEntity
  8
DATUMS
 62
   250
100
AcDbSpline
210
0.0
220
0.0
230
1.0
 70
    24
 71
     3
 72
    12
 73
     8
 74
     0
 42
0.0000000001
 43
0.0000000001
 40
0.0
 40
0.0
 40
0.0
 40
0.0
 40
0.3333333333333333
 40
0.3333333333333333
 40
0.3333333333333333
 40
0.3333333333333333
 40
1.0
 40
1.0
 40
1.0
 40
1.0
 10
-28.2248
 20
-38.4555
 30
0.0
 10
-28.2248
 20
-38.4555
 30
0.0
 10
-28.2248
 20
-38.0656
 30
0.0
 10
-28.2248
 20
-38.0656
 30
0.0
 10
-28.2248
 20
-38.0656
 30
0.0
 10
-28.2248
 20
-38.0656
 30
0.0
 10
-28.2248
 20
-37.56
 30
0.0
 10
-28.2248
 20
-37.56
 30
0.0
  0
SPLINE
  5
171
330
1F
100
AcDbEntity
  8
DATUMS
 62
   250
100
AcDbSpline
210
0.0
220
0.0
230
1.0
 70
    24
 71
     3
 72
     8
 73
     4
 74
     0
 42
0.0000000001
 43
0.0000000001
 40
0.0
 40
0.0
 40
0.0
 40
0.0
 40
1.0
 40
1.0
 40
1.0
 40
1.0
 10
4.8346
 20
-20.1313
 30
0.0
 10
4.8346
 20
-20.1313
 30
0.0
 10
-27.8203
 20
-20.1313
 30
0.0
 10
-27.8203
 20
-20.1313
 30
0.0
  0
SPLINE
  5
172
330
1F
100
AcDbEntity
  8
DATUMS
 62
   250
100
AcDbSpline
210
0.0
220
0.0
230
1.0
 70
    24
 71
     3
 72
     8
 73
     4
 74
     0
 42
0.0000000001
 43
0.0000000001
 40
0.0
 40
0.0
 40
0.0
 40
0.0
 40
1.0
 40
1.0
 40
1.0
 40
1.0
 10
-27.8203
 20
-39.9466
 30
0.0
 10
-27.8203
 20
-39.9466
 30
0.0
 10
-27.8203
 20
-20.1313
 30
0.0
 10
-27.8203
 20
-20.1313
 30
0.0
  0
SPLINE
  5
173
330
1F
100
AcDbEntity
  8
DATUMS
 62
   250
100
AcDbSpline
210
0.0
220
0.0
230
1.0
 70
    24
 71
     3
 72
     8
 73
     4
 74
     0
 42
0.0000000001
 43
0.0000000001
 40
0.0
 40
0.0
 40
0.0
 40
0.0
 40
1.0
 40
1.0
 40
1.0
 40
1.0
 10
-27.8876
 20
-20.1313
 30
0.0
 10
-27.8876
 20
-20.1313
 30
0.0
 10
-28.0226
 20
-20.1313
 30
0.0
 10
-28.0226
 20
-20.1313
 30
0.0
  0
SPLINE
  5
174
330
1F
100
AcDbEntity
  8
DATUMS
 62
   250
100
AcDbSpline
210
0.0
220
0.0
230
1.0
 70
    24
 71
     3
 72
     8
 73
     4
 74
     0
 42
0.0000000001
 43
0.0000000001
 40
0.0
 40
0.0
 40
0.0
 40
0.0
 40
1.0
 40
1.0
 40
1.0
 40
1.0
 10
4.6323
 20
-39.9466
 30
0.0
 10
4.6323
 20
-39.9466
 30
0.0
 10
4.6323
 20
-20.1313
 30
0.0
 10
4.6323
 20
-20.1313
 30
0.0
  0
SPLINE
  5
175
330
1F
100
AcDbEntity
  8
DATUMS
 62
   250
100
AcDbSpline
210
0.0
220
0.0
230
1.0
 70
    24
 71
     3
 72
     8
 73
     4
 74
     0
 42
0.0000000001
 43
0.0000000001
 40
0.0
 40
0.0
 40
0.0
 40
0.0
 40
1.0
 40
1.0
 40
1.0
 40
1.0
 10
-25.2676
 20
-39.2137
 30
0.0
 10
-25.2676
 20
-39.2137
 30
0.0
 10
-26.3292
 20
-39.2137
 30
0.0
 10
-26.3292
 20
-39.2137
 30
0.0
  0
SPLINE
  5
176
330
1F
100
AcDbEntity
  8
DATUMS
 62
   250
100
AcDbSpline
210
0.0
220
0.0
230
1.0
 70
    24
 71
     3
 72
     8
 73
     4
 74
     0
 42
0.0000000001
 43
0.0000000001
 40
0.0
 40
0.0
 40
0.0
 40
0.0
 40
1.0
 40
1.0
 40
1.0
 40
1.0
 10
-26.3292
 20
-38.961
 30
0.0
 10
-26.3292
 20
-38.961
 30
0.0
 10
-26.3292
 20
-39.2137
 30
0.0
 10
-26.3292
 20
-39.2137
 30
0.0
  0
SPLINE
  5
177
330
1F
100
AcDbEntity
  8
DATUMS
 62
   250
100
AcDbSpline
210
0.0
220
0.0
230
1.0
 70
    24
 71
     3
 72
     8
 73
     4
 74
     0
 42
0.0000000001
 43
0.0000000001
 40
0.0
 40
0.0
 40
0.0
 40
0.0
 40
1.0
 40
1.0
 40
1.0
 40
1.0
 10
-26.3292
 20
-38.961
 30
0.0
 10
-26.3292
 20
-38.961
 30
0.0
 10
-26.3038
 20
-38.961
 30
0.0
 10
-26.3038
 20
-38.961
 30
0.0
  0
SPLINE
  5
178
330
1F
100
AcDbEntity
  8
DATUMS
 62
   250
100
AcDbSpline
210
0.0
220
0.0
230
1.0
 70
    24
 71
     3
 72
     8
 73
     4
 74
     0
 42
0.0000000001
 43
0.0000000001
 40
0.0
 40
0.0
 40
0.0
 40
0.0
 40
1.0
 40
1.0
 40
1.0
 40
1.0
 10
-25.2676
 20
-38.961
 30
0.0
 10
-25.2676
 20
-38.961
 30
0.0
 10
-25.2676
 20
-39.2137
 30
0.0
 10
-25.2676
 20
-39.2137
 30
0.0
  0
SPLINE
  5
179
330
1F
100
AcDbEntity
  8
DATUMS
 62
   250
100
AcDbSpline
210
0.0
220
0.0
230
1.0
 70
    24
 71
     3
 72
     8
 73
     4
 74
     0
 42
0.0000000001
 43
0.0000000001
 40
0.0
 40
0.0
 40
0.0
 40
0.0
 40
1.0
 40
1.0
 40
1.0
 40
1.0
 10
-25.2676
 20
-38.961
 30
0.0
 10
-25.2676
 20
-38.961
 30
0.0
 10
-25.2929
 20
-38.961
 30
0.0
 10
-25.2929
 20
-38.961
 30
0.0
  0
SPLINE
  5
17A
330
1F
100
AcDbEntity
  8
DATUMS
 62
   250
100
AcDbSpline
210
0.0
220
0.0
230
1.0
 70
    24
 71
     3
 72
     8
 73
     4
 74
     0
 42
0.0000000001
 43
0.0000000001
 40
0.0
 40
0.0
 40
0.0
 40
0.0
 40
1.0
 40
1.0
 40
1.0
 40
1.0
 10
-22.7653
 20
-38.961
 30
0.0
 10
-22.7653
 20
-38.961
 30
0.0
 10
-22.7907
 20
-38.961
 30
0.0
 10
-22.7907
 20
-38.961
 30
0.0
  0
SPLINE
  5
17B
330
1F
100
AcDbEntity
  8
DATUMS
 62
   250
100
AcDbSpline
210
0.0
220
0.0
230
1.0
 70
    24
 71
     3
 72
     8
 73
     4
 74
     0
 42
0.0000000001
 43
0.0000000001
 40
0.0
 40
0.0
 40
0.0
 40
0.0
 40
1.0
 40
1.0
 40
1.0
 40
1.0
 10
-21.7292
 20
-39.2137
 30
0.0
 10
-21.7292
 20
-39.2137
 30
0.0
 10
-22.7907
 20
-39.2137
 30
0.0
 10
-22.7907
 20
-39.2137
 30
0.0
  0
SPLINE
  5
17C
330
1F
100
AcDbEntity
  8
DATUMS
 62
   250
100
AcDbSpline
210
0.0
220
0.0
230
1.0
 70
    24
 71
     3
 72
     8
 73
     4
 74
     0
 42
0.0000000001
 43
0.0000000001
 40
0.0
 40
0.0
 40
0.0
 40
0.0
 40
1.0
 40
1.0
 40
1.0
 40
1.0
 10
-22.7907
 20
-38.961
 30
0.0
 10
-22.7907
 20
-38.961
 30
0.0
 10
-22.7907
 20
-39.2137
 30
0.0
 10
-22.7907
 20
-39.2137
 30
0.0
  0
SPLINE
  5
17D
330
1F
100
AcDbEntity
  8
DATUMS
 62
   250
100
AcDbSpline
210
0.0
220
0.0
230
1.0
 70
    24
 71
     3
 72
     8
 73
     4
 74
     0
 42
0.0000000001
 43
0.0000000001
 40
0.0
 40
0.0
 40
0.0
 40
0.0
 40
1.0
 40
1.0
 40
1.0
 40
1.0
 10
-21.7292
 20
-38.961
 30
0.0
 10
-21.7292
 20
-38.961
 30
0.0
 10
-21.7292
 20
-39.2137
 30
0.0
 10
-21.7292
 20
-39.2137
 30
0.0
  0
SPLINE
  5
17E
330
1F
100
AcDbEntity
  8
DATUMS
 62
   250
100
AcDbSpline
210
0.0
220
0.0
230
1.0
 70
    24
 71
     3
 72
     8
 73
     4
 74
     0
 42
0.0000000001
 43
0.0000000001
 40
0.0
 40
0.0
 40
0.0
 40
0.0
 40
1.0
 40
1.0
 40
1.0
 40
1.0
 10
-21.7292
 20
-38.961
 30
0.0
 10
-21.7292
 20
-38.961
 30
0.0
 10
-21.7544
 20
-38.961
 30
0.0
 10
-21.7544
 20
-38.961
 30
0.0
  0
SPLINE
  5
17F
330
1F
100
AcDbEntity
  8
DATUMS
 62
   250
100
AcDbSpline
210
0.0
220
0.0
230
1.0
 70
    24
 71
     3
 72
     8
 73
     4
 74
     0
 42
0.0000000001
 43
0.0000000001
 40
0.0
 40
0.0
 40
0.0
 40
0.0
 40
1.0
 40
1.0
 40
1.0
 40
1.0
 10
-1.4589
 20
-38.961
 30
0.0
 10
-1.4589
 20
-38.961
 30
0.0
 10
-1.4589
 20
-39.2137
 30
0.0
 10
-1.4589
 20
-39.2137
 30
0.0
  0
SPLINE
  5
180
330
1F
100
AcDbEntity
  8
DATUMS
 62
   250
100
AcDbSpline
210
0.0
220
0.0
230
1.0
 70
    24
 71
     3
 72
     8
 73
     4
 74
     0
 42
0.0000000001
 43
0.0000000001
 40
0.0
 40
0.0
 40
0.0
 40
0.0
 40
1.0
 40
1.0
 40
1.0
 40
1.0
 10
-0.3973
 20
-39.2137
 30
0.0
 10
-0.3973
 20
-39.2137
 30
0.0
 10
-1.4589
 20
-39.2137
 30
0.0
 10
-1.4589
 20
-39.2137
 30
0.0
  0
SPLINE
  5
181
330
1F
100
AcDbEntity
  8
DATUMS
 62
   250
100
AcDbSpline
210
0.0
220
0.0
230
1.0
 70
    24
 71
     3
 72
     8
 73
     4
 74
     0
 42
0.0000000001
 43
0.0000000001
 40
0.0
 40
0.0
 40
0.0
 40
0.0
 40
1.0
 40
1.0
 40
1.0
 40
1.0
 10
-1.4336
 20
-38.961
 30
0.0
 10
-1.4336
 20
-38.961
 30
0.0
 10
-1.4589
 20
-38.961
 30
0.0
 10
-1.4589
 20
-38.961
 30
0.0
  0
SPLINE
  5
182
330
1F
100
AcDbEntity
  8
DATUMS
 62
   250
100
AcDbSpline
210
0.0
220
0.0
230
1.0
 70
    24
 71
     3
 72
     8
 73
     4
 74
     0
 42
0.0000000001
 43
0.0000000001
 40
0.0
 40
0.0
 40
0.0
 40
0.0
 40
1.0
 40
1.0
 40
1.0
 40
1.0
 10
-0.3973
 20
-38.961
 30
0.0
 10
-0.3973
 20
-38.961
 30
0.0
 10
-0.3973
 20
-39.2137
 30
0.0
 10
-0.3973
 20
-39.2137
 30
0.0
  0
SPLINE
  5
183
330
1F
100
AcDbEntity
  8
DATUMS
 62
   250
100
AcDbSpline
210
0.0
220
0.0
230
1.0
 70
    24
 71
     3
 72
     8
 73
     4
 74
     0
 42
0.0000000001
 43
0.0000000001
 40
0.0
 40
0.0
 40
0.0
 40
0.0
 40
1.0
 40
1.0
 40
1.0
 40
1.0
 10
-0.3973
 20
-38.961
 30
0.0
 10
-0.3973
 20
-38.961
 30
0.0
 10
-0.4226
 20
-38.961
 30
0.0
 10
-0.4226
 20
-38.961
 30
0.0
  0
SPLINE
  5
184
330
1F
100
AcDbEntity
  8
DATUMS
 62
   250
100
AcDbSpline
210
0.0
220
0.0
230
1.0
 70
    24
 71
     3
 72
     8
 73
     4
 74
     0
 42
0.0000000001
 43
0.0000000001
 40
0.0
 40
0.0
 40
0.0
 40
0.0
 40
1.0
 40
1.0
 40
1.0
 40
1.0
 10
3.1412
 20
-39.2137
 30
0.0
 10
3.1412
 20
-39.2137
 30
0.0
 10
2.0795
 20
-39.2137
 30
0.0
 10
2.0795
 20
-39.2137
 30
0.0
  0
SPLINE
  5
185
330
1F
100
AcDbEntity
  8
DATUMS
 62
   250
100
AcDbSpline
210
0.0
220
0.0
230
1.0
 70
    24
 71
     3
 72
     8
 73
     4
 74
     0
 42
0.0000000001
 43
0.0000000001
 40
0.0
 40
0.0
 40
0.0
 40
0.0
 40
1.0
 40
1.0
 40
1.0
 40
1.0
 10
2.0795
 20
-38.961
 30
0.0
 10
2.0795
 20
-38.961
 30
0.0
 10
2.1049
 20
-38.961
 30
0.0
 10
2.1049
 20
-38.961
 30
0.0
  0
SPLINE
  5
186
330
1F
100
AcDbEntity
  8
DATUMS
 62
   250
100
AcDbSpline
210
0.0
220
0.0
230
1.0
 70
    24
 71
     3
 72
     8
 73
     4
 74
     0
 42
0.0000000001
 43
0.0000000001
 40
0.0
 40
0.0
 40
0.0
 40
0.0
 40
1.0
 40
1.0
 40
1.0
 40
1.0
 10
2.0795
 20
-38.961
 30
0.0
 10
2.0795
 20
-38.961
 30
0.0
 10
2.0795
 20
-39.2137
 30
0.0
 10
2.0795
 20
-39.2137
 30
0.0
  0
SPLINE
  5
187
330
1F
100
AcDbEntity
  8
DATUMS
 62
   250
100
AcDbSpline
210
0.0
220
0.0
230
1.0
 70
    24
 71
     3
 72
     8
 73
     4
 74
     0
 42
0.0000000001
 43
0.0000000001
 40
0.0
 40
0.0
 40
0.0
 40
0.0
 40
1.0
 40
1.0
 40
1.0
 40
1.0
 10
3.1412
 20
-38.961
 30
0.0
 10
3.1412
 20
-38.961
 30
0.0
 10
3.1412
 20
-39.2137
 30
0.0
 10
3.1412
 20
-39.2137
 30
0.0
  0
SPLINE
  5
188
330
1F
100
AcDbEntity
  8
DATUMS
 62
   250
100
AcDbSpline
210
0.0
220
0.0
230
1.0
 70
    24
 71
     3
 72
     8
 73
     4
 74
     0
 42
0.0000000001
 43
0.0000000001
 40
0.0
 40
0.0
 40
0.0
 40
0.0
 40
1.0
 40
1.0
 40
1.0
 40
1.0
 10
3.1412
 20
-38.961
 30
0.0
 10
3.1412
 20
-38.961
 30
0.0
 10
3.1159
 20
-38.961
 30
0.0
 10
3.1159
 20
-38.961
 30
0.0
  0
SPLINE
  5
189
330
1F
100
AcDbEntity
  8
DATUMS
 62
   250
100
AcDbSpline
210
0.0
220
0.0
230
1.0
 70
    24
 71
     3
 72
    12
 73
     8
 74
     0
 42
0.0000000001
 43
0.0000000001
 40
0.0
 40
0.0
 40
0.0
 40
0.0
 40
0.3333333333333333
 40
0.3333333333333333
 40
0.3333333333333333
 40
0.3333333333333333
 40
1.0
 40
1.0
 40
1.0
 40
1.0
 10
-28.0226
 20
-39.9466
 30
0.0
 10
-28.0226
 20
-39.9466
 30
0.0
 10
-28.0226
 20
-39.4412
 30
0.0
 10
-28.0226
 20
-39.4412
 30
0.0
 10
-28.0226
 20
-39.4412
 30
0.0
 10
-28.0226
 20
-39.4412
 30
0.0
 10
-28.0226
 20
-20.6368
 30
0.0
 10
-28.0226
 20
-20.6368
 30
0.0
  0
SPLINE
  5
18A
330
1F
100
AcDbEntity
  8
DATUMS
 62
   250
100
AcDbSpline
210
0.0
220
0.0
230
1.0
 70
     8
 71
     3
 72
    12
 73
     8
 74
     0
 42
0.0000000001
 43
0.0000000001
 40
0.0
 40
0.0
 40
0.0
 40
0.0
 40
0.3333333333333333
 40
0.3333333333333333
 40
0.3333333333333333
 40
0.3333333333333333
 40
1.0
 40
1.0
 40
1.0
 40
1.0
 10
-28.0226
 20
-20.6368
 30
0.0
 10
-28.0226
 20
-20.3773
 30
0.0
 10
-28.1116
 20
-19.9678
 30
0.0
 10
-27.8369
 20
-19.7912
 30
0.0
 10
-27.8369
 20
-19.7912
 30
0.0
 10
-27.6434
 20
-19.6667
 30
0.0
 10
-27.2812
 20
-19.7269
 30
0.0
 10
-27.1127
 20
-19.7269
 30
0.0
  0
SPLINE
  5
18B
330
1F
100
AcDbEntity
  8
DATUMS
 62
   250
100
AcDbSpline
210
0.0
220
0.0
230
1.0
 70
    24
 71
     3
 72
     8
 73
     4
 74
     0
 42
0.0000000001
 43
0.0000000001
 40
0.0
 40
0.0
 40
0.0
 40
0.0
 40
1.0
 40
1.0
 40
1.0
 40
1.0
 10
-27.1127
 20
-19.7269
 30
0.0
 10
-27.1127
 20
-19.7269
 30
0.0
 10
3.9246
 20
-19.7269
 30
0.0
 10
3.9246
 20
-19.7269
 30
0.0
  0
SPLINE
  5
18C
330
1F
100
AcDbEntity
  8
DATUMS
 62
   250
100
AcDbSpline
210
0.0
220
0.0
230
1.0
 70
     8
 71
     3
 72
    12
 73
     8
 74
     0
 42
0.0000000001
 43
0.0000000001
 40
0.0
 40
0.0
 40
0.0
 40
0.0
 40
0.3333333333333333
 40
0.3333333333333333
 40
0.3333333333333333
 40
0.3333333333333333
 40
1.0
 40
1.0
 40
1.0
 40
1.0
 10
3.9246
 20
-19.7269
 30
0.0
 10
4.1841
 20
-19.7269
 30
0.0
 10
4.5937
 20
-19.6379
 30
0.0
 10
4.7703
 20
-19.9127
 30
0.0
 10
4.7703
 20
-19.9127
 30
0.0
 10
4.8946
 20
-20.1062
 30
0.0
 10
4.8346
 20
-20.4683
 30
0.0
 10
4.8346
 20
-20.6368
 30
0.0
  0
SPLINE
  5
18D
330
1F
100
AcDbEntity
  8
DATUMS
 62
   250
100
AcDbSpline
210
0.0
220
0.0
230
1.0
 70
    24
 71
     3
 72
    12
 73
     8
 74
     0
 42
0.0000000001
 43
0.0000000001
 40
0.0
 40
0.0
 40
0.0
 40
0.0
 40
0.3333333333333333
 40
0.3333333333333333
 40
0.3333333333333333
 40
0.3333333333333333
 40
1.0
 40
1.0
 40
1.0
 40
1.0
 10
4.8346
 20
-20.6368
 30
0.0
 10
4.8346
 20
-20.6368
 30
0.0
 10
4.8346
 20
-39.4412
 30
0.0
 10
4.8346
 20
-39.4412
 30
0.0
 10
4.8346
 20
-39.4412
 30
0.0
 10
4.8346
 20
-39.4412
 30
0.0
 10
4.8346
 20
-39.9466
 30
0.0
 10
4.8346
 20
-39.9466
 30
0.0
  0
SPLINE
  5
18E
330
1F
100
AcDbEntity
  8
DATUMS
 62
   250
100
AcDbSpline
210
0.0
220
0.0
230
1.0
 70
     8
 71
     3
 72
    12
 73
     8
 74
     0
 42
0.0000000001
 43
0.0000000001
 40
0.0
 40
0.0
 40
0.0
 40
0.0
 40
0.3333333333333333
 40
0.3333333333333333
 40
0.3333333333333333
 40
0.3333333333333333
 40
1.0
 40
1.0
 40
1.0
 40
1.0
 10
-27.6182
 20
-19.7269
 30
0.0
 10
-27.6612
 20
-19.7358
 30
0.0
 10
-27.6832
 20
-19.7737
 30
0.0
 10
-27.7024
 20
-19.8106
 30
0.0
 10
-27.7024
 20
-19.8106
 30
0.0
 10
-27.7552
 20
-19.911
 30
0.0
 10
-27.786
 20
-20.0237
 30
0.0
 10
-27.8203
 20
-20.1313
 30
0.0
  0
SPLINE
  5
18F
330
1F
100
AcDbEntity
  8
DATUMS
 62
   250
100
AcDbSpline
210
0.0
220
0.0
230
1.0
 70
     8
 71
     3
 72
    12
 73
     8
 74
     0
 42
0.0000000001
 43
0.0000000001
 40
0.0
 40
0.0
 40
0.0
 40
0.0
 40
0.3333333333333333
 40
0.3333333333333333
 40
0.3333333333333333
 40
0.3333333333333333
 40
1.0
 40
1.0
 40
1.0
 40
1.0
 10
4.6323
 20
-20.1313
 30
0.0
 10
4.598
 20
-20.0236
 30
0.0
 10
4.5671
 20
-19.911
 30
0.0
 10
4.5144
 20
-19.8106
 30
0.0
 10
4.5144
 20
-19.8106
 30
0.0
 10
4.4951
 20
-19.7737
 30
0.0
 10
4.473
 20
-19.7358
 30
0.0
 10
4.4301
 20
-19.7269
 30
0.0
  0
SPLINE
  5
190
330
1F
100
AcDbEntity
  8
DATUMS
 62
   250
100
AcDbSpline
210
0.0
220
0.0
230
1.0
 70
     8
 71
     3
 72
     8
 73
     4
 74
     0
 42
0.0000000001
 43
0.0000000001
 40
0.0
 40
0.0
 40
0.0
 40
0.0
 40
1.0
 40
1.0
 40
1.0
 40
1.0
 10
-13.5817
 20
-28.2393
 30
0.0
 10
-13.9077
 20
-27.8996
 30
0.0
 10
-14.1377
 20
-27.5015
 30
0.0
 10
-14.2687
 20
-27.0493
 30
0.0
  0
SPLINE
  5
191
330
1F
100
AcDbEntity
  8
DATUMS
 62
   250
100
AcDbSpline
210
0.0
220
0.0
230
1.0
 70
     8
 71
     3
 72
     8
 73
     4
 74
     0
 42
0.0000000001
 43
0.0000000001
 40
0.0
 40
0.0
 40
0.0
 40
0.0
 40
1.0
 40
1.0
 40
1.0
 40
1.0
 10
-13.5817
 20
-24.3574
 30
0.0
 10
-13.9077
 20
-24.6971
 30
0.0
 10
-14.1377
 20
-25.0952
 30
0.0
 10
-14.2687
 20
-25.5474
 30
0.0
  0
SPLINE
  5
192
330
1F
100
AcDbEntity
  8
DATUMS
 62
   250
100
AcDbSpline
210
0.0
220
0.0
230
1.0
 70
     8
 71
     3
 72
    12
 73
     8
 74
     0
 42
0.0000000001
 43
0.0000000001
 40
0.0
 40
0.0
 40
0.0
 40
0.0
 40
0.3333333333333333
 40
0.3333333333333333
 40
0.3333333333333333
 40
0.3333333333333333
 40
1.0
 40
1.0
 40
1.0
 40
1.0
 10
-10.9069
 20
-28.9901
 30
0.0
 10
-11.0984
 20
-29.0374
 30
0.0
 10
-11.2855
 20
-29.0604
 30
0.0
 10
-11.482
 20
-29.0763
 30
0.0
 10
-11.482
 20
-29.0763
 30
0.0
 10
-11.756
 20
-29.0763
 30
0.0
 10
-12.0145
 20
-29.0558
 30
0.0
 10
-12.2811
 20
-28.9901
 30
0.0
  0
SPLINE
  5
193
330
1F
100
AcDbEntity
  8
DATUMS
 62
   250
100
AcDbSpline
210
0.0
220
0.0
230
1.0
 70
     8
 71
     3
 72
    12
 73
     8
 74
     0
 42
0.0000000001
 43
0.0000000001
 40
0.0
 40
0.0
 40
0.0
 40
0.0
 40
0.3333333333333333
 40
0.3333333333333333
 40
0.3333333333333333
 40
0.3333333333333333
 40
1.0
 40
1.0
 40
1.0
 40
1.0
 10
-10.9069
 20
-23.6065
 30
0.0
 10
-11.1735
 20
-23.541
 30
0.0
 10
-11.4321
 20
-23.5205
 30
0.0
 10
-11.706
 20
-23.5205
 30
0.0
 10
-11.706
 20
-23.5205
 30
0.0
 10
-11.9026
 20
-23.5363
 30
0.0
 10
-12.0895
 20
-23.5593
 30
0.0
 10
-12.2811
 20
-23.6065
 30
0.0
  0
SPLINE
  5
194
330
1F
100
AcDbEntity
  8
DATUMS
 62
   250
100
AcDbSpline
210
0.0
220
0.0
230
1.0
 70
     8
 71
     3
 72
     8
 73
     4
 74
     0
 42
0.0000000001
 43
0.0000000001
 40
0.0
 40
0.0
 40
0.0
 40
0.0
 40
1.0
 40
1.0
 40
1.0
 40
1.0
 10
-8.9193
 20
-27.0493
 30
0.0
 10
-9.0504
 20
-27.5015
 30
0.0
 10
-9.2803
 20
-27.8996
 30
0.0
 10
-9.6064
 20
-28.2393
 30
0.0
  0
SPLINE
  5
195
330
1F
100
AcDbEntity
  8
DATUMS
 62
   250
100
AcDbSpline
210
0.0
220
0.0
230
1.0
 70
     8
 71
     3
 72
     8
 73
     4
 74
     0
 42
0.0000000001
 43
0.0000000001
 40
0.0
 40
0.0
 40
0.0
 40
0.0
 40
1.0
 40
1.0
 40
1.0
 40
1.0
 10
-8.9193
 20
-25.5474
 30
0.0
 10
-9.0504
 20
-25.0952
 30
0.0
 10
-9.2803
 20
-24.6971
 30
0.0
 10
-9.6064
 20
-24.3574
 30
0.0
  0
SPLINE
  5
196
330
1F
100
AcDbEntity
  8
DATUMS
 62
   250
100
AcDbSpline
210
0.0
220
0.0
230
1.0
 70
    24
 71
     3
 72
     8
 73
     4
 74
     0
 42
0.0000000001
 43
0.0000000001
 40
0.0
 40
0.0
 40
0.0
 40
0.0
 40
1.0
 40
1.0
 40
1.0
 40
1.0
 10
-14.057
 20
34.2032
 30
0.0
 10
-14.057
 20
34.2032
 30
0.0
 10
-8.893
 20
34.3163
 30
0.0
 10
-8.893
 20
34.3163
 30
0.0
  0
SPLINE
  5
197
330
1F
100
AcDbEntity
  8
DATUMS
 62
   250
100
AcDbSpline
210
0.0
220
0.0
230
1.0
 70
    24
 71
     3
 72
     8
 73
     4
 74
     0
 42
0.0000000001
 43
0.0000000001
 40
0.0
 40
0.0
 40
0.0
 40
0.0
 40
1.0
 40
1.0
 40
1.0
 40
1.0
 10
-14.0571
 20
34.6807
 30
0.0
 10
-14.0571
 20
34.6807
 30
0.0
 10
-8.8931
 20
34.7937
 30
0.0
 10
-8.8931
 20
34.7937
 30
0.0
  0
SPLINE
  5
198
330
1F
100
AcDbEntity
  8
DATUMS
 62
   250
100
AcDbSpline
210
0.0
220
0.0
230
1.0
 70
    24
 71
     3
 72
     8
 73
     4
 74
     0
 42
0.0000000001
 43
0.0000000001
 40
0.0
 40
0.0
 40
0.0
 40
0.0
 40
1.0
 40
1.0
 40
1.0
 40
1.0
 10
-14.0571
 20
35.1581
 30
0.0
 10
-14.0571
 20
35.1581
 30
0.0
 10
-8.8932
 20
35.2712
 30
0.0
 10
-8.8932
 20
35.2712
 30
0.0
  0
SPLINE
  5
199
330
1F
100
AcDbEntity
  8
DATUMS
 62
   250
100
AcDbSpline
210
0.0
220
0.0
230
1.0
 70
    24
 71
     3
 72
     8
 73
     4
 74
     0
 42
0.0000000001
 43
0.0000000001
 40
0.0
 40
0.0
 40
0.0
 40
0.0
 40
1.0
 40
1.0
 40
1.0
 40
1.0
 10
-14.0572
 20
35.6356
 30
0.0
 10
-14.0572
 20
35.6356
 30
0.0
 10
-8.8932
 20
35.7486
 30
0.0
 10
-8.8932
 20
35.7486
 30
0.0
  0
SPLINE
  5
19A
330
1F
100
AcDbEntity
  8
DATUMS
 62
   250
100
AcDbSpline
210
0.0
220
0.0
230
1.0
 70
     8
 71
     3
 72
    16
 73
    12
 74
     0
 42
0.0000000001
 43
0.0000000001
 40
0.0
 40
0.0
 40
0.0
 40
0.0
 40
0.25
 40
0.25
 40
0.25
 40
0.25
 40
0.5
 40
0.5
 40
0.5
 40
0.5
 40
1.0
 40
1.0
 40
1.0
 40
1.0
 10
-25.9789
 20
28.4526
 30
0.0
 10
-25.9728
 20
28.5788
 30
0.0
 10
-25.9613
 20
28.698
 30
0.0
 10
-25.9246
 20
28.8195
 30
0.0
 10
-25.9246
 20
28.8195
 30
0.0
 10
-25.8031
 20
29.2198
 30
0.0
 10
-25.4824
 20
29.5405
 30
0.0
 10
-25.0821
 20
29.662
 30
0.0
 10
-25.0821
 20
29.662
 30
0.0
 10
-24.8029
 20
29.7467
 30
0.0
 10
-24.4937
 20
29.7163
 30
0.0
 10
-24.2097
 20
29.7163
 30
0.0
  0
SPLINE
  5
19B
330
1F
100
AcDbEntity
  8
DATUMS
 62
   250
100
AcDbSpline
210
0.0
220
0.0
230
1.0
 70
     8
 71
     3
 72
    16
 73
    12
 74
     0
 42
0.0000000001
 43
0.0000000001
 40
0.0
 40
0.0
 40
0.0
 40
0.0
 40
0.25
 40
0.25
 40
0.25
 40
0.25
 40
0.5
 40
0.5
 40
0.5
 40
0.5
 40
1.0
 40
1.0
 40
1.0
 40
1.0
 10
-24.2097
 20
29.7163
 30
0.0
 10
-24.2097
 20
29.7163
 30
0.0
 10
1.2418
 20
29.7163
 30
0.0
 10
1.2418
 20
29.7163
 30
0.0
 10
1.2418
 20
29.7163
 30
0.0
 10
1.2418
 20
29.7163
 30
0.0
 10
1.7475
 20
29.7163
 30
0.0
 10
1.7475
 20
29.7163
 30
0.0
 10
1.7475
 20
29.7163
 30
0.0
 10
1.7475
 20
29.7163
 30
0.0
 10
1.8713
 20
29.7103
 30
0.0
 10
1.8713
 20
29.7103
 30
0.0
  0
SPLINE
  5
19C
330
1F
100
AcDbEntity
  8
DATUMS
 62
   250
100
AcDbSpline
210
0.0
220
0.0
230
1.0
 70
     8
 71
     3
 72
    12
 73
     8
 74
     0
 42
0.0000000001
 43
0.0000000001
 40
0.0
 40
0.0
 40
0.0
 40
0.0
 40
0.3333333333333333
 40
0.3333333333333333
 40
0.3333333333333333
 40
0.3333333333333333
 40
1.0
 40
1.0
 40
1.0
 40
1.0
 10
1.8713
 20
29.7103
 30
0.0
 10
2.1605
 20
29.6819
 30
0.0
 10
2.4355
 20
29.5517
 30
0.0
 10
2.6411
 20
29.3462
 30
0.0
 10
2.6411
 20
29.3462
 30
0.0
 10
2.8464
 20
29.1408
 30
0.0
 10
2.9765
 20
28.8657
 30
0.0
 10
3.005
 20
28.5765
 30
0.0
  0
SPLINE
  5
19D
330
1F
100
AcDbEntity
  8
DATUMS
 62
   250
100
AcDbSpline
210
0.0
220
0.0
230
1.0
 70
     8
 71
     3
 72
    16
 73
    12
 74
     0
 42
0.0000000001
 43
0.0000000001
 40
0.0
 40
0.0
 40
0.0
 40
0.0
 40
0.25
 40
0.25
 40
0.25
 40
0.25
 40
0.5
 40
0.5
 40
0.5
 40
0.5
 40
1.0
 40
1.0
 40
1.0
 40
1.0
 10
3.005
 20
28.5765
 30
0.0
 10
3.005
 20
28.5765
 30
0.0
 10
3.0112
 20
28.4526
 30
0.0
 10
3.0112
 20
28.4526
 30
0.0
 10
3.0112
 20
28.4526
 30
0.0
 10
3.0112
 20
28.4526
 30
0.0
 10
3.0112
 20
27.9472
 30
0.0
 10
3.0112
 20
27.9472
 30
0.0
 10
3.0112
 20
27.9472
 30
0.0
 10
3.0112
 20
27.9472
 30
0.0
 10
3.0112
 20
-0.0318
 30
0.0
 10
3.0112
 20
-0.0318
 30
0.0
  0
SPLINE
  5
19E
330
1F
100
AcDbEntity
  8
DATUMS
 62
   250
100
AcDbSpline
210
0.0
220
0.0
230
1.0
 70
     8
 71
     3
 72
    16
 73
    12
 74
     0
 42
0.0000000001
 43
0.0000000001
 40
0.0
 40
0.0
 40
0.0
 40
0.0
 40
0.25
 40
0.25
 40
0.25
 40
0.25
 40
0.5
 40
0.5
 40
0.5
 40
0.5
 40
1.0
 40
1.0
 40
1.0
 40
1.0
 10
3.0112
 20
-0.0318
 30
0.0
 10
3.0112
 20
-0.3158
 30
0.0
 10
3.0414
 20
-0.6249
 30
0.0
 10
2.9568
 20
-0.9042
 30
0.0
 10
2.9568
 20
-0.9042
 30
0.0
 10
2.8353
 20
-1.3045
 30
0.0
 10
2.5146
 20
-1.6252
 30
0.0
 10
2.1142
 20
-1.7467
 30
0.0
 10
2.1142
 20
-1.7467
 30
0.0
 10
1.9927
 20
-1.7836
 30
0.0
 10
1.8735
 20
-1.7949
 30
0.0
 10
1.7475
 20
-1.8011
 30
0.0
  0
SPLINE
  5
19F
330
1F
100
AcDbEntity
  8
DATUMS
 62
   250
100
AcDbSpline
210
0.0
220
0.0
230
1.0
 70
    24
 71
     3
 72
    12
 73
     8
 74
     0
 42
0.0000000001
 43
0.0000000001
 40
0.0
 40
0.0
 40
0.0
 40
0.0
 40
0.3333333333333333
 40
0.3333333333333333
 40
0.3333333333333333
 40
0.3333333333333333
 40
1.0
 40
1.0
 40
1.0
 40
1.0
 10
1.7475
 20
-1.8011
 30
0.0
 10
1.7475
 20
-1.8011
 30
0.0
 10
1.2418
 20
-1.8011
 30
0.0
 10
1.2418
 20
-1.8011
 30
0.0
 10
1.2418
 20
-1.8011
 30
0.0
 10
1.2418
 20
-1.8011
 30
0.0
 10
-24.2097
 20
-1.8011
 30
0.0
 10
-24.2097
 20
-1.8011
 30
0.0
  0
SPLINE
  5
1A0
330
1F
100
AcDbEntity
  8
DATUMS
 62
   250
100
AcDbSpline
210
0.0
220
0.0
230
1.0
 70
     8
 71
     3
 72
    16
 73
    12
 74
     0
 42
0.0000000001
 43
0.0000000001
 40
0.0
 40
0.0
 40
0.0
 40
0.0
 40
0.25
 40
0.25
 40
0.25
 40
0.25
 40
0.5
 40
0.5
 40
0.5
 40
0.5
 40
1.0
 40
1.0
 40
1.0
 40
1.0
 10
-24.2097
 20
-1.8011
 30
0.0
 10
-24.4411
 20
-1.8011
 30
0.0
 10
-24.722
 20
-1.8245
 30
0.0
 10
-24.9618
 20
-1.7769
 30
0.0
 10
-24.9618
 20
-1.7769
 30
0.0
 10
-25.4577
 20
-1.6781
 30
0.0
 10
-25.856
 20
-1.2799
 30
0.0
 10
-25.9547
 20
-0.7839
 30
0.0
 10
-25.9547
 20
-0.7839
 30
0.0
 10
-26.0024
 20
-0.544
 30
0.0
 10
-25.9789
 20
-0.2631
 30
0.0
 10
-25.9789
 20
-0.0318
 30
0.0
  0
SPLINE
  5
1A1
330
1F
100
AcDbEntity
  8
DATUMS
 62
   250
100
AcDbSpline
210
0.0
220
0.0
230
1.0
 70
    24
 71
     3
 72
    12
 73
     8
 74
     0
 42
0.0000000001
 43
0.0000000001
 40
0.0
 40
0.0
 40
0.0
 40
0.0
 40
0.3333333333333333
 40
0.3333333333333333
 40
0.3333333333333333
 40
0.3333333333333333
 40
1.0
 40
1.0
 40
1.0
 40
1.0
 10
-25.9789
 20
-0.0318
 30
0.0
 10
-25.9789
 20
-0.0318
 30
0.0
 10
-25.9789
 20
27.9472
 30
0.0
 10
-25.9789
 20
27.9472
 30
0.0
 10
-25.9789
 20
27.9472
 30
0.0
 10
-25.9789
 20
27.9472
 30
0.0
 10
-25.9789
 20
28.4526
 30
0.0
 10
-25.9789
 20
28.4526
 30
0.0
  0
SPLINE
  5
1A2
330
1F
100
AcDbEntity
  8
DATUMS
 62
   250
100
AcDbSpline
210
0.0
220
0.0
230
1.0
 70
    24
 71
     3
 72
    12
 73
     8
 74
     0
 42
0.0000000001
 43
0.0000000001
 40
0.0
 40
0.0
 40
0.0
 40
0.0
 40
0.3333333333333333
 40
0.3333333333333333
 40
0.3333333333333333
 40
0.3333333333333333
 40
1.0
 40
1.0
 40
1.0
 40
1.0
 10
-15.313
 20
21.578
 30
0.0
 10
-15.313
 20
21.578
 30
0.0
 10
-15.313
 20
21.0725
 30
0.0
 10
-15.313
 20
21.0725
 30
0.0
 10
-15.313
 20
21.0725
 30
0.0
 10
-15.313
 20
21.0725
 30
0.0
 10
-15.313
 20
17.4538
 30
0.0
 10
-15.313
 20
17.4538
 30
0.0
  0
SPLINE
  5
1A3
330
1F
100
AcDbEntity
  8
DATUMS
 62
   250
100
AcDbSpline
210
0.0
220
0.0
230
1.0
 70
     8
 71
     3
 72
     8
 73
     4
 74
     0
 42
0.0000000001
 43
0.0000000001
 40
0.0
 40
0.0
 40
0.0
 40
0.0
 40
1.0
 40
1.0
 40
1.0
 40
1.0
 10
-15.313
 20
17.4538
 30
0.0
 10
-15.313
 20
17.2767
 30
0.0
 10
-15.4282
 20
16.6974
 30
0.0
 10
-15.0603
 20
16.6956
 30
0.0
  0
SPLINE
  5
1A4
330
1F
100
AcDbEntity
  8
DATUMS
 62
   250
100
AcDbSpline
210
0.0
220
0.0
230
1.0
 70
    24
 71
     3
 72
    12
 73
     8
 74
     0
 42
0.0000000001
 43
0.0000000001
 40
0.0
 40
0.0
 40
0.0
 40
0.0
 40
0.3333333333333333
 40
0.3333333333333333
 40
0.3333333333333333
 40
0.3333333333333333
 40
1.0
 40
1.0
 40
1.0
 40
1.0
 10
-15.0603
 20
16.6956
 30
0.0
 10
-15.0603
 20
16.6956
 30
0.0
 10
-14.5548
 20
16.6956
 30
0.0
 10
-14.5548
 20
16.6956
 30
0.0
 10
-14.5548
 20
16.6956
 30
0.0
 10
-14.5548
 20
16.6956
 30
0.0
 10
-8.4131
 20
16.6956
 30
0.0
 10
-8.4131
 20
16.6956
 30
0.0
  0
SPLINE
  5
1A5
330
1F
100
AcDbEntity
  8
DATUMS
 62
   250
100
AcDbSpline
210
0.0
220
0.0
230
1.0
 70
     8
 71
     3
 72
    12
 73
     8
 74
     0
 42
0.0000000001
 43
0.0000000001
 40
0.0
 40
0.0
 40
0.0
 40
0.0
 40
0.3333333333333333
 40
0.3333333333333333
 40
0.3333333333333333
 40
0.3333333333333333
 40
1.0
 40
1.0
 40
1.0
 40
1.0
 10
-8.4131
 20
16.6956
 30
0.0
 10
-8.2932
 20
16.6956
 30
0.0
 10
-7.8654
 20
16.6109
 30
0.0
 10
-7.7165
 20
16.7828
 30
0.0
 10
-7.7165
 20
16.7828
 30
0.0
 10
-7.5816
 20
16.9385
 30
0.0
 10
-7.6547
 20
17.3657
 30
0.0
 10
-7.6547
 20
17.4538
 30
0.0
  0
SPLINE
  5
1A6
330
1F
100
AcDbEntity
  8
DATUMS
 62
   250
100
AcDbSpline
210
0.0
220
0.0
230
1.0
 70
    24
 71
     3
 72
     8
 73
     4
 74
     0
 42
0.0000000001
 43
0.0000000001
 40
0.0
 40
0.0
 40
0.0
 40
0.0
 40
1.0
 40
1.0
 40
1.0
 40
1.0
 10
-7.6547
 20
17.4538
 30
0.0
 10
-7.6547
 20
17.4538
 30
0.0
 10
-7.6547
 20
21.0725
 30
0.0
 10
-7.6547
 20
21.0725
 30
0.0
  0
SPLINE
  5
1A7
330
1F
100
AcDbEntity
  8
DATUMS
 62
   250
100
AcDbSpline
210
0.0
220
0.0
230
1.0
 70
     8
 71
     3
 72
    12
 73
     8
 74
     0
 42
0.0000000001
 43
0.0000000001
 40
0.0
 40
0.0
 40
0.0
 40
0.0
 40
0.3333333333333333
 40
0.3333333333333333
 40
0.3333333333333333
 40
0.3333333333333333
 40
1.0
 40
1.0
 40
1.0
 40
1.0
 10
-7.6547
 20
21.0725
 30
0.0
 10
-7.6547
 20
21.2426
 30
0.0
 10
-7.5448
 20
21.7349
 30
0.0
 10
-7.8363
 20
21.8205
 30
0.0
 10
-7.8363
 20
21.8205
 30
0.0
 10
-7.8599
 20
21.8273
 30
0.0
 10
-7.883
 20
21.8306
 30
0.0
 10
-7.9075
 20
21.8308
 30
0.0
  0
SPLINE
  5
1A8
330
1F
100
AcDbEntity
  8
DATUMS
 62
   250
100
AcDbSpline
210
0.0
220
0.0
230
1.0
 70
    24
 71
     3
 72
    16
 73
    12
 74
     0
 42
0.0000000001
 43
0.0000000001
 40
0.0
 40
0.0
 40
0.0
 40
0.0
 40
0.25
 40
0.25
 40
0.25
 40
0.25
 40
0.5
 40
0.5
 40
0.5
 40
0.5
 40
1.0
 40
1.0
 40
1.0
 40
1.0
 10
-7.9075
 20
21.8308
 30
0.0
 10
-7.9075
 20
21.8308
 30
0.0
 10
-8.4131
 20
21.8308
 30
0.0
 10
-8.4131
 20
21.8308
 30
0.0
 10
-8.4131
 20
21.8308
 30
0.0
 10
-8.4131
 20
21.8308
 30
0.0
 10
-14.5548
 20
21.8308
 30
0.0
 10
-14.5548
 20
21.8308
 30
0.0
 10
-14.5548
 20
21.8308
 30
0.0
 10
-14.5548
 20
21.8308
 30
0.0
 10
-15.0603
 20
21.8308
 30
0.0
 10
-15.0603
 20
21.8308
 30
0.0
  0
SPLINE
  5
1A9
330
1F
100
AcDbEntity
  8
DATUMS
 62
   250
100
AcDbSpline
210
0.0
220
0.0
230
1.0
 70
     8
 71
     3
 72
     8
 73
     4
 74
     0
 42
0.0000000001
 43
0.0000000001
 40
0.0
 40
0.0
 40
0.0
 40
0.0
 40
1.0
 40
1.0
 40
1.0
 40
1.0
 10
-15.0603
 20
21.8308
 30
0.0
 10
-15.2052
 20
21.8204
 30
0.0
 10
-15.3026
 20
21.7229
 30
0.0
 10
-15.313
 20
21.578
 30
0.0
  0
SPLINE
  5
1AA
330
1F
100
AcDbEntity
  8
DATUMS
 62
   250
100
AcDbSpline
210
0.0
220
0.0
230
1.0
 70
     8
 71
     3
 72
     8
 73
     4
 74
     0
 42
0.0000000001
 43
0.0000000001
 40
0.0
 40
0.0
 40
0.0
 40
0.0
 40
1.0
 40
1.0
 40
1.0
 40
1.0
 10
-7.7726
 20
16.7348
 30
0.0
 10
-8.0453
 20
17.1243
 30
0.0
 10
-7.9486
 20
16.8839
 30
0.0
 10
-7.9486
 20
17.4918
 30
0.0
  0
SPLINE
  5
1AB
330
1F
100
AcDbEntity
  8
DATUMS
 62
   250
100
AcDbSpline
210
0.0
220
0.0
230
1.0
 70
    24
 71
     3
 72
     8
 73
     4
 74
     0
 42
0.0000000001
 43
0.0000000001
 40
0.0
 40
0.0
 40
0.0
 40
0.0
 40
1.0
 40
1.0
 40
1.0
 40
1.0
 10
-7.9486
 20
17.4918
 30
0.0
 10
-7.9486
 20
17.4918
 30
0.0
 10
-7.9486
 20
21.0314
 30
0.0
 10
-7.9486
 20
21.0314
 30
0.0
  0
SPLINE
  5
1AC
330
1F
100
AcDbEntity
  8
DATUMS
 62
   250
100
AcDbSpline
210
0.0
220
0.0
230
1.0
 70
     8
 71
     3
 72
     8
 73
     4
 74
     0
 42
0.0000000001
 43
0.0000000001
 40
0.0
 40
0.0
 40
0.0
 40
0.0
 40
1.0
 40
1.0
 40
1.0
 40
1.0
 10
-7.9486
 20
21.0314
 30
0.0
 10
-7.9486
 20
21.6388
 30
0.0
 10
-8.0453
 20
21.3988
 30
0.0
 10
-7.7735
 20
21.787
 30
0.0
  0
SPLINE
  5
1AD
330
1F
100
AcDbEntity
  8
DATUMS
 62
   250
100
AcDbSpline
210
0.0
220
0.0
230
1.0
 70
     8
 71
     3
 72
     8
 73
     4
 74
     0
 42
0.0000000001
 43
0.0000000001
 40
0.0
 40
0.0
 40
0.0
 40
0.0
 40
1.0
 40
1.0
 40
1.0
 40
1.0
 10
-7.6959
 20
16.8094
 30
0.0
 10
-7.7008
 20
16.7646
 30
0.0
 10
-7.7269
 20
16.7386
 30
0.0
 10
-7.7716
 20
16.7335
 30
0.0
  0
SPLINE
  5
1AE
330
1F
100
AcDbEntity
  8
DATUMS
 62
   250
100
AcDbSpline
210
0.0
220
0.0
230
1.0
 70
     8
 71
     3
 72
    20
 73
    16
 74
     0
 42
0.0000000001
 43
0.0000000001
 40
0.0
 40
0.0
 40
0.0
 40
0.0
 40
0.2
 40
0.2
 40
0.2
 40
0.2
 40
0.4
 40
0.4
 40
0.4
 40
0.4
 40
0.6
 40
0.6
 40
0.6
 40
0.6
 40
1.0
 40
1.0
 40
1.0
 40
1.0
 10
-7.7716
 20
16.7335
 30
0.0
 10
-7.7716
 20
16.7335
 30
0.0
 10
-8.2772
 20
16.7335
 30
0.0
 10
-8.2772
 20
16.7335
 30
0.0
 10
-8.2772
 20
16.7335
 30
0.0
 10
-8.2772
 20
16.7335
 30
0.0
 10
-14.6907
 20
16.7335
 30
0.0
 10
-14.6907
 20
16.7335
 30
0.0
 10
-14.6907
 20
16.7335
 30
0.0
 10
-14.6907
 20
16.7335
 30
0.0
 10
-15.1962
 20
16.7335
 30
0.0
 10
-15.1962
 20
16.7335
 30
0.0
 10
-15.1962
 20
16.7335
 30
0.0
 10
-15.1962
 20
16.7335
 30
0.0
 10
-15.229
 20
16.7411
 30
0.0
 10
-15.229
 20
16.7411
 30
0.0
  0
SPLINE
  5
1AF
330
1F
100
AcDbEntity
  8
DATUMS
 62
   250
100
AcDbSpline
210
0.0
220
0.0
230
1.0
 70
     8
 71
     3
 72
     8
 73
     4
 74
     0
 42
0.0000000001
 43
0.0000000001
 40
0.0
 40
0.0
 40
0.0
 40
0.0
 40
1.0
 40
1.0
 40
1.0
 40
1.0
 10
-15.229
 20
16.7411
 30
0.0
 10
-15.2557
 20
16.7539
 30
0.0
 10
-15.2718
 20
16.781
 30
0.0
 10
-15.272
 20
16.8104
 30
0.0
  0
SPLINE
  5
1B0
330
1F
100
AcDbEntity
  8
DATUMS
 62
   250
100
AcDbSpline
210
0.0
220
0.0
230
1.0
 70
     8
 71
     3
 72
    16
 73
    12
 74
     0
 42
0.0000000001
 43
0.0000000001
 40
0.0
 40
0.0
 40
0.0
 40
0.0
 40
0.25
 40
0.25
 40
0.25
 40
0.25
 40
0.5
 40
0.5
 40
0.5
 40
0.5
 40
1.0
 40
1.0
 40
1.0
 40
1.0
 10
-15.272
 20
16.8104
 30
0.0
 10
-15.272
 20
16.8104
 30
0.0
 10
-15.272
 20
17.3159
 30
0.0
 10
-15.272
 20
17.3159
 30
0.0
 10
-15.272
 20
17.3159
 30
0.0
 10
-15.272
 20
17.3159
 30
0.0
 10
-15.2716
 20
21.2109
 30
0.0
 10
-15.2716
 20
21.2109
 30
0.0
 10
-15.2716
 20
21.2109
 30
0.0
 10
-15.2716
 20
21.2109
 30
0.0
 10
-15.2716
 20
21.7163
 30
0.0
 10
-15.2716
 20
21.7163
 30
0.0
  0
SPLINE
  5
1B1
330
1F
100
AcDbEntity
  8
DATUMS
 62
   250
100
AcDbSpline
210
0.0
220
0.0
230
1.0
 70
     8
 71
     3
 72
    12
 73
     8
 74
     0
 42
0.0000000001
 43
0.0000000001
 40
0.0
 40
0.0
 40
0.0
 40
0.0
 40
0.3333333333333333
 40
0.3333333333333333
 40
0.3333333333333333
 40
0.3333333333333333
 40
1.0
 40
1.0
 40
1.0
 40
1.0
 10
-15.2716
 20
21.7163
 30
0.0
 10
-15.2716
 20
21.7382
 30
0.0
 10
-15.2604
 20
21.7596
 30
0.0
 10
-15.2433
 20
21.773
 30
0.0
 10
-15.2433
 20
21.773
 30
0.0
 10
-15.23
 20
21.7837
 30
0.0
 10
-15.2133
 20
21.7896
 30
0.0
 10
-15.1962
 20
21.7896
 30
0.0
  0
SPLINE
  5
1B2
330
1F
100
AcDbEntity
  8
DATUMS
 62
   250
100
AcDbSpline
210
0.0
220
0.0
230
1.0
 70
     8
 71
     3
 72
    16
 73
    12
 74
     0
 42
0.0000000001
 43
0.0000000001
 40
0.0
 40
0.0
 40
0.0
 40
0.0
 40
0.25
 40
0.25
 40
0.25
 40
0.25
 40
0.5
 40
0.5
 40
0.5
 40
0.5
 40
1.0
 40
1.0
 40
1.0
 40
1.0
 10
-15.1962
 20
21.7896
 30
0.0
 10
-15.1962
 20
21.7896
 30
0.0
 10
-14.6907
 20
21.7896
 30
0.0
 10
-14.6907
 20
21.7896
 30
0.0
 10
-14.6907
 20
21.7896
 30
0.0
 10
-14.6907
 20
21.7896
 30
0.0
 10
-8.2747
 20
21.7894
 30
0.0
 10
-8.2747
 20
21.7894
 30
0.0
 10
-8.2747
 20
21.7894
 30
0.0
 10
-8.2747
 20
21.7894
 30
0.0
 10
-7.7692
 20
21.7894
 30
0.0
 10
-7.7692
 20
21.7894
 30
0.0
  0
SPLINE
  5
1B3
330
1F
100
AcDbEntity
  8
DATUMS
 62
   250
100
AcDbSpline
210
0.0
220
0.0
230
1.0
 70
     8
 71
     3
 72
     8
 73
     4
 74
     0
 42
0.0000000001
 43
0.0000000001
 40
0.0
 40
0.0
 40
0.0
 40
0.0
 40
1.0
 40
1.0
 40
1.0
 40
1.0
 10
-7.7692
 20
21.7894
 30
0.0
 10
-7.7414
 20
21.7893
 30
0.0
 10
-7.7153
 20
21.7716
 30
0.0
 10
-7.7034
 20
21.7467
 30
0.0
  0
SPLINE
  5
1B4
330
1F
100
AcDbEntity
  8
DATUMS
 62
   250
100
AcDbSpline
210
0.0
220
0.0
230
1.0
 70
     8
 71
     3
 72
    20
 73
    16
 74
     0
 42
0.0000000001
 43
0.0000000001
 40
0.0
 40
0.0
 40
0.0
 40
0.0
 40
0.2
 40
0.2
 40
0.2
 40
0.2
 40
0.4
 40
0.4
 40
0.4
 40
0.4
 40
0.6
 40
0.6
 40
0.6
 40
0.6
 40
1.0
 40
1.0
 40
1.0
 40
1.0
 10
-7.7034
 20
21.7467
 30
0.0
 10
-7.7034
 20
21.7467
 30
0.0
 10
-7.6959
 20
21.7138
 30
0.0
 10
-7.6959
 20
21.7138
 30
0.0
 10
-7.6959
 20
21.7138
 30
0.0
 10
-7.6959
 20
21.7138
 30
0.0
 10
-7.6959
 20
21.2084
 30
0.0
 10
-7.6959
 20
21.2084
 30
0.0
 10
-7.6959
 20
21.2084
 30
0.0
 10
-7.6959
 20
21.2084
 30
0.0
 10
-7.6959
 20
17.3159
 30
0.0
 10
-7.6959
 20
17.3159
 30
0.0
 10
-7.6959
 20
17.3159
 30
0.0
 10
-7.6959
 20
17.3159
 30
0.0
 10
-7.6959
 20
16.8104
 30
0.0
 10
-7.6959
 20
16.8104
 30
0.0
  0
SPLINE
  5
1B5
330
1F
100
AcDbEntity
  8
DATUMS
 62
   250
100
AcDbSpline
210
0.0
220
0.0
230
1.0
 70
     8
 71
     3
 72
     8
 73
     4
 74
     0
 42
0.0000000001
 43
0.0000000001
 40
0.0
 40
0.0
 40
0.0
 40
0.0
 40
1.0
 40
1.0
 40
1.0
 40
1.0
 10
-7.6959
 20
16.8094
 30
0.0
 10
-8.0866
 20
17.0829
 30
0.0
 10
-7.8457
 20
16.9863
 30
0.0
 10
-8.454
 20
16.9863
 30
0.0
  0
SPLINE
  5
1B6
330
1F
100
AcDbEntity
  8
DATUMS
 62
   250
100
AcDbSpline
210
0.0
220
0.0
230
1.0
 70
     8
 71
     3
 72
    16
 73
    12
 74
     0
 42
0.0000000001
 43
0.0000000001
 40
0.0
 40
0.0
 40
0.0
 40
0.0
 40
0.25
 40
0.25
 40
0.25
 40
0.25
 40
0.5
 40
0.5
 40
0.5
 40
0.5
 40
1.0
 40
1.0
 40
1.0
 40
1.0
 10
-8.454
 20
16.9863
 30
0.0
 10
-8.454
 20
16.9863
 30
0.0
 10
-14.5137
 20
16.9863
 30
0.0
 10
-14.5137
 20
16.9863
 30
0.0
 10
-14.5137
 20
16.9863
 30
0.0
 10
-14.5137
 20
16.9863
 30
0.0
 10
-15.0193
 20
16.9863
 30
0.0
 10
-15.0193
 20
16.9863
 30
0.0
 10
-15.0193
 20
16.9863
 30
0.0
 10
-15.0193
 20
16.9863
 30
0.0
 10
-15.2695
 20
16.8111
 30
0.0
 10
-15.2695
 20
16.8111
 30
0.0
  0
SPLINE
  5
1B7
330
1F
100
AcDbEntity
  8
DATUMS
 62
   250
100
AcDbSpline
210
0.0
220
0.0
230
1.0
 70
     8
 71
     3
 72
     8
 73
     4
 74
     0
 42
0.0000000001
 43
0.0000000001
 40
0.0
 40
0.0
 40
0.0
 40
0.0
 40
1.0
 40
1.0
 40
1.0
 40
1.0
 10
-15.1953
 20
21.7884
 30
0.0
 10
-14.9226
 20
21.3988
 30
0.0
 10
-15.0193
 20
21.6392
 30
0.0
 10
-15.0193
 20
21.0314
 30
0.0
  0
SPLINE
  5
1B8
330
1F
100
AcDbEntity
  8
DATUMS
 62
   250
100
AcDbSpline
210
0.0
220
0.0
230
1.0
 70
    24
 71
     3
 72
     8
 73
     4
 74
     0
 42
0.0000000001
 43
0.0000000001
 40
0.0
 40
0.0
 40
0.0
 40
0.0
 40
1.0
 40
1.0
 40
1.0
 40
1.0
 10
-15.0193
 20
21.0314
 30
0.0
 10
-15.0193
 20
21.0314
 30
0.0
 10
-15.0193
 20
17.4918
 30
0.0
 10
-15.0193
 20
17.4918
 30
0.0
  0
SPLINE
  5
1B9
330
1F
100
AcDbEntity
  8
DATUMS
 62
   250
100
AcDbSpline
210
0.0
220
0.0
230
1.0
 70
     8
 71
     3
 72
     8
 73
     4
 74
     0
 42
0.0000000001
 43
0.0000000001
 40
0.0
 40
0.0
 40
0.0
 40
0.0
 40
1.0
 40
1.0
 40
1.0
 40
1.0
 10
-15.0193
 20
17.4918
 30
0.0
 10
-15.0193
 20
16.8844
 30
0.0
 10
-14.9226
 20
17.1243
 30
0.0
 10
-15.1944
 20
16.7361
 30
0.0
  0
SPLINE
  5
1BA
330
1F
100
AcDbEntity
  8
DATUMS
 62
   250
100
AcDbSpline
210
0.0
220
0.0
230
1.0
 70
     8
 71
     3
 72
     8
 73
     4
 74
     0
 42
0.0000000001
 43
0.0000000001
 40
0.0
 40
0.0
 40
0.0
 40
0.0
 40
1.0
 40
1.0
 40
1.0
 40
1.0
 10
-15.2695
 20
21.712
 30
0.0
 10
-14.8813
 20
21.4403
 30
0.0
 10
-15.1211
 20
21.537
 30
0.0
 10
-14.5137
 20
21.537
 30
0.0
  0
SPLINE
  5
1BB
330
1F
100
AcDbEntity
  8
DATUMS
 62
   250
100
AcDbSpline
210
0.0
220
0.0
230
1.0
 70
    24
 71
     3
 72
     8
 73
     4
 74
     0
 42
0.0000000001
 43
0.0000000001
 40
0.0
 40
0.0
 40
0.0
 40
0.0
 40
1.0
 40
1.0
 40
1.0
 40
1.0
 10
-14.5137
 20
21.537
 30
0.0
 10
-14.5137
 20
21.537
 30
0.0
 10
-8.454
 20
21.537
 30
0.0
 10
-8.454
 20
21.537
 30
0.0
  0
SPLINE
  5
1BC
330
1F
100
AcDbEntity
  8
DATUMS
 62
   250
100
AcDbSpline
210
0.0
220
0.0
230
1.0
 70
     8
 71
     3
 72
     8
 73
     4
 74
     0
 42
0.0000000001
 43
0.0000000001
 40
0.0
 40
0.0
 40
0.0
 40
0.0
 40
1.0
 40
1.0
 40
1.0
 40
1.0
 10
-8.454
 20
21.537
 30
0.0
 10
-7.9083
 20
21.537
 30
0.0
 10
-8.048
 20
21.4406
 30
0.0
 10
-7.695
 20
21.7146
 30
0.0
  0
SPLINE
  5
1BD
330
1F
100
AcDbEntity
  8
DATUMS
 62
   250
100
AcDbSpline
210
0.0
220
0.0
230
1.0
 70
    24
 71
     3
 72
     8
 73
     4
 74
     0
 42
0.0000000001
 43
0.0000000001
 40
0.0
 40
0.0
 40
0.0
 40
0.0
 40
1.0
 40
1.0
 40
1.0
 40
1.0
 10
-30.4316
 20
34.0341
 30
0.0
 10
-30.4316
 20
34.0341
 30
0.0
 10
-30.4378
 20
34.0023
 30
0.0
 10
-30.4378
 20
34.0023
 30
0.0
  0
SPLINE
  5
1BE
330
1F
100
AcDbEntity
  8
DATUMS
 62
   250
100
AcDbSpline
210
0.0
220
0.0
230
1.0
 70
    24
 71
     3
 72
     8
 73
     4
 74
     0
 42
0.0000000001
 43
0.0000000001
 40
0.0
 40
0.0
 40
0.0
 40
0.0
 40
1.0
 40
1.0
 40
1.0
 40
1.0
 10
-28.6588
 20
32.4601
 30
0.0
 10
-28.6588
 20
32.4601
 30
0.0
 10
5.691
 20
32.4601
 30
0.0
 10
5.691
 20
32.4601
 30
0.0
  0
SPLINE
  5
1BF
330
1F
100
AcDbEntity
  8
DATUMS
 62
   250
100
AcDbSpline
210
0.0
220
0.0
230
1.0
 70
    24
 71
     3
 72
     8
 73
     4
 74
     0
 42
0.0000000001
 43
0.0000000001
 40
0.0
 40
0.0
 40
0.0
 40
0.0
 40
1.0
 40
1.0
 40
1.0
 40
1.0
 10
5.7549
 20
32.3963
 30
0.0
 10
5.7549
 20
32.3963
 30
0.0
 10
5.7549
 20
-4.481
 30
0.0
 10
5.7549
 20
-4.481
 30
0.0
  0
SPLINE
  5
1C0
330
1F
100
AcDbEntity
  8
DATUMS
 62
   250
100
AcDbSpline
210
0.0
220
0.0
230
1.0
 70
    24
 71
     3
 72
     8
 73
     4
 74
     0
 42
0.0000000001
 43
0.0000000001
 40
0.0
 40
0.0
 40
0.0
 40
0.0
 40
1.0
 40
1.0
 40
1.0
 40
1.0
 10
-28.6588
 20
-4.5449
 30
0.0
 10
-28.6588
 20
-4.5449
 30
0.0
 10
5.691
 20
-4.5449
 30
0.0
 10
5.691
 20
-4.5449
 30
0.0
  0
SPLINE
  5
1C1
330
1F
100
AcDbEntity
  8
DATUMS
 62
   250
100
AcDbSpline
210
0.0
220
0.0
230
1.0
 70
    24
 71
     3
 72
     8
 73
     4
 74
     0
 42
0.0000000001
 43
0.0000000001
 40
0.0
 40
0.0
 40
0.0
 40
0.0
 40
1.0
 40
1.0
 40
1.0
 40
1.0
 10
-28.7227
 20
32.3963
 30
0.0
 10
-28.7227
 20
32.3963
 30
0.0
 10
-28.7227
 20
-4.481
 30
0.0
 10
-28.7227
 20
-4.481
 30
0.0
  0
SPLINE
  5
1C2
330
1F
100
AcDbEntity
  8
DATUMS
 62
   250
100
AcDbSpline
210
0.0
220
0.0
230
1.0
 70
    24
 71
     3
 72
     8
 73
     4
 74
     0
 42
0.0000000001
 43
0.0000000001
 40
0.0
 40
0.0
 40
0.0
 40
0.0
 40
1.0
 40
1.0
 40
1.0
 40
1.0
 10
-26.0169
 20
28.5943
 30
0.0
 10
-26.0169
 20
28.5943
 30
0.0
 10
-26.0169
 20
-0.6788
 30
0.0
 10
-26.0169
 20
-0.6788
 30
0.0
  0
SPLINE
  5
1C3
330
1F
100
AcDbEntity
  8
DATUMS
 62
   250
100
AcDbSpline
210
0.0
220
0.0
230
1.0
 70
    24
 71
     3
 72
     8
 73
     4
 74
     0
 42
0.0000000001
 43
0.0000000001
 40
0.0
 40
0.0
 40
0.0
 40
0.0
 40
1.0
 40
1.0
 40
1.0
 40
1.0
 10
-30.2648
 20
-6.2599
 30
0.0
 10
-30.2648
 20
-6.2599
 30
0.0
 10
-30.2966
 20
-6.2538
 30
0.0
 10
-30.2966
 20
-6.2538
 30
0.0
  0
SPLINE
  5
1C4
330
1F
100
AcDbEntity
  8
DATUMS
 62
   250
100
AcDbSpline
210
0.0
220
0.0
230
1.0
 70
    24
 71
     3
 72
     8
 73
     4
 74
     0
 42
0.0000000001
 43
0.0000000001
 40
0.0
 40
0.0
 40
0.0
 40
0.0
 40
1.0
 40
1.0
 40
1.0
 40
1.0
 10
7.4701
 20
-6.087
 30
0.0
 10
7.4701
 20
-6.087
 30
0.0
 10
7.4638
 20
-6.1187
 30
0.0
 10
7.4638
 20
-6.1187
 30
0.0
  0
SPLINE
  5
1C5
330
1F
100
AcDbEntity
  8
DATUMS
 62
   250
100
AcDbSpline
210
0.0
220
0.0
230
1.0
 70
    24
 71
     3
 72
     8
 73
     4
 74
     0
 42
0.0000000001
 43
0.0000000001
 40
0.0
 40
0.0
 40
0.0
 40
0.0
 40
1.0
 40
1.0
 40
1.0
 40
1.0
 10
7.3287
 20
34.1692
 30
0.0
 10
7.3287
 20
34.1692
 30
0.0
 10
7.297
 20
34.1752
 30
0.0
 10
7.297
 20
34.1752
 30
0.0
  0
SPLINE
  5
1C6
330
1F
100
AcDbEntity
  8
DATUMS
 62
   250
100
AcDbSpline
210
0.0
220
0.0
230
1.0
 70
     8
 71
     3
 72
     8
 73
     4
 74
     0
 42
0.0000000001
 43
0.0000000001
 40
0.0
 40
0.0
 40
0.0
 40
0.0
 40
1.0
 40
1.0
 40
1.0
 40
1.0
 10
-30.3707
 20
34.1314
 30
0.0
 10
-30.5244
 20
33.9979
 30
0.0
 10
-30.4399
 20
33.5117
 30
0.0
 10
-30.4399
 20
33.4625
 30
0.0
  0
SPLINE
  5
1C7
330
1F
100
AcDbEntity
  8
DATUMS
 62
   250
100
AcDbSpline
210
0.0
220
0.0
230
1.0
 70
    24
 71
     3
 72
     8
 73
     4
 74
     0
 42
0.0000000001
 43
0.0000000001
 40
0.0
 40
0.0
 40
0.0
 40
0.0
 40
1.0
 40
1.0
 40
1.0
 40
1.0
 10
-30.4399
 20
33.4625
 30
0.0
 10
-30.4399
 20
33.4625
 30
0.0
 10
-30.4399
 20
-5.5473
 30
0.0
 10
-30.4399
 20
-5.5473
 30
0.0
  0
SPLINE
  5
1C8
330
1F
100
AcDbEntity
  8
DATUMS
 62
   250
100
AcDbSpline
210
0.0
220
0.0
230
1.0
 70
     8
 71
     3
 72
    12
 73
     8
 74
     0
 42
0.0000000001
 43
0.0000000001
 40
0.0
 40
0.0
 40
0.0
 40
0.0
 40
0.3333333333333333
 40
0.3333333333333333
 40
0.3333333333333333
 40
0.3333333333333333
 40
1.0
 40
1.0
 40
1.0
 40
1.0
 10
-30.4399
 20
-5.5473
 30
0.0
 10
-30.4399
 20
-5.5569
 30
0.0
 10
-30.5172
 20
-6.0711
 30
0.0
 10
-30.3831
 20
-6.2053
 30
0.0
 10
-30.3831
 20
-6.2053
 30
0.0
 10
-30.2489
 20
-6.3395
 30
0.0
 10
-29.7351
 20
-6.2621
 30
0.0
 10
-29.725
 20
-6.2621
 30
0.0
  0
SPLINE
  5
1C9
330
1F
100
AcDbEntity
  8
DATUMS
 62
   250
100
AcDbSpline
210
0.0
220
0.0
230
1.0
 70
     8
 71
     3
 72
    16
 73
    12
 74
     0
 42
0.0000000001
 43
0.0000000001
 40
0.0
 40
0.0
 40
0.0
 40
0.0
 40
0.25
 40
0.25
 40
0.25
 40
0.25
 40
0.5
 40
0.5
 40
0.5
 40
0.5
 40
1.0
 40
1.0
 40
1.0
 40
1.0
 10
-29.725
 20
-6.2621
 30
0.0
 10
-29.725
 20
-6.2621
 30
0.0
 10
6.7573
 20
-6.2621
 30
0.0
 10
6.7573
 20
-6.2621
 30
0.0
 10
6.7573
 20
-6.2621
 30
0.0
 10
6.7573
 20
-6.2621
 30
0.0
 10
7.2627
 20
-6.2621
 30
0.0
 10
7.2627
 20
-6.2621
 30
0.0
 10
7.2627
 20
-6.2621
 30
0.0
 10
7.2627
 20
-6.2621
 30
0.0
 10
7.326
 20
-6.2546
 30
0.0
 10
7.326
 20
-6.2546
 30
0.0
  0
SPLINE
  5
1CA
330
1F
100
AcDbEntity
  8
DATUMS
 62
   250
100
AcDbSpline
210
0.0
220
0.0
230
1.0
 70
     8
 71
     3
 72
     8
 73
     4
 74
     0
 42
0.0000000001
 43
0.0000000001
 40
0.0
 40
0.0
 40
0.0
 40
0.0
 40
1.0
 40
1.0
 40
1.0
 40
1.0
 10
7.326
 20
-6.2546
 30
0.0
 10
7.5879
 20
-6.1877
 30
0.0
 10
7.472
 20
-5.6451
 30
0.0
 10
7.472
 20
-5.5473
 30
0.0
  0
SPLINE
  5
1CB
330
1F
100
AcDbEntity
  8
DATUMS
 62
   250
100
AcDbSpline
210
0.0
220
0.0
230
1.0
 70
    24
 71
     3
 72
     8
 73
     4
 74
     0
 42
0.0000000001
 43
0.0000000001
 40
0.0
 40
0.0
 40
0.0
 40
0.0
 40
1.0
 40
1.0
 40
1.0
 40
1.0
 10
7.472
 20
-5.5473
 30
0.0
 10
7.472
 20
-5.5473
 30
0.0
 10
7.472
 20
33.4625
 30
0.0
 10
7.472
 20
33.4625
 30
0.0
  0
SPLINE
  5
1CC
330
1F
100
AcDbEntity
  8
DATUMS
 62
   250
100
AcDbSpline
210
0.0
220
0.0
230
1.0
 70
     8
 71
     3
 72
    12
 73
     8
 74
     0
 42
0.0000000001
 43
0.0000000001
 40
0.0
 40
0.0
 40
0.0
 40
0.0
 40
0.3333333333333333
 40
0.3333333333333333
 40
0.3333333333333333
 40
0.3333333333333333
 40
1.0
 40
1.0
 40
1.0
 40
1.0
 10
7.472
 20
33.4625
 30
0.0
 10
7.472
 20
33.4722
 30
0.0
 10
7.5495
 20
33.9866
 30
0.0
 10
7.4153
 20
34.1207
 30
0.0
 10
7.4153
 20
34.1207
 30
0.0
 10
7.2812
 20
34.2549
 30
0.0
 10
6.7672
 20
34.1774
 30
0.0
 10
6.7573
 20
34.1774
 30
0.0
  0
SPLINE
  5
1CD
330
1F
100
AcDbEntity
  8
DATUMS
 62
   250
100
AcDbSpline
210
0.0
220
0.0
230
1.0
 70
    24
 71
     3
 72
    12
 73
     8
 74
     0
 42
0.0000000001
 43
0.0000000001
 40
0.0
 40
0.0
 40
0.0
 40
0.0
 40
0.3333333333333333
 40
0.3333333333333333
 40
0.3333333333333333
 40
0.3333333333333333
 40
1.0
 40
1.0
 40
1.0
 40
1.0
 10
6.7573
 20
34.1774
 30
0.0
 10
6.7573
 20
34.1774
 30
0.0
 10
-29.725
 20
34.1774
 30
0.0
 10
-29.725
 20
34.1774
 30
0.0
 10
-29.725
 20
34.1774
 30
0.0
 10
-29.725
 20
34.1774
 30
0.0
 10
-30.2306
 20
34.1774
 30
0.0
 10
-30.2306
 20
34.1774
 30
0.0
  0
SPLINE
  5
1CE
330
1F
100
AcDbEntity
  8
DATUMS
 62
   250
100
AcDbSpline
210
0.0
220
0.0
230
1.0
 70
     8
 71
     3
 72
     8
 73
     4
 74
     0
 42
0.0000000001
 43
0.0000000001
 40
0.0
 40
0.0
 40
0.0
 40
0.0
 40
1.0
 40
1.0
 40
1.0
 40
1.0
 10
-30.2306
 20
34.1774
 30
0.0
 10
-30.2812
 20
34.1744
 30
0.0
 10
-30.3311
 20
34.1658
 30
0.0
 10
-30.3707
 20
34.1314
 30
0.0
  0
SPLINE
  5
1CF
330
1F
100
AcDbEntity
  8
DATUMS
 62
   250
100
AcDbSpline
210
0.0
220
0.0
230
1.0
 70
    24
 71
     3
 72
     8
 73
     4
 74
     0
 42
0.0000000001
 43
0.0000000001
 40
0.0
 40
0.0
 40
0.0
 40
0.0
 40
1.0
 40
1.0
 40
1.0
 40
1.0
 10
5.7549
 20
-4.481
 30
0.0
 10
5.7549
 20
-4.481
 30
0.0
 10
5.691
 20
-4.5449
 30
0.0
 10
5.691
 20
-4.5449
 30
0.0
  0
SPLINE
  5
1D0
330
1F
100
AcDbEntity
  8
DATUMS
 62
   250
100
AcDbSpline
210
0.0
220
0.0
230
1.0
 70
    24
 71
     3
 72
     8
 73
     4
 74
     0
 42
0.0000000001
 43
0.0000000001
 40
0.0
 40
0.0
 40
0.0
 40
0.0
 40
1.0
 40
1.0
 40
1.0
 40
1.0
 10
-28.6588
 20
-4.5449
 30
0.0
 10
-28.6588
 20
-4.5449
 30
0.0
 10
-28.7227
 20
-4.481
 30
0.0
 10
-28.7227
 20
-4.481
 30
0.0
  0
SPLINE
  5
1D1
330
1F
100
AcDbEntity
  8
DATUMS
 62
   250
100
AcDbSpline
210
0.0
220
0.0
230
1.0
 70
    24
 71
     3
 72
     8
 73
     4
 74
     0
 42
0.0000000001
 43
0.0000000001
 40
0.0
 40
0.0
 40
0.0
 40
0.0
 40
1.0
 40
1.0
 40
1.0
 40
1.0
 10
-28.6588
 20
32.4601
 30
0.0
 10
-28.6588
 20
32.4601
 30
0.0
 10
-28.7227
 20
32.3963
 30
0.0
 10
-28.7227
 20
32.3963
 30
0.0
  0
SPLINE
  5
1D2
330
1F
100
AcDbEntity
  8
DATUMS
 62
   250
100
AcDbSpline
210
0.0
220
0.0
230
1.0
 70
    24
 71
     3
 72
     8
 73
     4
 74
     0
 42
0.0000000001
 43
0.0000000001
 40
0.0
 40
0.0
 40
0.0
 40
0.0
 40
1.0
 40
1.0
 40
1.0
 40
1.0
 10
5.7549
 20
32.3963
 30
0.0
 10
5.7549
 20
32.3963
 30
0.0
 10
5.691
 20
32.4601
 30
0.0
 10
5.691
 20
32.4601
 30
0.0
  0
SPLINE
  5
1D3
330
1F
100
AcDbEntity
  8
DATUMS
 62
   250
100
AcDbSpline
210
0.0
220
0.0
230
1.0
 70
     8
 71
     3
 72
    16
 73
    12
 74
     0
 42
0.0000000001
 43
0.0000000001
 40
0.0
 40
0.0
 40
0.0
 40
0.0
 40
0.25
 40
0.25
 40
0.25
 40
0.25
 40
0.5
 40
0.5
 40
0.5
 40
0.5
 40
1.0
 40
1.0
 40
1.0
 40
1.0
 10
3.0522
 20
-0.6065
 30
0.0
 10
3.0522
 20
-0.6065
 30
0.0
 10
3.0536
 20
-0.5753
 30
0.0
 10
3.0536
 20
-0.5753
 30
0.0
 10
3.0536
 20
-0.5753
 30
0.0
 10
3.0536
 20
-0.5753
 30
0.0
 10
3.0536
 20
-0.0698
 30
0.0
 10
3.0536
 20
-0.0698
 30
0.0
 10
3.0536
 20
-0.0698
 30
0.0
 10
3.0536
 20
-0.0698
 30
0.0
 10
3.0536
 20
27.9851
 30
0.0
 10
3.0536
 20
27.9851
 30
0.0
  0
SPLINE
  5
1D4
330
1F
100
AcDbEntity
  8
DATUMS
 62
   250
100
AcDbSpline
210
0.0
220
0.0
230
1.0
 70
     8
 71
     3
 72
    16
 73
    12
 74
     0
 42
0.0000000001
 43
0.0000000001
 40
0.0
 40
0.0
 40
0.0
 40
0.0
 40
0.25
 40
0.25
 40
0.25
 40
0.25
 40
0.5
 40
0.5
 40
0.5
 40
0.5
 40
1.0
 40
1.0
 40
1.0
 40
1.0
 10
3.0536
 20
27.9851
 30
0.0
 10
3.0536
 20
28.2077
 30
0.0
 10
3.0756
 20
28.4828
 30
0.0
 10
3.0335
 20
28.7161
 30
0.0
 10
3.0335
 20
28.7161
 30
0.0
 10
2.9405
 20
29.2322
 30
0.0
 10
2.5268
 20
29.6458
 30
0.0
 10
2.0107
 20
29.7388
 30
0.0
 10
2.0107
 20
29.7388
 30
0.0
 10
1.7775
 20
29.7809
 30
0.0
 10
1.5025
 20
29.759
 30
0.0
 10
1.2798
 20
29.759
 30
0.0
  0
SPLINE
  5
1D5
330
1F
100
AcDbEntity
  8
DATUMS
 62
   250
100
AcDbSpline
210
0.0
220
0.0
230
1.0
 70
    24
 71
     3
 72
    12
 73
     8
 74
     0
 42
0.0000000001
 43
0.0000000001
 40
0.0
 40
0.0
 40
0.0
 40
0.0
 40
0.3333333333333333
 40
0.3333333333333333
 40
0.3333333333333333
 40
0.3333333333333333
 40
1.0
 40
1.0
 40
1.0
 40
1.0
 10
1.2798
 20
29.759
 30
0.0
 10
1.2798
 20
29.759
 30
0.0
 10
-24.2476
 20
29.759
 30
0.0
 10
-24.2476
 20
29.759
 30
0.0
 10
-24.2476
 20
29.759
 30
0.0
 10
-24.2476
 20
29.759
 30
0.0
 10
-24.7532
 20
29.759
 30
0.0
 10
-24.7532
 20
29.759
 30
0.0
  0
SPLINE
  5
1D6
330
1F
100
AcDbEntity
  8
DATUMS
 62
   250
100
AcDbSpline
210
0.0
220
0.0
230
1.0
 70
     8
 71
     3
 72
    12
 73
     8
 74
     0
 42
0.0000000001
 43
0.0000000001
 40
0.0
 40
0.0
 40
0.0
 40
0.0
 40
0.3333333333333333
 40
0.3333333333333333
 40
0.3333333333333333
 40
0.3333333333333333
 40
1.0
 40
1.0
 40
1.0
 40
1.0
 10
-24.7532
 20
29.759
 30
0.0
 10
-25.3216
 20
29.7336
 30
0.0
 10
-25.8218
 20
29.3897
 30
0.0
 10
-25.9762
 20
28.8266
 30
0.0
 10
-25.9762
 20
28.8266
 30
0.0
 10
-26.05
 20
28.557
 30
0.0
 10
-26.0215
 20
28.2561
 30
0.0
 10
-26.0215
 20
27.9851
 30
0.0
  0
SPLINE
  5
1D7
330
1F
100
AcDbEntity
  8
DATUMS
 62
   250
100
AcDbSpline
210
0.0
220
0.0
230
1.0
 70
     8
 71
     3
 72
    16
 73
    12
 74
     0
 42
0.0000000001
 43
0.0000000001
 40
0.0
 40
0.0
 40
0.0
 40
0.0
 40
0.25
 40
0.25
 40
0.25
 40
0.25
 40
0.5
 40
0.5
 40
0.5
 40
0.5
 40
1.0
 40
1.0
 40
1.0
 40
1.0
 10
-26.0215
 20
27.9851
 30
0.0
 10
-26.0215
 20
27.9851
 30
0.0
 10
-26.0215
 20
-0.0698
 30
0.0
 10
-26.0215
 20
-0.0698
 30
0.0
 10
-26.0215
 20
-0.0698
 30
0.0
 10
-26.0215
 20
-0.0698
 30
0.0
 10
-26.0215
 20
-0.5753
 30
0.0
 10
-26.0215
 20
-0.5753
 30
0.0
 10
-26.0215
 20
-0.5753
 30
0.0
 10
-26.0215
 20
-0.5753
 30
0.0
 10
-26.0201
 20
-0.6065
 30
0.0
 10
-26.0201
 20
-0.6065
 30
0.0
  0
SPLINE
  5
1D8
330
1F
100
AcDbEntity
  8
DATUMS
 62
   250
100
AcDbSpline
210
0.0
220
0.0
230
1.0
 70
     8
 71
     3
 72
    12
 73
     8
 74
     0
 42
0.0000000001
 43
0.0000000001
 40
0.0
 40
0.0
 40
0.0
 40
0.0
 40
0.3333333333333333
 40
0.3333333333333333
 40
0.3333333333333333
 40
0.3333333333333333
 40
1.0
 40
1.0
 40
1.0
 40
1.0
 10
-26.0169
 20
-0.5753
 30
0.0
 10
-25.9909
 20
-1.1367
 30
0.0
 10
-25.6544
 20
-1.6327
 30
0.0
 10
-25.0989
 20
-1.7908
 30
0.0
 10
-25.0989
 20
-1.7908
 30
0.0
 10
-24.8265
 20
-1.8683
 30
0.0
 10
-24.5228
 20
-1.839
 30
0.0
 10
-24.2476
 20
-1.839
 30
0.0
  0
SPLINE
  5
1D9
330
1F
100
AcDbEntity
  8
DATUMS
 62
   250
100
AcDbSpline
210
0.0
220
0.0
230
1.0
 70
     8
 71
     3
 72
    16
 73
    12
 74
     0
 42
0.0000000001
 43
0.0000000001
 40
0.0
 40
0.0
 40
0.0
 40
0.0
 40
0.25
 40
0.25
 40
0.25
 40
0.25
 40
0.5
 40
0.5
 40
0.5
 40
0.5
 40
1.0
 40
1.0
 40
1.0
 40
1.0
 10
-24.2476
 20
-1.839
 30
0.0
 10
-24.2476
 20
-1.839
 30
0.0
 10
1.2798
 20
-1.839
 30
0.0
 10
1.2798
 20
-1.839
 30
0.0
 10
1.2798
 20
-1.839
 30
0.0
 10
1.2798
 20
-1.839
 30
0.0
 10
1.7854
 20
-1.839
 30
0.0
 10
1.7854
 20
-1.839
 30
0.0
 10
1.7854
 20
-1.839
 30
0.0
 10
1.7854
 20
-1.839
 30
0.0
 10
1.9018
 20
-1.8337
 30
0.0
 10
1.9018
 20
-1.8337
 30
0.0
  0
SPLINE
  5
1DA
330
1F
100
AcDbEntity
  8
DATUMS
 62
   250
100
AcDbSpline
210
0.0
220
0.0
230
1.0
 70
     8
 71
     3
 72
    12
 73
     8
 74
     0
 42
0.0000000001
 43
0.0000000001
 40
0.0
 40
0.0
 40
0.0
 40
0.0
 40
0.3333333333333333
 40
0.3333333333333333
 40
0.3333333333333333
 40
0.3333333333333333
 40
1.0
 40
1.0
 40
1.0
 40
1.0
 10
1.9018
 20
-1.8337
 30
0.0
 10
2.2134
 20
-1.8048
 30
0.0
 10
2.5084
 20
-1.658
 30
0.0
 10
2.7193
 20
-1.4267
 30
0.0
 10
2.7193
 20
-1.4267
 30
0.0
 10
2.9034
 20
-1.2246
 30
0.0
 10
3.0185
 20
-0.964
 30
0.0
 10
3.0437
 20
-0.6918
 30
0.0
  0
SPLINE
  5
1DB
330
1F
100
AcDbEntity
  8
DATUMS
 62
   250
100
AcDbSpline
210
0.0
220
0.0
230
1.0
 70
     8
 71
     3
 72
    20
 73
    16
 74
     0
 42
0.0000000001
 43
0.0000000001
 40
0.0
 40
0.0
 40
0.0
 40
0.0
 40
0.2
 40
0.2
 40
0.2
 40
0.2
 40
0.4
 40
0.4
 40
0.4
 40
0.4
 40
0.6
 40
0.6
 40
0.6
 40
0.6
 40
1.0
 40
1.0
 40
1.0
 40
1.0
 10
3.0437
 20
-0.6918
 30
0.0
 10
3.0437
 20
-0.6918
 30
0.0
 10
3.0491
 20
-0.5753
 30
0.0
 10
3.0491
 20
-0.5753
 30
0.0
 10
3.0491
 20
-0.5753
 30
0.0
 10
3.0491
 20
-0.5753
 30
0.0
 10
3.0491
 20
-0.0698
 30
0.0
 10
3.0491
 20
-0.0698
 30
0.0
 10
3.0491
 20
-0.0698
 30
0.0
 10
3.0491
 20
-0.0698
 30
0.0
 10
3.0491
 20
28.0887
 30
0.0
 10
3.0491
 20
28.0887
 30
0.0
 10
3.0491
 20
28.0887
 30
0.0
 10
3.0491
 20
28.0887
 30
0.0
 10
3.0491
 20
28.5943
 30
0.0
 10
3.0491
 20
28.5943
 30
0.0
  0
SPLINE
  5
1DC
330
1F
100
AcDbEntity
  8
DATUMS
 62
   250
100
AcDbSpline
210
0.0
220
0.0
230
1.0
 70
     8
 71
     3
 72
    12
 73
     8
 74
     0
 42
0.0000000001
 43
0.0000000001
 40
0.0
 40
0.0
 40
0.0
 40
0.0
 40
0.3333333333333333
 40
0.3333333333333333
 40
0.3333333333333333
 40
0.3333333333333333
 40
1.0
 40
1.0
 40
1.0
 40
1.0
 10
-26.0169
 20
4.1006
 30
0.0
 10
-26.0169
 20
4.1006
 30
0.0
 10
-26.0202
 20
3.5919
 30
0.0
 10
-26.0202
 20
3.5919
 30
0.0
 10
-26.0202
 20
3.5919
 30
0.0
 10
-26.0202
 20
3.5919
 30
0.0
 10
-26.0212
 20
-0.0698
 30
0.0
 10
-26.0212
 20
-0.0698
 30
0.0
  0
SPLINE
  5
1DD
330
1F
100
AcDbEntity
  8
DATUMS
 62
   250
100
AcDbSpline
210
0.0
220
0.0
230
1.0
 70
     8
 71
     3
 72
    16
 73
    12
 74
     0
 42
0.0000000001
 43
0.0000000001
 40
0.0
 40
0.0
 40
0.0
 40
0.0
 40
0.25
 40
0.25
 40
0.25
 40
0.25
 40
0.5
 40
0.5
 40
0.5
 40
0.5
 40
1.0
 40
1.0
 40
1.0
 40
1.0
 10
-26.0212
 20
-0.0698
 30
0.0
 10
-26.0213
 20
-0.2925
 30
0.0
 10
-26.0434
 20
-0.5672
 30
0.0
 10
-26.0014
 20
-0.8006
 30
0.0
 10
-26.0014
 20
-0.8006
 30
0.0
 10
-25.9082
 20
-1.3168
 30
0.0
 10
-25.4947
 20
-1.7304
 30
0.0
 10
-24.9785
 20
-1.8234
 30
0.0
 10
-24.9785
 20
-1.8234
 30
0.0
 10
-24.7452
 20
-1.8656
 30
0.0
 10
-24.4703
 20
-1.8436
 30
0.0
 10
-24.2476
 20
-1.8436
 30
0.0
  0
SPLINE
  5
1DE
330
1F
100
AcDbEntity
  8
DATUMS
 62
   250
100
AcDbSpline
210
0.0
220
0.0
230
1.0
 70
    24
 71
     3
 72
     8
 73
     4
 74
     0
 42
0.0000000001
 43
0.0000000001
 40
0.0
 40
0.0
 40
0.0
 40
0.0
 40
1.0
 40
1.0
 40
1.0
 40
1.0
 10
-24.2476
 20
-1.8436
 30
0.0
 10
-24.2476
 20
-1.8436
 30
0.0
 10
1.2798
 20
-1.8436
 30
0.0
 10
1.2798
 20
-1.8436
 30
0.0
  0
SPLINE
  5
1DF
330
1F
100
AcDbEntity
  8
DATUMS
 62
   250
100
AcDbSpline
210
0.0
220
0.0
230
1.0
 70
     8
 71
     3
 72
    16
 73
    12
 74
     0
 42
0.0000000001
 43
0.0000000001
 40
0.0
 40
0.0
 40
0.0
 40
0.0
 40
0.25
 40
0.25
 40
0.25
 40
0.25
 40
0.5
 40
0.5
 40
0.5
 40
0.5
 40
1.0
 40
1.0
 40
1.0
 40
1.0
 10
1.2798
 20
-1.8436
 30
0.0
 10
1.5508
 20
-1.8436
 30
0.0
 10
1.8517
 20
-1.8723
 30
0.0
 10
2.1213
 20
-1.7984
 30
0.0
 10
2.1213
 20
-1.7984
 30
0.0
 10
2.5879
 20
-1.6704
 30
0.0
 10
2.9477
 20
-1.277
 30
0.0
 10
3.0335
 20
-0.8006
 30
0.0
 10
3.0335
 20
-0.8006
 30
0.0
 10
3.0753
 20
-0.5692
 30
0.0
 10
3.0522
 20
-0.2877
 30
0.0
 10
3.0522
 20
-0.0698
 30
0.0
  0
SPLINE
  5
1E0
330
1F
100
AcDbEntity
  8
DATUMS
 62
   250
100
AcDbSpline
210
0.0
220
0.0
230
1.0
 70
     8
 71
     3
 72
    12
 73
     8
 74
     0
 42
0.0000000001
 43
0.0000000001
 40
0.0
 40
0.0
 40
0.0
 40
0.0
 40
0.3333333333333333
 40
0.3333333333333333
 40
0.3333333333333333
 40
0.3333333333333333
 40
1.0
 40
1.0
 40
1.0
 40
1.0
 10
3.0522
 20
-0.0698
 30
0.0
 10
3.0522
 20
-0.0698
 30
0.0
 10
3.0522
 20
3.5919
 30
0.0
 10
3.0522
 20
3.5919
 30
0.0
 10
3.0522
 20
3.5919
 30
0.0
 10
3.0522
 20
3.5919
 30
0.0
 10
3.0491
 20
4.1006
 30
0.0
 10
3.0491
 20
4.1006
 30
0.0
  0
SPLINE
  5
1E1
330
1F
100
AcDbEntity
  8
DATUMS
 62
   250
100
AcDbSpline
210
0.0
220
0.0
230
1.0
 70
    24
 71
     3
 72
     8
 73
     4
 74
     0
 42
0.0000000001
 43
0.0000000001
 40
0.0
 40
0.0
 40
0.0
 40
0.0
 40
1.0
 40
1.0
 40
1.0
 40
1.0
 10
-8.8426
 20
35.8962
 30
0.0
 10
-8.8426
 20
35.8962
 30
0.0
 10
-9.5725
 20
35.8962
 30
0.0
 10
-9.5725
 20
35.8962
 30
0.0
  0
SPLINE
  5
1E2
330
1F
100
AcDbEntity
  8
DATUMS
 62
   250
100
AcDbSpline
210
0.0
220
0.0
230
1.0
 70
    24
 71
     3
 72
     8
 73
     4
 74
     0
 42
0.0000000001
 43
0.0000000001
 40
0.0
 40
0.0
 40
0.0
 40
0.0
 40
1.0
 40
1.0
 40
1.0
 40
1.0
 10
-13.2135
 20
35.8962
 30
0.0
 10
-13.2135
 20
35.8962
 30
0.0
 10
-14.1251
 20
35.8962
 30
0.0
 10
-14.1251
 20
35.8962
 30
0.0
  0
SPLINE
  5
1E3
330
1F
100
AcDbEntity
  8
DATUMS
 62
   250
100
AcDbSpline
210
0.0
220
0.0
230
1.0
 70
    24
 71
     3
 72
     8
 73
     4
 74
     0
 42
0.0000000001
 43
0.0000000001
 40
0.0
 40
0.0
 40
0.0
 40
0.0
 40
1.0
 40
1.0
 40
1.0
 40
1.0
 10
-11.3582
 20
35.8962
 30
0.0
 10
-11.3582
 20
35.8962
 30
0.0
 10
-13.2135
 20
35.8962
 30
0.0
 10
-13.2135
 20
35.8962
 30
0.0
  0
SPLINE
  5
1E4
330
1F
100
AcDbEntity
  8
DATUMS
 62
   250
100
AcDbSpline
210
0.0
220
0.0
230
1.0
 70
    24
 71
     3
 72
     8
 73
     4
 74
     0
 42
0.0000000001
 43
0.0000000001
 40
0.0
 40
0.0
 40
0.0
 40
0.0
 40
1.0
 40
1.0
 40
1.0
 40
1.0
 10
-9.5725
 20
35.8962
 30
0.0
 10
-9.5725
 20
35.8962
 30
0.0
 10
-11.3582
 20
35.8962
 30
0.0
 10
-11.3582
 20
35.8962
 30
0.0
  0
SPLINE
  5
1E5
330
1F
100
AcDbEntity
  8
DATUMS
 62
   250
100
AcDbSpline
210
0.0
220
0.0
230
1.0
 70
    24
 71
     3
 72
    16
 73
    12
 74
     0
 42
0.0000000001
 43
0.0000000001
 40
0.0
 40
0.0
 40
0.0
 40
0.0
 40
0.25
 40
0.25
 40
0.25
 40
0.25
 40
0.5
 40
0.5
 40
0.5
 40
0.5
 40
1.0
 40
1.0
 40
1.0
 40
1.0
 10
-8.8426
 20
34.1774
 30
0.0
 10
-8.8426
 20
34.1774
 30
0.0
 10
-8.8426
 20
34.6828
 30
0.0
 10
-8.8426
 20
34.6828
 30
0.0
 10
-8.8426
 20
34.6828
 30
0.0
 10
-8.8426
 20
34.6828
 30
0.0
 10
-8.8426
 20
35.3905
 30
0.0
 10
-8.8426
 20
35.3905
 30
0.0
 10
-8.8426
 20
35.3905
 30
0.0
 10
-8.8426
 20
35.3905
 30
0.0
 10
-8.8426
 20
35.8962
 30
0.0
 10
-8.8426
 20
35.8962
 30
0.0
  0
SPLINE
  5
1E6
330
1F
100
AcDbEntity
  8
DATUMS
 62
   250
100
AcDbSpline
210
0.0
220
0.0
230
1.0
 70
     8
 71
     3
 72
     8
 73
     4
 74
     0
 42
0.0000000001
 43
0.0000000001
 40
0.0
 40
0.0
 40
0.0
 40
0.0
 40
1.0
 40
1.0
 40
1.0
 40
1.0
 10
-8.8426
 20
35.8962
 30
0.0
 10
-8.9667
 20
36.268
 30
0.0
 10
-9.327
 20
36.1489
 30
0.0
 10
-9.6009
 20
36.1489
 30
0.0
  0
SPLINE
  5
1E7
330
1F
100
AcDbEntity
  8
DATUMS
 62
   250
100
AcDbSpline
210
0.0
220
0.0
230
1.0
 70
     8
 71
     3
 72
    20
 73
    16
 74
     0
 42
0.0000000001
 43
0.0000000001
 40
0.0
 40
0.0
 40
0.0
 40
0.0
 40
0.2
 40
0.2
 40
0.2
 40
0.2
 40
0.4
 40
0.4
 40
0.4
 40
0.4
 40
0.6
 40
0.6
 40
0.6
 40
0.6
 40
1.0
 40
1.0
 40
1.0
 40
1.0
 10
-9.6009
 20
36.1489
 30
0.0
 10
-9.6009
 20
36.1489
 30
0.0
 10
-13.3668
 20
36.1489
 30
0.0
 10
-13.3668
 20
36.1489
 30
0.0
 10
-13.3668
 20
36.1489
 30
0.0
 10
-13.3668
 20
36.1489
 30
0.0
 10
-13.8724
 20
36.1489
 30
0.0
 10
-13.8724
 20
36.1489
 30
0.0
 10
-13.8724
 20
36.1489
 30
0.0
 10
-13.8724
 20
36.1489
 30
0.0
 10
-14.1251
 20
35.8962
 30
0.0
 10
-14.1251
 20
35.8962
 30
0.0
 10
-14.1251
 20
35.8962
 30
0.0
 10
-14.1251
 20
35.8962
 30
0.0
 10
-14.1251
 20
34.1774
 30
0.0
 10
-14.1251
 20
34.1774
 30
0.0
  0
ENDSEC
  0
SECTION
  2
OBJECTS
  0
DICTIONARY
  5
C
330
0
100
AcDbDictionary
  3
ACAD_GROUP
350
D
  3
ACAD_LAYOUT
350
1A
  3
ACAD_MATERIAL
350
3B
  3
ACAD_MLEADERSTYLE
350
20A
  3
ACAD_MLINESTYLE
350
17
  3
ACAD_PLOTSETTINGS
350
19
  3
ACAD_VISUALSTYLE
350
2A
  3
ACDBHEADERROUNDTRIPXREC
350
1E8
  3
ACDBVARIABLEDICTIONARY
350
208
  0
DICTIONARY
  5
D
102
{ACAD_REACTORS
330
C
102
}
330
C
100
AcDbDictionary
  0
DICTIONARY
  5
1A
102
{ACAD_REACTORS
330
C
102
}
330
C
100
AcDbDictionary
  0
DICTIONARY
  5
3B
102
{ACAD_REACTORS
330
C
102
}
330
C
100
AcDbDictionary
  3
BYBLOCK
350
3D
  3
BYLAYER
350
3C
  3
GLOBAL
350
3E
  0
DICTIONARY
  5
20A
102
{ACAD_REACTORS
330
C
102
}
330
C
100
AcDbDictionary
  0
DICTIONARY
  5
17
102
{ACAD_REACTORS
330
C
102
}
330
C
100
AcDbDictionary
  3
STANDARD
350
18
  0
DICTIONARY
  5
19
102
{ACAD_REACTORS
330
C
102
}
330
C
100
AcDbDictionary
  0
DICTIONARY
  5
2A
102
{ACAD_REACTORS
330
C
102
}
330
C
100
AcDbDictionary
  3
2DWIREFRAME
350
2F
  3
3D_HIDDEN
350
31
  3
3DWIREFRAME
350
30
  3
BASIC
350
32
  3
BRIGHTEN
350
36
  3
COLORCHANGE
350
3A
  3
CONCEPTUAL
350
34
  3
DIM
350
35
  3
FACEPATTERN
350
39
  3
FLAT
350
2B
  3
FLATWITHEDGES
350
2C
  3
GOURAUD
350
2D
  3
GOURAUDWITHEDGES
350
2E
  3
LINEPATTERN
350
38
  3
REALISTIC
350
33
  3
THICKEN
350
37
  0
DICTIONARY
  5
1E8
102
{ACAD_REACTORS
330
C
102
}
330
C
100
AcDbDictionary
  3
CEPSNTYPE
350
1F1
  3
DIMSTYLEDATA
350
207
  3
FINGERPRINTGUID
350
1F2
  3
HYPERLINKBASE
350
1EB
  3
INSUNITS
350
1F0
  3
LAYOUTDICT
350
1ED
  3
LWETCUNION
350
1EF
  3
PLOTSETDICT
350
1EE
  3
PSVPSCALE
350
1F4
  3
PUCSBASE
350
1F7
  3
PUCSORGBACK
350
1FD
  3
PUCSORGBOTTOM
350
1F9
  3
PUCSORGFRONT
350
1FC
  3
PUCSORGLEFT
350
1FA
  3
PUCSORGRIGHT
350
1FB
  3
PUCSORGTOP
350
1F8
  3
PUCSORTHOREF
350
1F5
  3
PUCSORTHOVIEW
350
1F6
  3
STYLESHEET
350
1EC
  3
TSTACKALIGN
350
1E9
  3
TSTACKSIZE
350
1EA
  3
UCSBASE
350
200
  3
UCSORGBACK
350
206
  3
UCSORGBOTTOM
350
202
  3
UCSORGFRONT
350
205
  3
UCSORGLEFT
350
203
  3
UCSORGRIGHT
350
204
  3
UCSORGTOP
350
201
  3
UCSORTHOREF
350
1FE
  3
UCSORTHOVIEW
350
1FF
  3
VERSIONGUID
350
1F3
  0
DICTIONARY
  5
208
102
{ACAD_REACTORS
330
C
102
}
330
C
100
AcDbDictionary
  3
DIMASSOC
350
20B
  3
HIDETEXT
350
20C
  0
MATERIAL
  5
3D
102
{ACAD_REACTORS
330
3B
102
}
102
{ACAD_XDICTIONARY
360
20F
102
}
330
3B
100
AcDbMaterial
  1
ByBlock
  0
MATERIAL
  5
3C
102
{ACAD_REACTORS
330
3B
102
}
102
{ACAD_XDICTIONARY
360
20D
102
}
330
3B
100
AcDbMaterial
  1
ByLayer
  0
MATERIAL
  5
3E
102
{ACAD_REACTORS
330
3B
102
}
102
{ACAD_XDICTIONARY
360
211
102
}
330
3B
100
AcDbMaterial
  1
Global
  0
MLINESTYLE
  5
18
102
{ACAD_REACTORS
330
17
102
}
330
17
100
AcDbMlineStyle
  2
Standard
 70
     0
  3

 62
   256
 51
90.0
 52
90.0
 71
     2
 49
0.5
 62
   256
  6
BYLAYER
 49
-0.5
 62
   256
  6
BYLAYER
  0
ACAD_PROXY_OBJECT
  5
2F
102
{ACAD_REACTORS
330
2A
102
}
330
2A
100
AcDbProxyObject
 90
      499
 91
      501
 93
      436
310
42CC9915DA5C99599C985B595049028333333333333E3BF0000000000000FB0107901411070040501600405405064090741402480A0340
1001
ACAD
1000
AcDbSavedByObjectVersion
1070
     0
  0
ACAD_PROXY_OBJECT
  5
31
102
{ACAD_REACTORS
330
2A
102
}
330
2A
100
AcDbProxyObject
 90
      499
 91
      501
 93
      500
310
424CD108121A5919195B90640502408333333333333E3BF0000000000000FB01079024090700405020000000000001110200405405064090740C02480A0340
1001
ACAD
1000
AcDbSavedByObjectVersion
1070
     0
  0
ACAD_PROXY_OBJECT
  5
30
102
{ACAD_REACTORS
330
2A
102
}
330
2A
100
AcDbProxyObject
 90
      499
 91
      501
 93
      436
310
42CCD915DA5C99599C985B595059028333333333333E3BF0000000000000FB0107901411070040501600405405064090741402480A0340
1001
ACAD
1000
AcDbSavedByObjectVersion
1070
     0
  0
ACAD_PROXY_OBJECT
  5
32
102
{ACAD_REACTORS
330
2A
102
}
330
2A
100
AcDbProxyObject
 90
      499
 91
      501
 93
      388
310
4150985CDA58D07406404333333333333E3BF0000000000000FB0107A41107004050150841D405064090741402480A0350
1001
ACAD
1000
AcDbSavedByObjectVersion
1070
     0
  0
ACAD_PROXY_OBJECT
  5
36
102
{ACAD_REACTORS
330
2A
102
}
330
2A
100
AcDbProxyObject
 90
      499
 91
      501
 93
      428
310
42109C9A59DA1D195B90C409028333333333333E3BF0000000000000FB010790141107004050150841D405064090741402480A029950
1001
ACAD
1000
AcDbSavedByObjectVersion
1070
     0
  0
ACAD_PROXY_OBJECT
  5
3A
102
{ACAD_REACTORS
330
2A
102
}
330
2A
100
AcDbProxyObject
 90
      499
 91
      501
 93
      452
310
42D0DBDB1BDC90DA185B99D95104090240C333333333333E3BF0000000000000FB0108901411070040501508421405064090741402480A0350
1001
ACAD
1000
AcDbSavedByObjectVersion
1070
     0
  0
ACAD_PROXY_OBJECT
  5
34
102
{ACAD_REACTORS
330
2A
102
}
330
2A
100
AcDbProxyObject
 90
      499
 91
      501
 93
      500
310
4290DBDB98D95C1D1D585B10940D028333333333333E3BF0000000000000FB0107902409070040501000000000000111010841D405064090740C02480A0340
1001
ACAD
1000
AcDbSavedByObjectVersion
1070
     0
  0
ACAD_PROXY_OBJECT
  5
35
102
{ACAD_REACTORS
330
2A
102
}
330
2A
100
AcDbProxyObject
 90
      499
 91
      501
 93
      412
310
40D11A5B50B409028333333333333E3BF0000000000000FB010790141107004050150841D405064090741402480A02677FFFFFD0
1001
ACAD
1000
AcDbSavedByObjectVersion
1070
     0
  0
ACAD_PROXY_OBJECT
  5
39
102
{ACAD_REACTORS
330
2A
102
}
330
2A
100
AcDbProxyObject
 90
      499
 91
      501
 93
      444
310
42D19858D95C185D1D195C9B90F409028333333333333E3BF0000000000000FB010790141107004050150841D405064090741402480A0350
1001
ACAD
1000
AcDbSavedByObjectVersion
1070
     0
  0
ACAD_PROXY_OBJECT
  5
2B
102
{ACAD_REACTORS
330
2A
102
}
330
2A
100
AcDbProxyObject
 90
      499
 91
      501
 93
      388
310
41119B185D240901404333333333333E3BF0000000000000F9010740A41107004050150841D405064090741402480A1B50
1001
ACAD
1000
AcDbSavedByObjectVersion
1070
     0
  0
ACAD_PROXY_OBJECT
  5
2C
102
{ACAD_REACTORS
330
2A
102
}
330
2A
100
AcDbProxyObject
 90
      499
 91
      501
 93
      476
310
43519B185D15DA5D1A115919D95CD0140901404333333333333E3BF0000000000000F9010740901411070040501600405405064090741402480A1B50
1001
ACAD
1000
AcDbSavedByObjectVersion
1070
     0
  0
ACAD_PROXY_OBJECT
  5
2D
102
{ACAD_REACTORS
330
2A
102
}
330
2A
100
AcDbProxyObject
 90
      499
 91
      501
 93
      412
310
41D1DBDD5C985D5910240902404333333333333E3BF0000000000000F9010740A411070040501641D405064090741402480A1B50
1001
ACAD
1000
AcDbSavedByObjectVersion
1070
     0
  0
ACAD_PROXY_OBJECT
  5
2E
102
{ACAD_REACTORS
330
2A
102
}
330
2A
100
AcDbProxyObject
 90
      499
 91
      501
 93
      500
310
4411DBDD5C985D5915DA5D1A115919D95CD0340902404333333333333E3BF0000000000000F9010740901411070040501600405405064090741402480A1B50
1001
ACAD
1000
AcDbSavedByObjectVersion
1070
     0
  0
ACAD_PROXY_OBJECT
  5
38
102
{ACAD_REACTORS
330
2A
102
}
330
2A
100
AcDbProxyObject
 90
      499
 91
      501
 93
      444
310
42D31A5B995C185D1D195C9B90E409028333333333333E3BF0000000000000FB010790141107004050750841D405064090741402483A0350
1001
ACAD
1000
AcDbSavedByObjectVersion
1070
     0
  0
ACAD_PROXY_OBJECT
  5
33
102
{ACAD_REACTORS
330
2A
102
}
330
2A
100
AcDbProxyObject
 90
      499
 91
      501
 93
      420
310
425499585B1A5CDD1A58D08409028333333333333E3BF0000000000000FB01079019070040501508421405064090741402480A1B40
1001
ACAD
1000
AcDbSavedByObjectVersion
1070
     0
  0
ACAD_PROXY_OBJECT
  5
37
102
{ACAD_REACTORS
330
2A
102
}
330
2A
100
AcDbProxyObject
 90
      499
 91
      501
 93
      412
310
41D51A1A58DAD95B90D409028333333333333E3BF0000000000000FB010790141107004050150C41D405064090741402480A0350
1001
ACAD
1000
AcDbSavedByObjectVersion
1070
     0
  0
XRECORD
  5
1F1
102
{ACAD_REACTORS
330
1E8
102
}
330
1E8
100
AcDbXrecord
 90
        0
  0
XRECORD
  5
207
102
{ACAD_REACTORS
330
1E8
102
}
330
1E8
100
AcDbXrecord
1000
DSTYLE
1002
{
1070
   340
340
11
1002
}
  0
XRECORD
  5
1F2
102
{ACAD_REACTORS
330
1E8
102
}
330
1E8
100
AcDbXrecord
  1
{1A1932CB-5A76-4C9A-9851-143A0F3E530E}
  0
XRECORD
  5
1EB
102
{ACAD_REACTORS
330
1E8
102
}
330
1E8
100
AcDbXrecord
  1

  0
XRECORD
  5
1F0
102
{ACAD_REACTORS
330
1E8
102
}
330
1E8
100
AcDbXrecord
 90
        4
  0
XRECORD
  5
1ED
102
{ACAD_REACTORS
330
1E8
102
}
330
1E8
100
AcDbXrecord
340
1A
  0
XRECORD
  5
1EF
102
{ACAD_REACTORS
330
1E8
102
}
330
1E8
100
AcDbXrecord
 90
    10781
  0
XRECORD
  5
1EE
102
{ACAD_REACTORS
330
1E8
102
}
330
1E8
100
AcDbXrecord
340
19
  0
XRECORD
  5
1F4
102
{ACAD_REACTORS
330
1E8
102
}
330
1E8
100
AcDbXrecord
 40
0.0
  0
XRECORD
  5
1F7
102
{ACAD_REACTORS
330
1E8
102
}
330
1E8
100
AcDbXrecord
340
0
  0
XRECORD
  5
1FD
102
{ACAD_REACTORS
330
1E8
102
}
330
1E8
100
AcDbXrecord
 10
0.0
 20
0.0
 30
0.0
  0
XRECORD
  5
1F9
102
{ACAD_REACTORS
330
1E8
102
}
330
1E8
100
AcDbXrecord
 10
0.0
 20
0.0
 30
0.0
  0
XRECORD
  5
1FC
102
{ACAD_REACTORS
330
1E8
102
}
330
1E8
100
AcDbXrecord
 10
0.0
 20
0.0
 30
0.0
  0
XRECORD
  5
1FA
102
{ACAD_REACTORS
330
1E8
102
}
330
1E8
100
AcDbXrecord
 10
0.0
 20
0.0
 30
0.0
  0
XRECORD
  5
1FB
102
{ACAD_REACTORS
330
1E8
102
}
330
1E8
100
AcDbXrecord
 10
0.0
 20
0.0
 30
0.0
  0
XRECORD
  5
1F8
102
{ACAD_REACTORS
330
1E8
102
}
330
1E8
100
AcDbXrecord
 10
0.0
 20
0.0
 30
0.0
  0
XRECORD
  5
1F5
102
{ACAD_REACTORS
330
1E8
102
}
330
1E8
100
AcDbXrecord
340
0
  0
XRECORD
  5
1F6
102
{ACAD_REACTORS
330
1E8
102
}
330
1E8
100
AcDbXrecord
 70
     0
  0
XRECORD
  5
1EC
102
{ACAD_REACTORS
330
1E8
102
}
330
1E8
100
AcDbXrecord
  1

  0
XRECORD
  5
1E9
102
{ACAD_REACTORS
330
1E8
102
}
330
1E8
100
AcDbXrecord
 90
        1
  0
XRECORD
  5
1EA
102
{ACAD_REACTORS
330
1E8
102
}
330
1E8
100
AcDbXrecord
 90
       70
  0
XRECORD
  5
200
102
{ACAD_REACTORS
330
1E8
102
}
330
1E8
100
AcDbXrecord
340
0
  0
XRECORD
  5
206
102
{ACAD_REACTORS
330
1E8
102
}
330
1E8
100
AcDbXrecord
 10
0.0
 20
0.0
 30
0.0
  0
XRECORD
  5
202
102
{ACAD_REACTORS
330
1E8
102
}
330
1E8
100
AcDbXrecord
 10
0.0
 20
0.0
 30
0.0
  0
XRECORD
  5
205
102
{ACAD_REACTORS
330
1E8
102
}
330
1E8
100
AcDbXrecord
 10
0.0
 20
0.0
 30
0.0
  0
XRECORD
  5
203
102
{ACAD_REACTORS
330
1E8
102
}
330
1E8
100
AcDbXrecord
 10
0.0
 20
0.0
 30
0.0
  0
XRECORD
  5
204
102
{ACAD_REACTORS
330
1E8
102
}
330
1E8
100
AcDbXrecord
 10
0.0
 20
0.0
 30
0.0
  0
XRECORD
  5
201
102
{ACAD_REACTORS
330
1E8
102
}
330
1E8
100
AcDbXrecord
 10
0.0
 20
0.0
 30
0.0
  0
XRECORD
  5
1FE
102
{ACAD_REACTORS
330
1E8
102
}
330
1E8
100
AcDbXrecord
340
0
  0
XRECORD
  5
1FF
102
{ACAD_REACTORS
330
1E8
102
}
330
1E8
100
AcDbXrecord
 70
     0
  0
XRECORD
  5
1F3
102
{ACAD_REACTORS
330
1E8
102
}
330
1E8
100
AcDbXrecord
  1
{FAEB1C32-E019-11D5-929B-00C0DF256EC4}
  0
DICTIONARYVAR
  5
20B
102
{ACAD_REACTORS
330
208
102
}
330
208
100
DictionaryVariables
280
     0
  1
2
  0
DICTIONARYVAR
  5
20C
102
{ACAD_REACTORS
330
208
102
}
330
208
100
DictionaryVariables
280
     0
  1
1
  0
DICTIONARY
  5
20F
330
3D
100
AcDbDictionary
280
     1
  3
ACAD_XREC_ROUNDTRIP
360
210
  0
DICTIONARY
  5
20D
330
3C
100
AcDbDictionary
280
     1
  3
ACAD_XREC_ROUNDTRIP
360
20E
  0
DICTIONARY
  5
211
330
3E
100
AcDbDictionary
280
     1
  3
ACAD_XREC_ROUNDTRIP
360
212
  0
XRECORD
  5
210
102
{ACAD_REACTORS
330
20F
102
}
330
20F
100
AcDbXrecord
102
MATERIAL
148
0.0
149
0.0
149
0.0
 93
        0
 94
      127
282
     0
 72
     1
 77
     1
171
     1
175
     1
179
     1
273
     0
  0
XRECORD
  5
20E
102
{ACAD_REACTORS
330
20D
102
}
330
20D
100
AcDbXrecord
102
MATERIAL
148
0.0
149
0.0
149
0.0
 93
        0
 94
      127
282
     0
 72
     1
 77
     1
171
     1
175
     1
179
     1
273
     0
  0
XRECORD
  5
212
102
{ACAD_REACTORS
330
211
102
}
330
211
100
AcDbXrecord
102
MATERIAL
148
0.0
149
0.0
149
0.0
 93
        0
 94
      127
282
     0
 72
     1
 77
     1
171
     1
175
     1
179
     1
273
     0
  0
ENDSEC
  0
EOF
