  0
SECTION
  2
HEADER
  9
$ACADVER
  1
AC1014
  9
$ACADMAINTVER
 70
     9
  9
$DWGCODEPAGE
  3
ANSI_1250
  9
$INSBASE
 10
0.0
 20
0.0
 30
0.0
  9
$EXTMIN
 10
-21.6362
 20
-20.173
 30
0.0
  9
$EXTMAX
 10
21.7772
 20
20.1659
 30
0.0
  9
$LIMMIN
 10
0.0
 20
0.0
  9
$LIMMAX
 10
12.0
 20
9.0
  9
$ORTHOMODE
 70
     0
  9
$REGENMODE
 70
     1
  9
$FILLMODE
 70
     1
  9
$QTEXTMODE
 70
     0
  9
$MIRRTEXT
 70
     1
  9
$DRAGMODE
 70
     2
  9
$LTSCALE
 40
1.0
  9
$OSMODE
 70
    37
  9
$ATTMODE
 70
     1
  9
$TEXTSIZE
 40
0.2
  9
$TRACEWID
 40
0.05
  9
$TEXTSTYLE
  7
STANDARD
  9
$CLAYER
  8
0
  9
$CELTYPE
  6
BYLAYER
  9
$CECOLOR
 62
   256
  9
$CELTSCALE
 40
1.0
  9
$DELOBJ
 70
     1
  9
$DISPSILH
 70
     0
  9
$DIMSCALE
 40
1.0
  9
$DIMASZ
 40
0.18
  9
$DIMEXO
 40
0.0625
  9
$DIMDLI
 40
0.38
  9
$DIMRND
 40
0.0
  9
$DIMDLE
 40
0.0
  9
$DIMEXE
 40
0.18
  9
$DIMTP
 40
0.0
  9
$DIMTM
 40
0.0
  9
$DIMTXT
 40
0.18
  9
$DIMCEN
 40
0.09
  9
$DIMTSZ
 40
0.0
  9
$DIMTOL
 70
     0
  9
$DIMLIM
 70
     0
  9
$DIMTIH
 70
     1
  9
$DIMTOH
 70
     1
  9
$DIMSE1
 70
     0
  9
$DIMSE2
 70
     0
  9
$DIMTAD
 70
     0
  9
$DIMZIN
 70
     0
  9
$DIMBLK
  1

  9
$DIMASO
 70
     1
  9
$DIMSHO
 70
     1
  9
$DIMPOST
  1

  9
$DIMAPOST
  1

  9
$DIMALT
 70
     0
  9
$DIMALTD
 70
     2
  9
$DIMALTF
 40
25.4
  9
$DIMLFAC
 40
1.0
  9
$DIMTOFL
 70
     0
  9
$DIMTVP
 40
0.0
  9
$DIMTIX
 70
     0
  9
$DIMSOXD
 70
     0
  9
$DIMSAH
 70
     0
  9
$DIMBLK1
  1

  9
$DIMBLK2
  1

  9
$DIMSTYLE
  2
STANDARD
  9
$DIMCLRD
 70
     0
  9
$DIMCLRE
 70
     0
  9
$DIMCLRT
 70
     0
  9
$DIMTFAC
 40
1.0
  9
$DIMGAP
 40
0.09
  9
$DIMJUST
 70
     0
  9
$DIMSD1
 70
     0
  9
$DIMSD2
 70
     0
  9
$DIMTOLJ
 70
     1
  9
$DIMTZIN
 70
     0
  9
$DIMALTZ
 70
     0
  9
$DIMALTTZ
 70
     0
  9
$DIMFIT
 70
     3
  9
$DIMUPT
 70
     0
  9
$DIMUNIT
 70
     2
  9
$DIMDEC
 70
     4
  9
$DIMTDEC
 70
     4
  9
$DIMALTU
 70
     2
  9
$DIMALTTD
 70
     2
  9
$DIMTXSTY
  7
STANDARD
  9
$DIMAUNIT
 70
     0
  9
$LUNITS
 70
     2
  9
$LUPREC
 70
     4
  9
$SKETCHINC
 40
0.1
  9
$FILLETRAD
 40
0.5
  9
$AUNITS
 70
     0
  9
$AUPREC
 70
     0
  9
$MENU
  1
.
  9
$ELEVATION
 40
0.0
  9
$PELEVATION
 40
0.0
  9
$THICKNESS
 40
0.0
  9
$LIMCHECK
 70
     0
  9
$CHAMFERA
 40
0.5
  9
$CHAMFERB
 40
0.5
  9
$CHAMFERC
 40
1.0
  9
$CHAMFERD
 40
0.0
  9
$SKPOLY
 70
     0
  9
$TDCREATE
 40
2456268.578857245
  9
$TDUPDATE
 40
2456268.578857257
  9
$TDINDWG
 40
0.0000000116
  9
$TDUSRTIMER
 40
0.0000000116
  9
$USRTIMER
 70
     1
  9
$ANGBASE
 50
0.0
  9
$ANGDIR
 70
     0
  9
$PDMODE
 70
     0
  9
$PDSIZE
 40
0.0
  9
$PLINEWID
 40
0.0
  9
$COORDS
 70
     1
  9
$SPLFRAME
 70
     0
  9
$SPLINETYPE
 70
     6
  9
$SPLINESEGS
 70
     8
  9
$ATTDIA
 70
     0
  9
$ATTREQ
 70
     1
  9
$HANDLING
 70
     1
  9
$HANDSEED
  5
188
  9
$SURFTAB1
 70
     6
  9
$SURFTAB2
 70
     6
  9
$SURFTYPE
 70
     6
  9
$SURFU
 70
     6
  9
$SURFV
 70
     6
  9
$UCSNAME
  2

  9
$UCSORG
 10
0.0
 20
0.0
 30
0.0
  9
$UCSXDIR
 10
1.0
 20
0.0
 30
0.0
  9
$UCSYDIR
 10
0.0
 20
1.0
 30
0.0
  9
$PUCSNAME
  2

  9
$PUCSORG
 10
0.0
 20
0.0
 30
0.0
  9
$PUCSXDIR
 10
1.0
 20
0.0
 30
0.0
  9
$PUCSYDIR
 10
0.0
 20
1.0
 30
0.0
  9
$USERI1
 70
     0
  9
$USERI2
 70
     0
  9
$USERI3
 70
     0
  9
$USERI4
 70
     0
  9
$USERI5
 70
     0
  9
$USERR1
 40
0.0
  9
$USERR2
 40
0.0
  9
$USERR3
 40
0.0
  9
$USERR4
 40
0.0
  9
$USERR5
 40
0.0
  9
$WORLDVIEW
 70
     1
  9
$SHADEDGE
 70
     3
  9
$SHADEDIF
 70
    70
  9
$TILEMODE
 70
     1
  9
$MAXACTVP
 70
    64
  9
$PINSBASE
 10
0.0
 20
0.0
 30
0.0
  9
$PLIMCHECK
 70
     0
  9
$PEXTMIN
 10
1.000000000000000E+20
 20
1.000000000000000E+20
 30
1.000000000000000E+20
  9
$PEXTMAX
 10
-1.000000000000000E+20
 20
-1.000000000000000E+20
 30
-1.000000000000000E+20
  9
$PLIMMIN
 10
0.0
 20
0.0
  9
$PLIMMAX
 10
12.0
 20
9.0
  9
$UNITMODE
 70
     0
  9
$VISRETAIN
 70
     1
  9
$PLINEGEN
 70
     0
  9
$PSLTSCALE
 70
     1
  9
$TREEDEPTH
 70
  3020
  9
$PICKSTYLE
 70
     1
  9
$CMLSTYLE
  2
STANDARD
  9
$CMLJUST
 70
     0
  9
$CMLSCALE
 40
1.0
  9
$PROXYGRAPHICS
 70
     1
  9
$MEASUREMENT
 70
     0
  0
ENDSEC
  0
SECTION
  2
CLASSES
  0
CLASS
  1
ACDBDICTIONARYWDFLT
  2
AcDbDictionaryWithDefault
  3
ObjectDBX Classes
 90
        0
280
     0
281
     0
  0
CLASS
  1
VISUALSTYLE
  2
AcDbVisualStyle
  3
ObjectDBX Classes
 90
     4095
280
     0
281
     0
  0
CLASS
  1
MATERIAL
  2
AcDbMaterial
  3
ObjectDBX Classes
 90
     1153
280
     0
281
     0
  0
CLASS
  1
DICTIONARYVAR
  2
AcDbDictionaryVar
  3
ObjectDBX Classes
 90
        0
280
     0
281
     0
  0
CLASS
  1
XRECORD
  2
AcDbXrecord
  3
AutoCAD 2000
 90
        0
280
     0
281
     0
  0
CLASS
  1
LWPOLYLINE
  2
AcDbPolyline
  3
AutoCAD 2000
 90
        0
280
     0
281
     1
  0
CLASS
  1
HATCH
  2
AcDbHatch
  3
AutoCAD 2000
 90
        0
280
     0
281
     1
  0
CLASS
  1
ACDBPLACEHOLDER
  2
AcDbPlaceHolder
  3
ObjectDBX Classes
 90
        0
280
     0
281
     0
  0
CLASS
  1
LAYOUT
  2
AcDbLayout
  3
ObjectDBX Classes
 90
        0
280
     0
281
     0
  0
ENDSEC
  0
SECTION
  2
TABLES
  0
TABLE
  2
VPORT
  5
8
330
0
100
AcDbSymbolTable
 70
     1
  0
VPORT
  5
29
330
8
100
AcDbSymbolTableRecord
100
AcDbViewportTableRecord
  2
*ACTIVE
 70
     0
 10
0.0
 20
0.0
 11
1.0
 21
1.0
 12
10.42990654205607
 22
4.5
 13
0.0
 23
0.0
 14
0.5
 24
0.5
 15
0.5
 25
0.5
 16
0.0
 26
0.0
 36
1.0
 17
0.0
 27
0.0
 37
0.0
 40
9.0
 41
1.972972972850329
 42
50.0
 43
0.0
 44
0.0
 50
0.0
 51
0.0
 71
     0
 72
   100
 73
     1
 74
     3
 75
     0
 76
     0
 77
     0
 78
     0
  0
ENDTAB
  0
TABLE
  2
LTYPE
  5
5
330
0
100
AcDbSymbolTable
 70
     2
  0
LTYPE
  5
14
330
5
100
AcDbSymbolTableRecord
100
AcDbLinetypeTableRecord
  2
BYBLOCK
 70
     0
  3

 72
    65
 73
     0
 40
0.0
  0
LTYPE
  5
15
330
5
100
AcDbSymbolTableRecord
100
AcDbLinetypeTableRecord
  2
BYLAYER
 70
     0
  3

 72
    65
 73
     0
 40
0.0
  0
LTYPE
  5
16
330
5
100
AcDbSymbolTableRecord
100
AcDbLinetypeTableRecord
  2
CONTINUOUS
 70
     0
  3
Solid line
 72
    65
 73
     0
 40
0.0
  0
LTYPE
  5
66
330
5
100
AcDbSymbolTableRecord
100
AcDbLinetypeTableRecord
  2
NEW_LINE1
 70
     0
  3

 72
    65
 73
     4
 40
1.2
 49
0.5
 74
     4
 75
     0
340
0
 46
1.0
 50
0.0
 44
0.0
 45
0.0
 49
-0.3
 74
     4
 75
     0
340
0
 46
1.0
 50
0.0
 44
0.0
 45
0.0
 49
0.1
 74
     4
 75
     0
340
0
 46
1.0
 50
0.0
 44
0.0
 45
0.0
 49
-0.3
 74
     4
 75
     0
340
0
 46
1.0
 50
0.0
 44
0.0
 45
0.0
  0
ENDTAB
  0
TABLE
  2
LAYER
  5
2
330
0
100
AcDbSymbolTable
 70
     2
  0
LAYER
  5
10
330
2
100
AcDbSymbolTableRecord
100
AcDbLayerTableRecord
  2
0
 70
     0
 62
     7
  6
CONTINUOUS
  0
LAYER
  5
40
330
2
100
AcDbSymbolTableRecord
100
AcDbLayerTableRecord
  2
DEFAULT_1
 70
     0
 62
     7
  6
CONTINUOUS
  0
ENDTAB
  0
TABLE
  2
STYLE
  5
3
330
0
100
AcDbSymbolTable
 70
     1
  0
STYLE
  5
11
330
3
100
AcDbSymbolTableRecord
100
AcDbTextStyleTableRecord
  2
STANDARD
 70
     0
 40
0.0
 41
1.0
 50
0.0
 71
     0
 42
0.2
  3
txt
  4

  0
ENDTAB
  0
TABLE
  2
VIEW
  5
6
330
0
100
AcDbSymbolTable
 70
     0
  0
ENDTAB
  0
TABLE
  2
UCS
  5
7
330
0
100
AcDbSymbolTable
 70
     0
  0
ENDTAB
  0
TABLE
  2
APPID
  5
9
330
0
100
AcDbSymbolTable
 70
     2
  0
APPID
  5
12
330
9
100
AcDbSymbolTableRecord
100
AcDbRegAppTableRecord
  2
ACAD
 70
     0
  0
APPID
  5
3F
330
9
100
AcDbSymbolTableRecord
100
AcDbRegAppTableRecord
  2
ODA
 70
     0
  0
ENDTAB
  0
TABLE
  2
DIMSTYLE
  5
A
330
0
100
AcDbSymbolTable
 70
     1
  0
DIMSTYLE
105
27
330
A
100
AcDbSymbolTableRecord
100
AcDbDimStyleTableRecord
  2
STANDARD
 70
     0
  3

  4

  5

  6

  7

 40
1.0
 41
0.18
 42
0.0625
 43
0.38
 44
0.18
 45
0.0
 46
0.0
 47
0.0
 48
0.0
140
0.18
141
0.09
142
0.0
143
25.4
144
1.0
145
0.0
146
1.0
147
0.09
 71
     0
 72
     0
 73
     1
 74
     1
 75
     0
 76
     0
 77
     0
 78
     0
170
     0
171
     2
172
     0
173
     0
174
     0
175
     0
176
     0
177
     0
178
     0
270
     2
271
     4
272
     4
273
     2
274
     2
340
11
275
     0
280
     0
281
     0
282
     0
283
     1
284
     0
285
     0
286
     0
287
     3
288
     0
  0
ENDTAB
  0
TABLE
  2
BLOCK_RECORD
  5
1
330
0
100
AcDbSymbolTable
 70
     1
  0
BLOCK_RECORD
  5
1F
330
1
100
AcDbSymbolTableRecord
100
AcDbBlockTableRecord
  2
*MODEL_SPACE
  0
BLOCK_RECORD
  5
1B
330
1
100
AcDbSymbolTableRecord
100
AcDbBlockTableRecord
  2
*PAPER_SPACE
  0
ENDTAB
  0
ENDSEC
  0
SECTION
  2
BLOCKS
  0
BLOCK
  5
20
330
1F
100
AcDbEntity
  8
0
100
AcDbBlockBegin
  2
*MODEL_SPACE
 70
     0
 10
0.0
 20
0.0
 30
0.0
  3
*MODEL_SPACE
  1

  0
ENDBLK
  5
21
330
1F
100
AcDbEntity
  8
0
100
AcDbBlockEnd
  0
BLOCK
  5
1C
330
1B
100
AcDbEntity
 67
     1
  8
0
100
AcDbBlockBegin
  2
*PAPER_SPACE
 70
     0
 10
0.0
 20
0.0
 30
0.0
  3
*PAPER_SPACE
  1

  0
ENDBLK
  5
1D
330
1B
100
AcDbEntity
 67
     1
  8
0
100
AcDbBlockEnd
  0
ENDSEC
  0
SECTION
  2
ENTITIES
  0
SPLINE
  5
41
330
1F
100
AcDbEntity
  8
DEFAULT_1
 62
   250
100
AcDbSpline
210
0.0
220
0.0
230
1.0
 70
    24
 71
     3
 72
     8
 73
     4
 74
     0
 42
0.0000000001
 43
0.0000000001
 40
0.0
 40
0.0
 40
0.0
 40
0.0
 40
1.0
 40
1.0
 40
1.0
 40
1.0
 10
-4.1965
 20
-0.0678
 30
0.0
 10
-4.1965
 20
-0.0678
 30
0.0
 10
-19.6506
 20
-0.0678
 30
0.0
 10
-19.6506
 20
-0.0678
 30
0.0
  0
SPLINE
  5
42
330
1F
100
AcDbEntity
  8
DEFAULT_1
 62
   250
100
AcDbSpline
210
0.0
220
0.0
230
1.0
 70
    24
 71
     3
 72
     8
 73
     4
 74
     0
 42
0.0000000001
 43
0.0000000001
 40
0.0
 40
0.0
 40
0.0
 40
0.0
 40
1.0
 40
1.0
 40
1.0
 40
1.0
 10
-3.5621
 20
-9.223
 30
0.0
 10
-3.5621
 20
-9.223
 30
0.0
 10
-19.4739
 20
-9.223
 30
0.0
 10
-19.4739
 20
-9.223
 30
0.0
  0
SPLINE
  5
43
330
1F
100
AcDbEntity
  8
DEFAULT_1
 62
   250
100
AcDbSpline
210
0.0
220
0.0
230
1.0
 70
    24
 71
     3
 72
     8
 73
     4
 74
     0
 42
0.0000000001
 43
0.0000000001
 40
0.0
 40
0.0
 40
0.0
 40
0.0
 40
1.0
 40
1.0
 40
1.0
 40
1.0
 10
-18.97
 20
13.4034
 30
0.0
 10
-18.97
 20
13.4034
 30
0.0
 10
-18.97
 20
-8.3925
 30
0.0
 10
-18.97
 20
-8.3925
 30
0.0
  0
SPLINE
  5
44
330
1F
100
AcDbEntity
  8
DEFAULT_1
 62
   250
100
AcDbSpline
210
0.0
220
0.0
230
1.0
 70
    24
 71
     3
 72
     8
 73
     4
 74
     0
 42
0.0000000001
 43
0.0000000001
 40
0.0
 40
0.0
 40
0.0
 40
0.0
 40
1.0
 40
1.0
 40
1.0
 40
1.0
 10
-15.2625
 20
13.5893
 30
0.0
 10
-15.2625
 20
13.5893
 30
0.0
 10
-15.2625
 20
18.1616
 30
0.0
 10
-15.2625
 20
18.1616
 30
0.0
  0
SPLINE
  5
45
330
1F
100
AcDbEntity
  8
DEFAULT_1
 62
   250
100
AcDbSpline
210
0.0
220
0.0
230
1.0
 70
    24
 71
     3
 72
     8
 73
     4
 74
     0
 42
0.0000000001
 43
0.0000000001
 40
0.0
 40
0.0
 40
0.0
 40
0.0
 40
1.0
 40
1.0
 40
1.0
 40
1.0
 10
-3.251
 20
-20.166
 30
0.0
 10
-3.251
 20
-20.166
 30
0.0
 10
-3.251
 20
-9.418
 30
0.0
 10
-3.251
 20
-9.418
 30
0.0
  0
SPLINE
  5
46
330
1F
100
AcDbEntity
  8
DEFAULT_1
 62
   250
100
AcDbSpline
210
0.0
220
0.0
230
1.0
 70
    24
 71
     3
 72
     8
 73
     4
 74
     0
 42
0.0000000001
 43
0.0000000001
 40
0.0
 40
0.0
 40
0.0
 40
0.0
 40
1.0
 40
1.0
 40
1.0
 40
1.0
 10
21.6189
 20
13.7216
 30
0.0
 10
21.6189
 20
13.7216
 30
0.0
 10
21.6189
 20
18.5144
 30
0.0
 10
21.6189
 20
18.5144
 30
0.0
  0
SPLINE
  5
47
330
1F
100
AcDbEntity
  8
DEFAULT_1
 62
   250
100
AcDbSpline
210
0.0
220
0.0
230
1.0
 70
    24
 71
     3
 72
     8
 73
     4
 74
     0
 42
0.0000000001
 43
0.0000000001
 40
0.0
 40
0.0
 40
0.0
 40
0.0
 40
1.0
 40
1.0
 40
1.0
 40
1.0
 10
9.6196
 20
-19.9897
 30
0.0
 10
9.6196
 20
-19.9897
 30
0.0
 10
9.6196
 20
-9.2432
 30
0.0
 10
9.6196
 20
-9.2432
 30
0.0
  0
SPLINE
  5
48
330
1F
100
AcDbEntity
  8
DEFAULT_1
 62
   250
100
AcDbSpline
210
0.0
220
0.0
230
1.0
 70
    24
 71
     3
 72
     8
 73
     4
 74
     0
 42
0.0000000001
 43
0.0000000001
 40
0.0
 40
0.0
 40
0.0
 40
0.0
 40
1.0
 40
1.0
 40
1.0
 40
1.0
 10
20.642
 20
17.5846
 30
0.0
 10
20.642
 20
17.5846
 30
0.0
 10
-14.7588
 20
17.5846
 30
0.0
 10
-14.7588
 20
17.5846
 30
0.0
  0
SPLINE
  5
49
330
1F
100
AcDbEntity
  8
DEFAULT_1
 62
   250
100
AcDbSpline
210
0.0
220
0.0
230
1.0
 70
    24
 71
     3
 72
     8
 73
     4
 74
     0
 42
0.0000000001
 43
0.0000000001
 40
0.0
 40
0.0
 40
0.0
 40
0.0
 40
1.0
 40
1.0
 40
1.0
 40
1.0
 10
8.8527
 20
-19.6429
 30
0.0
 10
8.8527
 20
-19.6429
 30
0.0
 10
-2.3259
 20
-19.6429
 30
0.0
 10
-2.3259
 20
-19.6429
 30
0.0
  0
SPLINE
  5
4A
330
1F
100
AcDbEntity
  8
DEFAULT_1
 62
   250
100
AcDbSpline
210
0.0
220
0.0
230
1.0
 70
    24
 71
     3
 72
     8
 73
     4
 74
     0
 42
0.0000000001
 43
0.0000000001
 40
0.0
 40
0.0
 40
0.0
 40
0.0
 40
1.0
 40
1.0
 40
1.0
 40
1.0
 10
-15.623
 20
13.4035
 30
0.0
 10
-15.623
 20
13.4035
 30
0.0
 10
-19.6825
 20
13.4035
 30
0.0
 10
-19.6825
 20
13.4035
 30
0.0
  0
SPLINE
  5
4B
330
1F
100
AcDbEntity
  8
DEFAULT_1
 62
   250
100
AcDbSpline
210
0.0
220
0.0
230
1.0
 70
    11
 71
     3
 72
    48
 73
    44
 74
     0
 42
0.0000000001
 43
0.0000000001
 40
0.0
 40
0.0
 40
0.0
 40
0.0
 40
0.0833333333333333
 40
0.0833333333333333
 40
0.0833333333333333
 40
0.0833333333333333
 40
0.1666666666666667
 40
0.1666666666666667
 40
0.1666666666666667
 40
0.1666666666666667
 40
0.25
 40
0.25
 40
0.25
 40
0.25
 40
0.3333333333333333
 40
0.3333333333333333
 40
0.3333333333333333
 40
0.3333333333333333
 40
0.4166666666666667
 40
0.4166666666666667
 40
0.4166666666666667
 40
0.4166666666666667
 40
0.5
 40
0.5
 40
0.5
 40
0.5
 40
0.5833333333333334
 40
0.5833333333333334
 40
0.5833333333333334
 40
0.5833333333333334
 40
0.6666666666666666
 40
0.6666666666666666
 40
0.6666666666666666
 40
0.6666666666666666
 40
0.75
 40
0.75
 40
0.75
 40
0.75
 40
0.8333333333333334
 40
0.8333333333333334
 40
0.8333333333333334
 40
0.8333333333333334
 40
1.0
 40
1.0
 40
1.0
 40
1.0
 10
-21.2036
 20
6.0259
 30
0.0
 10
-21.2036
 20
6.0259
 30
0.0
 10
-21.4421
 20
6.0259
 30
0.0
 10
-21.4421
 20
6.0259
 30
0.0
 10
-21.4421
 20
6.0259
 30
0.0
 10
-21.4421
 20
6.0259
 30
0.0
 10
-21.4421
 20
7.3335
 30
0.0
 10
-21.4421
 20
7.3335
 30
0.0
 10
-21.4421
 20
7.3335
 30
0.0
 10
-21.4421
 20
7.3335
 30
0.0
 10
-21.2492
 20
7.3335
 30
0.0
 10
-21.2492
 20
7.3335
 30
0.0
 10
-21.2492
 20
7.3335
 30
0.0
 10
-21.1124
 20
7.2051
 30
0.0
 10
-20.9303
 20
7.0776
 30
0.0
 10
-20.7036
 20
6.9511
 30
0.0
 10
-20.7036
 20
6.9511
 30
0.0
 10
-20.4769
 20
6.825
 30
0.0
 10
-20.2431
 20
6.7272
 30
0.0
 10
-20.0037
 20
6.6585
 30
0.0
 10
-20.0037
 20
6.6585
 30
0.0
 10
-19.8344
 20
6.6087
 30
0.0
 10
-19.6495
 20
6.5772
 30
0.0
 10
-19.4482
 20
6.5635
 30
0.0
 10
-19.4482
 20
6.5635
 30
0.0
 10
-19.4482
 20
6.5635
 30
0.0
 10
-19.4482
 20
6.3086
 30
0.0
 10
-19.4482
 20
6.3086
 30
0.0
 10
-19.4482
 20
6.3086
 30
0.0
 10
-19.6072
 20
6.3114
 30
0.0
 10
-19.7991
 20
6.3424
 30
0.0
 10
-20.0244
 20
6.4022
 30
0.0
 10
-20.0244
 20
6.4022
 30
0.0
 10
-20.2492
 20
6.4619
 30
0.0
 10
-20.4665
 20
6.5475
 30
0.0
 10
-20.6754
 20
6.659
 30
0.0
 10
-20.6754
 20
6.659
 30
0.0
 10
-20.8842
 20
6.7709
 30
0.0
 10
-21.0606
 20
6.8895
 30
0.0
 10
-21.2036
 20
7.0155
 30
0.0
 10
-21.2036
 20
7.0155
 30
0.0
 10
-21.2036
 20
7.0155
 30
0.0
 10
-21.2036
 20
6.0259
 30
0.0
 10
-21.2036
 20
6.0259
 30
0.0
  0
SPLINE
  5
4C
330
1F
100
AcDbEntity
  8
DEFAULT_1
 62
   250
100
AcDbSpline
210
0.0
220
0.0
230
1.0
 70
    11
 71
     3
 72
    92
 73
    88
 74
     0
 42
0.0000000001
 43
0.0000000001
 40
0.0
 40
0.0
 40
0.0
 40
0.0
 40
0.0434782608695652
 40
0.0434782608695652
 40
0.0434782608695652
 40
0.0434782608695652
 40
0.0869565217391304
 40
0.0869565217391304
 40
0.0869565217391304
 40
0.0869565217391304
 40
0.1304347826086956
 40
0.1304347826086956
 40
0.1304347826086956
 40
0.1304347826086956
 40
0.1739130434782609
 40
0.1739130434782609
 40
0.1739130434782609
 40
0.1739130434782609
 40
0.2173913043478261
 40
0.2173913043478261
 40
0.2173913043478261
 40
0.2173913043478261
 40
0.2608695652173913
 40
0.2608695652173913
 40
0.2608695652173913
 40
0.2608695652173913
 40
0.3043478260869565
 40
0.3043478260869565
 40
0.3043478260869565
 40
0.3043478260869565
 40
0.3478260869565217
 40
0.3478260869565217
 40
0.3478260869565217
 40
0.3478260869565217
 40
0.391304347826087
 40
0.391304347826087
 40
0.391304347826087
 40
0.391304347826087
 40
0.4347826086956522
 40
0.4347826086956522
 40
0.4347826086956522
 40
0.4347826086956522
 40
0.4782608695652174
 40
0.4782608695652174
 40
0.4782608695652174
 40
0.4782608695652174
 40
0.5217391304347826
 40
0.5217391304347826
 40
0.5217391304347826
 40
0.5217391304347826
 40
0.5652173913043478
 40
0.5652173913043478
 40
0.5652173913043478
 40
0.5652173913043478
 40
0.6086956521739131
 40
0.6086956521739131
 40
0.6086956521739131
 40
0.6086956521739131
 40
0.6521739130434783
 40
0.6521739130434783
 40
0.6521739130434783
 40
0.6521739130434783
 40
0.6956521739130435
 40
0.6956521739130435
 40
0.6956521739130435
 40
0.6956521739130435
 40
0.7391304347826086
 40
0.7391304347826086
 40
0.7391304347826086
 40
0.7391304347826086
 40
0.782608695652174
 40
0.782608695652174
 40
0.782608695652174
 40
0.782608695652174
 40
0.8260869565217391
 40
0.8260869565217391
 40
0.8260869565217391
 40
0.8260869565217391
 40
0.8695652173913043
 40
0.8695652173913043
 40
0.8695652173913043
 40
0.8695652173913043
 40
0.9130434782608695
 40
0.9130434782608695
 40
0.9130434782608695
 40
0.9130434782608695
 40
1.0
 40
1.0
 40
1.0
 40
1.0
 10
-19.9153
 20
7.6162
 30
0.0
 10
-19.9153
 20
7.6162
 30
0.0
 10
-19.9374
 20
7.8547
 30
0.0
 10
-19.9374
 20
7.8547
 30
0.0
 10
-19.9374
 20
7.8547
 30
0.0
 10
-19.8254
 20
7.8749
 30
0.0
 10
-19.7441
 20
7.9135
 30
0.0
 10
-19.6933
 20
7.9704
 30
0.0
 10
-19.6933
 20
7.9704
 30
0.0
 10
-19.6429
 20
8.0273
 30
0.0
 10
-19.6175
 20
8.1002
 30
0.0
 10
-19.6175
 20
8.1896
 30
0.0
 10
-19.6175
 20
8.1896
 30
0.0
 10
-19.6175
 20
8.2658
 30
0.0
 10
-19.6349
 20
8.3325
 30
0.0
 10
-19.6702
 20
8.3899
 30
0.0
 10
-19.6702
 20
8.3899
 30
0.0
 10
-19.705
 20
8.4473
 30
0.0
 10
-19.7516
 20
8.4944
 30
0.0
 10
-19.8099
 20
8.531
 30
0.0
 10
-19.8099
 20
8.531
 30
0.0
 10
-19.8682
 20
8.5682
 30
0.0
 10
-19.9473
 20
8.5988
 30
0.0
 10
-20.046
 20
8.6237
 30
0.0
 10
-20.046
 20
8.6237
 30
0.0
 10
-20.1453
 20
8.6482
 30
0.0
 10
-20.2464
 20
8.6609
 30
0.0
 10
-20.3494
 20
8.6609
 30
0.0
 10
-20.3494
 20
8.6609
 30
0.0
 10
-20.3602
 20
8.6609
 30
0.0
 10
-20.3772
 20
8.6604
 30
0.0
 10
-20.3988
 20
8.6595
 30
0.0
 10
-20.3988
 20
8.6595
 30
0.0
 10
-20.3203
 20
8.6096
 30
0.0
 10
-20.2558
 20
8.5419
 30
0.0
 10
-20.2069
 20
8.4563
 30
0.0
 10
-20.2069
 20
8.4563
 30
0.0
 10
-20.1575
 20
8.3702
 30
0.0
 10
-20.1331
 20
8.277
 30
0.0
 10
-20.1331
 20
8.1773
 30
0.0
 10
-20.1331
 20
8.1773
 30
0.0
 10
-20.1331
 20
8.0099
 30
0.0
 10
-20.1937
 20
7.8683
 30
0.0
 10
-20.3151
 20
7.7526
 30
0.0
 10
-20.3151
 20
7.7526
 30
0.0
 10
-20.4364
 20
7.6369
 30
0.0
 10
-20.5959
 20
7.579
 30
0.0
 10
-20.7944
 20
7.579
 30
0.0
 10
-20.7944
 20
7.579
 30
0.0
 10
-20.9995
 20
7.579
 30
0.0
 10
-21.1641
 20
7.6392
 30
0.0
 10
-21.2892
 20
7.7601
 30
0.0
 10
-21.2892
 20
7.7601
 30
0.0
 10
-21.4143
 20
7.881
 30
0.0
 10
-21.4769
 20
8.0325
 30
0.0
 10
-21.4769
 20
8.2145
 30
0.0
 10
-21.4769
 20
8.2145
 30
0.0
 10
-21.4769
 20
8.3457
 30
0.0
 10
-21.4411
 20
8.4657
 30
0.0
 10
-21.3706
 20
8.5748
 30
0.0
 10
-21.3706
 20
8.5748
 30
0.0
 10
-21.3
 20
8.6834
 30
0.0
 10
-21.1989
 20
8.7662
 30
0.0
 10
-21.0681
 20
8.8227
 30
0.0
 10
-21.0681
 20
8.8227
 30
0.0
 10
-20.9374
 20
8.8791
 30
0.0
 10
-20.7478
 20
8.9073
 30
0.0
 10
-20.4995
 20
8.9073
 30
0.0
 10
-20.4995
 20
8.9073
 30
0.0
 10
-20.2417
 20
8.9073
 30
0.0
 10
-20.0362
 20
8.8796
 30
0.0
 10
-19.8828
 20
8.8236
 30
0.0
 10
-19.8828
 20
8.8236
 30
0.0
 10
-19.7299
 20
8.7672
 30
0.0
 10
-19.6138
 20
8.6839
 30
0.0
 10
-19.5338
 20
8.5734
 30
0.0
 10
-19.5338
 20
8.5734
 30
0.0
 10
-19.4538
 20
8.4624
 30
0.0
 10
-19.4139
 20
8.333
 30
0.0
 10
-19.4139
 20
8.1839
 30
0.0
 10
-19.4139
 20
8.1839
 30
0.0
 10
-19.4139
 20
8.0259
 30
0.0
 10
-19.4576
 20
7.897
 30
0.0
 10
-19.5456
 20
7.7968
 30
0.0
 10
-19.5456
 20
7.7968
 30
0.0
 10
-19.6331
 20
7.6966
 30
0.0
 10
-19.7563
 20
7.6364
 30
0.0
 10
-19.9153
 20
7.6162
 30
0.0
  0
SPLINE
  5
4D
330
1F
100
AcDbEntity
  8
DEFAULT_1
 62
   250
100
AcDbSpline
210
0.0
220
0.0
230
1.0
 70
    11
 71
     3
 72
    36
 73
    32
 74
     0
 42
0.0000000001
 43
0.0000000001
 40
0.0
 40
0.0
 40
0.0
 40
0.0
 40
0.1111111111111111
 40
0.1111111111111111
 40
0.1111111111111111
 40
0.1111111111111111
 40
0.2222222222222222
 40
0.2222222222222222
 40
0.2222222222222222
 40
0.2222222222222222
 40
0.3333333333333333
 40
0.3333333333333333
 40
0.3333333333333333
 40
0.3333333333333333
 40
0.4444444444444444
 40
0.4444444444444444
 40
0.4444444444444444
 40
0.4444444444444444
 40
0.5555555555555556
 40
0.5555555555555556
 40
0.5555555555555556
 40
0.5555555555555556
 40
0.6666666666666666
 40
0.6666666666666666
 40
0.6666666666666666
 40
0.6666666666666666
 40
0.7777777777777778
 40
0.7777777777777778
 40
0.7777777777777778
 40
0.7777777777777778
 40
1.0
 40
1.0
 40
1.0
 40
1.0
 10
-20.8071
 20
8.6317
 30
0.0
 10
-20.9491
 20
8.6317
 30
0.0
 10
-21.0625
 20
8.5941
 30
0.0
 10
-21.1458
 20
8.5183
 30
0.0
 10
-21.1458
 20
8.5183
 30
0.0
 10
-21.2295
 20
8.4421
 30
0.0
 10
-21.2713
 20
8.3514
 30
0.0
 10
-21.2713
 20
8.2446
 30
0.0
 10
-21.2713
 20
8.2446
 30
0.0
 10
-21.2713
 20
8.1345
 30
0.0
 10
-21.2262
 20
8.0386
 30
0.0
 10
-21.1363
 20
7.9567
 30
0.0
 10
-21.1363
 20
7.9567
 30
0.0
 10
-21.046
 20
7.8749
 30
0.0
 10
-20.9294
 20
7.834
 30
0.0
 10
-20.7864
 20
7.834
 30
0.0
 10
-20.7864
 20
7.834
 30
0.0
 10
-20.6575
 20
7.834
 30
0.0
 10
-20.5531
 20
7.873
 30
0.0
 10
-20.4727
 20
7.9506
 30
0.0
 10
-20.4727
 20
7.9506
 30
0.0
 10
-20.3922
 20
8.0282
 30
0.0
 10
-20.3522
 20
8.1237
 30
0.0
 10
-20.3522
 20
8.2375
 30
0.0
 10
-20.3522
 20
8.2375
 30
0.0
 10
-20.3522
 20
8.3528
 30
0.0
 10
-20.3922
 20
8.4468
 30
0.0
 10
-20.4727
 20
8.5207
 30
0.0
 10
-20.4727
 20
8.5207
 30
0.0
 10
-20.5531
 20
8.595
 30
0.0
 10
-20.6646
 20
8.6317
 30
0.0
 10
-20.8071
 20
8.6317
 30
0.0
  0
SPLINE
  5
4E
330
1F
100
AcDbEntity
  8
DEFAULT_1
 62
   250
100
AcDbSpline
210
0.0
220
0.0
230
1.0
 70
    11
 71
     3
 72
    92
 73
    88
 74
     0
 42
0.0000000001
 43
0.0000000001
 40
0.0
 40
0.0
 40
0.0
 40
0.0
 40
0.0434782608695652
 40
0.0434782608695652
 40
0.0434782608695652
 40
0.0434782608695652
 40
0.0869565217391304
 40
0.0869565217391304
 40
0.0869565217391304
 40
0.0869565217391304
 40
0.1304347826086956
 40
0.1304347826086956
 40
0.1304347826086956
 40
0.1304347826086956
 40
0.1739130434782609
 40
0.1739130434782609
 40
0.1739130434782609
 40
0.1739130434782609
 40
0.2173913043478261
 40
0.2173913043478261
 40
0.2173913043478261
 40
0.2173913043478261
 40
0.2608695652173913
 40
0.2608695652173913
 40
0.2608695652173913
 40
0.2608695652173913
 40
0.3043478260869565
 40
0.3043478260869565
 40
0.3043478260869565
 40
0.3043478260869565
 40
0.3478260869565217
 40
0.3478260869565217
 40
0.3478260869565217
 40
0.3478260869565217
 40
0.391304347826087
 40
0.391304347826087
 40
0.391304347826087
 40
0.391304347826087
 40
0.4347826086956522
 40
0.4347826086956522
 40
0.4347826086956522
 40
0.4347826086956522
 40
0.4782608695652174
 40
0.4782608695652174
 40
0.4782608695652174
 40
0.4782608695652174
 40
0.5217391304347826
 40
0.5217391304347826
 40
0.5217391304347826
 40
0.5217391304347826
 40
0.5652173913043478
 40
0.5652173913043478
 40
0.5652173913043478
 40
0.5652173913043478
 40
0.6086956521739131
 40
0.6086956521739131
 40
0.6086956521739131
 40
0.6086956521739131
 40
0.6521739130434783
 40
0.6521739130434783
 40
0.6521739130434783
 40
0.6521739130434783
 40
0.6956521739130435
 40
0.6956521739130435
 40
0.6956521739130435
 40
0.6956521739130435
 40
0.7391304347826086
 40
0.7391304347826086
 40
0.7391304347826086
 40
0.7391304347826086
 40
0.782608695652174
 40
0.782608695652174
 40
0.782608695652174
 40
0.782608695652174
 40
0.8260869565217391
 40
0.8260869565217391
 40
0.8260869565217391
 40
0.8260869565217391
 40
0.8695652173913043
 40
0.8695652173913043
 40
0.8695652173913043
 40
0.8695652173913043
 40
0.9130434782608695
 40
0.9130434782608695
 40
0.9130434782608695
 40
0.9130434782608695
 40
1.0
 40
1.0
 40
1.0
 40
1.0
 10
-20.1367
 20
-5.6925
 30
0.0
 10
-20.1367
 20
-5.6925
 30
0.0
 10
-20.1588
 20
-5.4319
 30
0.0
 10
-20.1588
 20
-5.4319
 30
0.0
 10
-20.1588
 20
-5.4319
 30
0.0
 10
-20.0318
 20
-5.4126
 30
0.0
 10
-19.9368
 20
-5.3679
 30
0.0
 10
-19.8728
 20
-5.2978
 30
0.0
 10
-19.8728
 20
-5.2978
 30
0.0
 10
-19.8088
 20
-5.2273
 30
0.0
 10
-19.7768
 20
-5.1426
 30
0.0
 10
-19.7768
 20
-5.0434
 30
0.0
 10
-19.7768
 20
-5.0434
 30
0.0
 10
-19.7768
 20
-4.9239
 30
0.0
 10
-19.822
 20
-4.8228
 30
0.0
 10
-19.9118
 20
-4.7405
 30
0.0
 10
-19.9118
 20
-4.7405
 30
0.0
 10
-20.0021
 20
-4.6577
 30
0.0
 10
-20.1216
 20
-4.6163
 30
0.0
 10
-20.2702
 20
-4.6163
 30
0.0
 10
-20.2702
 20
-4.6163
 30
0.0
 10
-20.4118
 20
-4.6163
 30
0.0
 10
-20.5233
 20
-4.6558
 30
0.0
 10
-20.6051
 20
-4.7353
 30
0.0
 10
-20.6051
 20
-4.7353
 30
0.0
 10
-20.687
 20
-4.8148
 30
0.0
 10
-20.7279
 20
-4.9187
 30
0.0
 10
-20.7279
 20
-5.0476
 30
0.0
 10
-20.7279
 20
-5.0476
 30
0.0
 10
-20.7279
 20
-5.1276
 30
0.0
 10
-20.7096
 20
-5.1995
 30
0.0
 10
-20.6734
 20
-5.264
 30
0.0
 10
-20.6734
 20
-5.264
 30
0.0
 10
-20.6371
 20
-5.3284
 30
0.0
 10
-20.5901
 20
-5.3787
 30
0.0
 10
-20.5322
 20
-5.4154
 30
0.0
 10
-20.5322
 20
-5.4154
 30
0.0
 10
-20.5322
 20
-5.4154
 30
0.0
 10
-20.5623
 20
-5.6483
 30
0.0
 10
-20.5623
 20
-5.6483
 30
0.0
 10
-20.5623
 20
-5.6483
 30
0.0
 10
-20.5623
 20
-5.6483
 30
0.0
 10
-21.6
 20
-5.4526
 30
0.0
 10
-21.6
 20
-5.4526
 30
0.0
 10
-21.6
 20
-5.4526
 30
0.0
 10
-21.6
 20
-5.4526
 30
0.0
 10
-21.6
 20
-4.4479
 30
0.0
 10
-21.6
 20
-4.4479
 30
0.0
 10
-21.6
 20
-4.4479
 30
0.0
 10
-21.6
 20
-4.4479
 30
0.0
 10
-21.3629
 20
-4.4479
 30
0.0
 10
-21.3629
 20
-4.4479
 30
0.0
 10
-21.3629
 20
-4.4479
 30
0.0
 10
-21.3629
 20
-4.4479
 30
0.0
 10
-21.3629
 20
-5.2541
 30
0.0
 10
-21.3629
 20
-5.2541
 30
0.0
 10
-21.3629
 20
-5.2541
 30
0.0
 10
-21.3629
 20
-5.2541
 30
0.0
 10
-20.8201
 20
-5.3632
 30
0.0
 10
-20.8201
 20
-5.3632
 30
0.0
 10
-20.8201
 20
-5.3632
 30
0.0
 10
-20.9048
 20
-5.2419
 30
0.0
 10
-20.9471
 20
-5.1144
 30
0.0
 10
-20.9471
 20
-4.9813
 30
0.0
 10
-20.9471
 20
-4.9813
 30
0.0
 10
-20.9471
 20
-4.8049
 30
0.0
 10
-20.886
 20
-4.6563
 30
0.0
 10
-20.7637
 20
-4.5349
 30
0.0
 10
-20.7637
 20
-4.5349
 30
0.0
 10
-20.6414
 20
-4.4136
 30
0.0
 10
-20.4843
 20
-4.3529
 30
0.0
 10
-20.2924
 20
-4.3529
 30
0.0
 10
-20.2924
 20
-4.3529
 30
0.0
 10
-20.1094
 20
-4.3529
 30
0.0
 10
-19.9513
 20
-4.4065
 30
0.0
 10
-19.8182
 20
-4.5128
 30
0.0
 10
-19.8182
 20
-4.5128
 30
0.0
 10
-19.655
 20
-4.6426
 30
0.0
 10
-19.5732
 20
-4.8195
 30
0.0
 10
-19.5732
 20
-5.0434
 30
0.0
 10
-19.5732
 20
-5.0434
 30
0.0
 10
-19.5732
 20
-5.2273
 30
0.0
 10
-19.6244
 20
-5.3773
 30
0.0
 10
-19.7274
 20
-5.4935
 30
0.0
 10
-19.7274
 20
-5.4935
 30
0.0
 10
-19.8305
 20
-5.6097
 30
0.0
 10
-19.9669
 20
-5.676
 30
0.0
 10
-20.1367
 20
-5.6925
 30
0.0
  0
SPLINE
  5
4F
330
1F
100
AcDbEntity
  8
DEFAULT_1
 62
   250
100
AcDbSpline
210
0.0
220
0.0
230
1.0
 70
    11
 71
     3
 72
    80
 73
    76
 74
     0
 42
0.0000000001
 43
0.0000000001
 40
0.0
 40
0.0
 40
0.0
 40
0.0
 40
0.05
 40
0.05
 40
0.05
 40
0.05
 40
0.1
 40
0.1
 40
0.1
 40
0.1
 40
0.15
 40
0.15
 40
0.15
 40
0.15
 40
0.2
 40
0.2
 40
0.2
 40
0.2
 40
0.25
 40
0.25
 40
0.25
 40
0.25
 40
0.3
 40
0.3
 40
0.3
 40
0.3
 40
0.35
 40
0.35
 40
0.35
 40
0.35
 40
0.4
 40
0.4
 40
0.4
 40
0.4
 40
0.45
 40
0.45
 40
0.45
 40
0.45
 40
0.5
 40
0.5
 40
0.5
 40
0.5
 40
0.55
 40
0.55
 40
0.55
 40
0.55
 40
0.6
 40
0.6
 40
0.6
 40
0.6
 40
0.65
 40
0.65
 40
0.65
 40
0.65
 40
0.7
 40
0.7
 40
0.7
 40
0.7
 40
0.75
 40
0.75
 40
0.75
 40
0.75
 40
0.8
 40
0.8
 40
0.8
 40
0.8
 40
0.85
 40
0.85
 40
0.85
 40
0.85
 40
0.9
 40
0.9
 40
0.9
 40
0.9
 40
1.0
 40
1.0
 40
1.0
 40
1.0
 10
-21.1329
 20
-2.836
 30
0.0
 10
-21.1329
 20
-2.836
 30
0.0
 10
-21.1136
 20
-3.0824
 30
0.0
 10
-21.1136
 20
-3.0824
 30
0.0
 10
-21.1136
 20
-3.0824
 30
0.0
 10
-21.211
 20
-3.1045
 30
0.0
 10
-21.282
 20
-3.1356
 30
0.0
 10
-21.3257
 20
-3.176
 30
0.0
 10
-21.3257
 20
-3.176
 30
0.0
 10
-21.3968
 20
-3.2433
 30
0.0
 10
-21.4321
 20
-3.3261
 30
0.0
 10
-21.4321
 20
-3.4244
 30
0.0
 10
-21.4321
 20
-3.4244
 30
0.0
 10
-21.4321
 20
-3.5034
 30
0.0
 10
-21.4099
 20
-3.5725
 30
0.0
 10
-21.3657
 20
-3.6323
 30
0.0
 10
-21.3657
 20
-3.6323
 30
0.0
 10
-21.3088
 20
-3.7104
 30
0.0
 10
-21.2256
 20
-3.772
 30
0.0
 10
-21.1164
 20
-3.8171
 30
0.0
 10
-21.1164
 20
-3.8171
 30
0.0
 10
-21.0073
 20
-3.8618
 30
0.0
 10
-20.8516
 20
-3.8853
 30
0.0
 10
-20.6494
 20
-3.8872
 30
0.0
 10
-20.6494
 20
-3.8872
 30
0.0
 10
-20.7401
 20
-3.8275
 30
0.0
 10
-20.8079
 20
-3.7546
 30
0.0
 10
-20.8521
 20
-3.668
 30
0.0
 10
-20.8521
 20
-3.668
 30
0.0
 10
-20.8958
 20
-3.582
 30
0.0
 10
-20.9179
 20
-3.4912
 30
0.0
 10
-20.9179
 20
-3.3966
 30
0.0
 10
-20.9179
 20
-3.3966
 30
0.0
 10
-20.9179
 20
-3.2311
 30
0.0
 10
-20.8573
 20
-3.0904
 30
0.0
 10
-20.7354
 20
-2.9742
 30
0.0
 10
-20.7354
 20
-2.9742
 30
0.0
 10
-20.6136
 20
-2.8581
 30
0.0
 10
-20.4565
 20
-2.7997
 30
0.0
 10
-20.2637
 20
-2.7997
 30
0.0
 10
-20.2637
 20
-2.7997
 30
0.0
 10
-20.1367
 20
-2.7997
 30
0.0
 10
-20.0191
 20
-2.8275
 30
0.0
 10
-19.9099
 20
-2.8821
 30
0.0
 10
-19.9099
 20
-2.8821
 30
0.0
 10
-19.8013
 20
-2.9366
 30
0.0
 10
-19.7176
 20
-3.0119
 30
0.0
 10
-19.6597
 20
-3.1074
 30
0.0
 10
-19.6597
 20
-3.1074
 30
0.0
 10
-19.6019
 20
-3.2028
 30
0.0
 10
-19.5732
 20
-3.311
 30
0.0
 10
-19.5732
 20
-3.4324
 30
0.0
 10
-19.5732
 20
-3.4324
 30
0.0
 10
-19.5732
 20
-3.6393
 30
0.0
 10
-19.6489
 20
-3.8077
 30
0.0
 10
-19.8013
 20
-3.938
 30
0.0
 10
-19.8013
 20
-3.938
 30
0.0
 10
-19.9532
 20
-4.0688
 30
0.0
 10
-20.2039
 20
-4.1337
 30
0.0
 10
-20.5529
 20
-4.1337
 30
0.0
 10
-20.5529
 20
-4.1337
 30
0.0
 10
-20.9433
 20
-4.1337
 30
0.0
 10
-21.227
 20
-4.0617
 30
0.0
 10
-21.4043
 20
-3.9173
 30
0.0
 10
-21.4043
 20
-3.9173
 30
0.0
 10
-21.5586
 20
-3.7917
 30
0.0
 10
-21.6362
 20
-3.6224
 30
0.0
 10
-21.6362
 20
-3.4089
 30
0.0
 10
-21.6362
 20
-3.4089
 30
0.0
 10
-21.6362
 20
-3.2503
 30
0.0
 10
-21.5915
 20
-3.1201
 30
0.0
 10
-21.5021
 20
-3.0185
 30
0.0
 10
-21.5021
 20
-3.0185
 30
0.0
 10
-21.4132
 20
-2.9169
 30
0.0
 10
-21.29
 20
-2.8562
 30
0.0
 10
-21.1329
 20
-2.836
 30
0.0
  0
SPLINE
  5
50
330
1F
100
AcDbEntity
  8
DEFAULT_1
 62
   250
100
AcDbSpline
210
0.0
220
0.0
230
1.0
 70
    11
 71
     3
 72
    40
 73
    36
 74
     0
 42
0.0000000001
 43
0.0000000001
 40
0.0
 40
0.0
 40
0.0
 40
0.0
 40
0.1
 40
0.1
 40
0.1
 40
0.1
 40
0.2
 40
0.2
 40
0.2
 40
0.2
 40
0.3
 40
0.3
 40
0.3
 40
0.3
 40
0.4
 40
0.4
 40
0.4
 40
0.4
 40
0.5
 40
0.5
 40
0.5
 40
0.5
 40
0.6
 40
0.6
 40
0.6
 40
0.6
 40
0.7
 40
0.7
 40
0.7
 40
0.7
 40
0.8
 40
0.8
 40
0.8
 40
0.8
 40
1.0
 40
1.0
 40
1.0
 40
1.0
 10
-20.2623
 20
-3.8487
 30
0.0
 10
-20.1766
 20
-3.8487
 30
0.0
 10
-20.0948
 20
-3.8303
 30
0.0
 10
-20.0167
 20
-3.7941
 30
0.0
 10
-20.0167
 20
-3.7941
 30
0.0
 10
-19.9386
 20
-3.7579
 30
0.0
 10
-19.8794
 20
-3.7071
 30
0.0
 10
-19.8385
 20
-3.6422
 30
0.0
 10
-19.8385
 20
-3.6422
 30
0.0
 10
-19.7975
 20
-3.5768
 30
0.0
 10
-19.7768
 20
-3.5081
 30
0.0
 10
-19.7768
 20
-3.4366
 30
0.0
 10
-19.7768
 20
-3.4366
 30
0.0
 10
-19.7768
 20
-3.3317
 30
0.0
 10
-19.8192
 20
-3.2419
 30
0.0
 10
-19.9038
 20
-3.1666
 30
0.0
 10
-19.9038
 20
-3.1666
 30
0.0
 10
-19.9885
 20
-3.0914
 30
0.0
 10
-20.1033
 20
-3.0537
 30
0.0
 10
-20.2481
 20
-3.0537
 30
0.0
 10
-20.2481
 20
-3.0537
 30
0.0
 10
-20.3878
 20
-3.0537
 30
0.0
 10
-20.4979
 20
-3.0909
 30
0.0
 10
-20.5783
 20
-3.1652
 30
0.0
 10
-20.5783
 20
-3.1652
 30
0.0
 10
-20.6588
 20
-3.2395
 30
0.0
 10
-20.6988
 20
-3.3331
 30
0.0
 10
-20.6988
 20
-3.446
 30
0.0
 10
-20.6988
 20
-3.446
 30
0.0
 10
-20.6988
 20
-3.5584
 30
0.0
 10
-20.6588
 20
-3.6535
 30
0.0
 10
-20.5783
 20
-3.7315
 30
0.0
 10
-20.5783
 20
-3.7315
 30
0.0
 10
-20.4979
 20
-3.8096
 30
0.0
 10
-20.3925
 20
-3.8487
 30
0.0
 10
-20.2623
 20
-3.8487
 30
0.0
  0
SPLINE
  5
51
330
1F
100
AcDbEntity
  8
DEFAULT_1
 62
   250
100
AcDbSpline
210
0.0
220
0.0
230
1.0
 70
    11
 71
     3
 72
    20
 73
    16
 74
     0
 42
0.0000000001
 43
0.0000000001
 40
0.0
 40
0.0
 40
0.0
 40
0.0
 40
0.2
 40
0.2
 40
0.2
 40
0.2
 40
0.4
 40
0.4
 40
0.4
 40
0.4
 40
0.6
 40
0.6
 40
0.6
 40
0.6
 40
1.0
 40
1.0
 40
1.0
 40
1.0
 10
-19.3437
 20
10.8274
 30
0.0
 10
-19.3437
 20
10.8274
 30
0.0
 10
-18.9908
 20
13.3274
 30
0.0
 10
-18.9908
 20
13.3274
 30
0.0
 10
-18.9908
 20
13.3274
 30
0.0
 10
-18.9908
 20
13.3274
 30
0.0
 10
-18.9125
 20
13.3274
 30
0.0
 10
-18.9125
 20
13.3274
 30
0.0
 10
-18.9125
 20
13.3274
 30
0.0
 10
-18.9125
 20
13.3274
 30
0.0
 10
-18.5362
 20
10.8274
 30
0.0
 10
-18.5362
 20
10.8274
 30
0.0
 10
-18.5362
 20
10.8274
 30
0.0
 10
-18.5362
 20
10.8274
 30
0.0
 10
-19.3437
 20
10.8274
 30
0.0
 10
-19.3437
 20
10.8274
 30
0.0
  0
SPLINE
  5
52
330
1F
100
AcDbEntity
  8
DEFAULT_1
 62
   250
100
AcDbSpline
210
0.0
220
0.0
230
1.0
 70
    11
 71
     3
 72
    20
 73
    16
 74
     0
 42
0.0000000001
 43
0.0000000001
 40
0.0
 40
0.0
 40
0.0
 40
0.0
 40
0.2
 40
0.2
 40
0.2
 40
0.2
 40
0.4
 40
0.4
 40
0.4
 40
0.4
 40
0.6
 40
0.6
 40
0.6
 40
0.6
 40
1.0
 40
1.0
 40
1.0
 40
1.0
 10
-19.3708
 20
-2.6273
 30
0.0
 10
-19.3708
 20
-2.6273
 30
0.0
 10
-19.0179
 20
-0.1273
 30
0.0
 10
-19.0179
 20
-0.1273
 30
0.0
 10
-19.0179
 20
-0.1273
 30
0.0
 10
-19.0179
 20
-0.1273
 30
0.0
 10
-18.9396
 20
-0.1273
 30
0.0
 10
-18.9396
 20
-0.1273
 30
0.0
 10
-18.9396
 20
-0.1273
 30
0.0
 10
-18.9396
 20
-0.1273
 30
0.0
 10
-18.5633
 20
-2.6273
 30
0.0
 10
-18.5633
 20
-2.6273
 30
0.0
 10
-18.5633
 20
-2.6273
 30
0.0
 10
-18.5633
 20
-2.6273
 30
0.0
 10
-19.3708
 20
-2.6273
 30
0.0
 10
-19.3708
 20
-2.6273
 30
0.0
  0
SPLINE
  5
53
330
1F
100
AcDbEntity
  8
DEFAULT_1
 62
   250
100
AcDbSpline
210
0.0
220
0.0
230
1.0
 70
    11
 71
     3
 72
    20
 73
    16
 74
     0
 42
0.0000000001
 43
0.0000000001
 40
0.0
 40
0.0
 40
0.0
 40
0.0
 40
0.2
 40
0.2
 40
0.2
 40
0.2
 40
0.4
 40
0.4
 40
0.4
 40
0.4
 40
0.6
 40
0.6
 40
0.6
 40
0.6
 40
1.0
 40
1.0
 40
1.0
 40
1.0
 10
-18.5637
 20
2.5732
 30
0.0
 10
-18.5637
 20
2.5732
 30
0.0
 10
-18.9166
 20
0.0732
 30
0.0
 10
-18.9166
 20
0.0732
 30
0.0
 10
-18.9166
 20
0.0732
 30
0.0
 10
-18.9166
 20
0.0732
 30
0.0
 10
-18.9949
 20
0.0732
 30
0.0
 10
-18.9949
 20
0.0732
 30
0.0
 10
-18.9949
 20
0.0732
 30
0.0
 10
-18.9949
 20
0.0732
 30
0.0
 10
-19.3712
 20
2.5732
 30
0.0
 10
-19.3712
 20
2.5732
 30
0.0
 10
-19.3712
 20
2.5732
 30
0.0
 10
-19.3712
 20
2.5732
 30
0.0
 10
-18.5637
 20
2.5732
 30
0.0
 10
-18.5637
 20
2.5732
 30
0.0
  0
SPLINE
  5
54
330
1F
100
AcDbEntity
  8
DEFAULT_1
 62
   250
100
AcDbSpline
210
0.0
220
0.0
230
1.0
 70
    11
 71
     3
 72
    20
 73
    16
 74
     0
 42
0.0000000001
 43
0.0000000001
 40
0.0
 40
0.0
 40
0.0
 40
0.0
 40
0.2
 40
0.2
 40
0.2
 40
0.2
 40
0.4
 40
0.4
 40
0.4
 40
0.4
 40
0.6
 40
0.6
 40
0.6
 40
0.6
 40
1.0
 40
1.0
 40
1.0
 40
1.0
 10
-18.5908
 20
-6.6482
 30
0.0
 10
-18.5908
 20
-6.6482
 30
0.0
 10
-18.9437
 20
-9.1482
 30
0.0
 10
-18.9437
 20
-9.1482
 30
0.0
 10
-18.9437
 20
-9.1482
 30
0.0
 10
-18.9437
 20
-9.1482
 30
0.0
 10
-19.022
 20
-9.1482
 30
0.0
 10
-19.022
 20
-9.1482
 30
0.0
 10
-19.022
 20
-9.1482
 30
0.0
 10
-19.022
 20
-9.1482
 30
0.0
 10
-19.3983
 20
-6.6482
 30
0.0
 10
-19.3983
 20
-6.6482
 30
0.0
 10
-19.3983
 20
-6.6482
 30
0.0
 10
-19.3983
 20
-6.6482
 30
0.0
 10
-18.5908
 20
-6.6482
 30
0.0
 10
-18.5908
 20
-6.6482
 30
0.0
  0
SPLINE
  5
55
330
1F
100
AcDbEntity
  8
DEFAULT_1
 62
   250
100
AcDbSpline
210
0.0
220
0.0
230
1.0
 70
    11
 71
     3
 72
    84
 73
    80
 74
     0
 42
0.0000000001
 43
0.0000000001
 40
0.0
 40
0.0
 40
0.0
 40
0.0
 40
0.0476190476190476
 40
0.0476190476190476
 40
0.0476190476190476
 40
0.0476190476190476
 40
0.0952380952380952
 40
0.0952380952380952
 40
0.0952380952380952
 40
0.0952380952380952
 40
0.1428571428571428
 40
0.1428571428571428
 40
0.1428571428571428
 40
0.1428571428571428
 40
0.1904761904761905
 40
0.1904761904761905
 40
0.1904761904761905
 40
0.1904761904761905
 40
0.2380952380952381
 40
0.2380952380952381
 40
0.2380952380952381
 40
0.2380952380952381
 40
0.2857142857142857
 40
0.2857142857142857
 40
0.2857142857142857
 40
0.2857142857142857
 40
0.3333333333333333
 40
0.3333333333333333
 40
0.3333333333333333
 40
0.3333333333333333
 40
0.3809523809523809
 40
0.3809523809523809
 40
0.3809523809523809
 40
0.3809523809523809
 40
0.4285714285714285
 40
0.4285714285714285
 40
0.4285714285714285
 40
0.4285714285714285
 40
0.4761904761904762
 40
0.4761904761904762
 40
0.4761904761904762
 40
0.4761904761904762
 40
0.5238095238095238
 40
0.5238095238095238
 40
0.5238095238095238
 40
0.5238095238095238
 40
0.5714285714285714
 40
0.5714285714285714
 40
0.5714285714285714
 40
0.5714285714285714
 40
0.6190476190476191
 40
0.6190476190476191
 40
0.6190476190476191
 40
0.6190476190476191
 40
0.6666666666666666
 40
0.6666666666666666
 40
0.6666666666666666
 40
0.6666666666666666
 40
0.7142857142857143
 40
0.7142857142857143
 40
0.7142857142857143
 40
0.7142857142857143
 40
0.7619047619047619
 40
0.7619047619047619
 40
0.7619047619047619
 40
0.7619047619047619
 40
0.8095238095238095
 40
0.8095238095238095
 40
0.8095238095238095
 40
0.8095238095238095
 40
0.8571428571428571
 40
0.8571428571428571
 40
0.8571428571428571
 40
0.8571428571428571
 40
0.9047619047619048
 40
0.9047619047619048
 40
0.9047619047619048
 40
0.9047619047619048
 40
1.0
 40
1.0
 40
1.0
 40
1.0
 10
1.6775
 20
19.9068
 30
0.0
 10
1.6775
 20
19.9068
 30
0.0
 10
1.9089
 20
20.1659
 30
0.0
 10
1.9089
 20
20.1659
 30
0.0
 10
1.9089
 20
20.1659
 30
0.0
 10
1.9089
 20
20.1659
 30
0.0
 10
2.0453
 20
20.0502
 30
0.0
 10
2.0453
 20
20.0502
 30
0.0
 10
2.0453
 20
20.0502
 30
0.0
 10
2.0453
 20
20.0502
 30
0.0
 10
1.8031
 20
19.7774
 30
0.0
 10
1.8031
 20
19.7774
 30
0.0
 10
1.8031
 20
19.7774
 30
0.0
 10
1.8821
 20
19.6598
 30
0.0
 10
1.9352
 20
19.5568
 30
0.0
 10
1.963
 20
19.4689
 30
0.0
 10
1.963
 20
19.4689
 30
0.0
 10
1.9997
 20
19.3531
 30
0.0
 10
2.018
 20
19.2233
 30
0.0
 10
2.018
 20
19.0803
 30
0.0
 10
2.018
 20
19.0803
 30
0.0
 10
2.018
 20
18.8734
 30
0.0
 10
1.9762
 20
18.689
 30
0.0
 10
1.8924
 20
18.5277
 30
0.0
 10
1.8924
 20
18.5277
 30
0.0
 10
1.8087
 20
18.3658
 30
0.0
 10
1.6916
 20
18.2436
 30
0.0
 10
1.5406
 20
18.1608
 30
0.0
 10
1.5406
 20
18.1608
 30
0.0
 10
1.3891
 20
18.0785
 30
0.0
 10
1.2288
 20
18.0371
 30
0.0
 10
1.059
 20
18.0371
 30
0.0
 10
1.059
 20
18.0371
 30
0.0
 10
0.932
 20
18.0371
 30
0.0
 10
0.8172
 20
18.0549
 30
0.0
 10
0.7142
 20
18.0907
 30
0.0
 10
0.7142
 20
18.0907
 30
0.0
 10
0.6352
 20
18.1184
 30
0.0
 10
0.543
 20
18.1711
 30
0.0
 10
0.4371
 20
18.2492
 30
0.0
 10
0.4371
 20
18.2492
 30
0.0
 10
0.4371
 20
18.2492
 30
0.0
 10
0.2057
 20
17.99
 30
0.0
 10
0.2057
 20
17.99
 30
0.0
 10
0.2057
 20
17.99
 30
0.0
 10
0.2057
 20
17.99
 30
0.0
 10
0.0693
 20
18.1057
 30
0.0
 10
0.0693
 20
18.1057
 30
0.0
 10
0.0693
 20
18.1057
 30
0.0
 10
0.0693
 20
18.1057
 30
0.0
 10
0.312
 20
18.3771
 30
0.0
 10
0.312
 20
18.3771
 30
0.0
 10
0.312
 20
18.3771
 30
0.0
 10
0.2217
 20
18.514
 30
0.0
 10
0.1615
 20
18.6311
 30
0.0
 10
0.1314
 20
18.728
 30
0.0
 10
0.1314
 20
18.728
 30
0.0
 10
0.1013
 20
18.8249
 30
0.0
 10
0.0858
 20
18.9416
 30
0.0
 10
0.0858
 20
19.0775
 30
0.0
 10
0.0858
 20
19.0775
 30
0.0
 10
0.0858
 20
19.2849
 30
0.0
 10
0.1272
 20
19.4698
 30
0.0
 10
0.2099
 20
19.6321
 30
0.0
 10
0.2099
 20
19.6321
 30
0.0
 10
0.2927
 20
19.7944
 30
0.0
 10
0.4084
 20
19.9171
 30
0.0
 10
0.558
 20
20.0008
 30
0.0
 10
0.558
 20
20.0008
 30
0.0
 10
0.7071
 20
20.0841
 30
0.0
 10
0.8732
 20
20.126
 30
0.0
 10
1.0561
 20
20.126
 30
0.0
 10
1.0561
 20
20.126
 30
0.0
 10
1.1794
 20
20.126
 30
0.0
 10
1.2871
 20
20.11
 30
0.0
 10
1.3793
 20
20.077
 30
0.0
 10
1.3793
 20
20.077
 30
0.0
 10
1.4715
 20
20.0446
 30
0.0
 10
1.5712
 20
19.9877
 30
0.0
 10
1.6775
 20
19.9068
 30
0.0
  0
SPLINE
  5
56
330
1F
100
AcDbEntity
  8
DEFAULT_1
 62
   250
100
AcDbSpline
210
0.0
220
0.0
230
1.0
 70
    11
 71
     3
 72
    32
 73
    28
 74
     0
 42
0.0000000001
 43
0.0000000001
 40
0.0
 40
0.0
 40
0.0
 40
0.0
 40
0.125
 40
0.125
 40
0.125
 40
0.125
 40
0.25
 40
0.25
 40
0.25
 40
0.25
 40
0.375
 40
0.375
 40
0.375
 40
0.375
 40
0.5
 40
0.5
 40
0.5
 40
0.5
 40
0.625
 40
0.625
 40
0.625
 40
0.625
 40
0.75
 40
0.75
 40
0.75
 40
0.75
 40
1.0
 40
1.0
 40
1.0
 40
1.0
 10
1.5124
 20
19.721
 30
0.0
 10
1.4258
 20
19.7887
 30
0.0
 10
1.3501
 20
19.8353
 30
0.0
 10
1.2857
 20
19.8602
 30
0.0
 10
1.2857
 20
19.8602
 30
0.0
 10
1.2208
 20
19.8847
 30
0.0
 10
1.1446
 20
19.8974
 30
0.0
 10
1.0575
 20
19.8974
 30
0.0
 10
1.0575
 20
19.8974
 30
0.0
 10
0.8562
 20
19.8974
 30
0.0
 10
0.6902
 20
19.8292
 30
0.0
 10
0.5585
 20
19.6928
 30
0.0
 10
0.5585
 20
19.6928
 30
0.0
 10
0.4272
 20
19.5563
 30
0.0
 10
0.3614
 20
19.3527
 30
0.0
 10
0.3614
 20
19.0813
 30
0.0
 10
0.3614
 20
19.0813
 30
0.0
 10
0.3614
 20
18.975
 30
0.0
 10
0.3717
 20
18.8804
 30
0.0
 10
0.392
 20
18.7976
 30
0.0
 10
0.392
 20
18.7976
 30
0.0
 10
0.4066
 20
18.736
 30
0.0
 10
0.4371
 20
18.6603
 30
0.0
 10
0.4842
 20
18.5705
 30
0.0
 10
0.4842
 20
18.5705
 30
0.0
 10
0.4842
 20
18.5705
 30
0.0
 10
1.5124
 20
19.721
 30
0.0
 10
1.5124
 20
19.721
 30
0.0
  0
SPLINE
  5
57
330
1F
100
AcDbEntity
  8
DEFAULT_1
 62
   250
100
AcDbSpline
210
0.0
220
0.0
230
1.0
 70
    11
 71
     3
 72
    28
 73
    24
 74
     0
 42
0.0000000001
 43
0.0000000001
 40
0.0
 40
0.0
 40
0.0
 40
0.0
 40
0.1428571428571428
 40
0.1428571428571428
 40
0.1428571428571428
 40
0.1428571428571428
 40
0.2857142857142857
 40
0.2857142857142857
 40
0.2857142857142857
 40
0.2857142857142857
 40
0.4285714285714285
 40
0.4285714285714285
 40
0.4285714285714285
 40
0.4285714285714285
 40
0.5714285714285714
 40
0.5714285714285714
 40
0.5714285714285714
 40
0.5714285714285714
 40
0.7142857142857143
 40
0.7142857142857143
 40
0.7142857142857143
 40
0.7142857142857143
 40
1.0
 40
1.0
 40
1.0
 40
1.0
 10
1.6253
 20
19.5789
 30
0.0
 10
1.6253
 20
19.5789
 30
0.0
 10
0.6013
 20
18.4326
 30
0.0
 10
0.6013
 20
18.4326
 30
0.0
 10
0.6013
 20
18.4326
 30
0.0
 10
0.6718
 20
18.3748
 30
0.0
 10
0.7372
 20
18.3343
 30
0.0
 10
0.797
 20
18.3113
 30
0.0
 10
0.797
 20
18.3113
 30
0.0
 10
0.875
 20
18.2807
 30
0.0
 10
0.9597
 20
18.2657
 30
0.0
 10
1.0505
 20
18.2657
 30
0.0
 10
1.0505
 20
18.2657
 30
0.0
 10
1.2509
 20
18.2657
 30
0.0
 10
1.416
 20
18.3362
 30
0.0
 10
1.5467
 20
18.4778
 30
0.0
 10
1.5467
 20
18.4778
 30
0.0
 10
1.677
 20
18.6194
 30
0.0
 10
1.7424
 20
18.8179
 30
0.0
 10
1.7424
 20
19.0733
 30
0.0
 10
1.7424
 20
19.0733
 30
0.0
 10
1.7424
 20
19.2642
 30
0.0
 10
1.7034
 20
19.4331
 30
0.0
 10
1.6253
 20
19.5789
 30
0.0
  0
SPLINE
  5
58
330
1F
100
AcDbEntity
  8
DEFAULT_1
 62
   250
100
AcDbSpline
210
0.0
220
0.0
230
1.0
 70
    11
 71
     3
 72
    92
 73
    88
 74
     0
 42
0.0000000001
 43
0.0000000001
 40
0.0
 40
0.0
 40
0.0
 40
0.0
 40
0.0434782608695652
 40
0.0434782608695652
 40
0.0434782608695652
 40
0.0434782608695652
 40
0.0869565217391304
 40
0.0869565217391304
 40
0.0869565217391304
 40
0.0869565217391304
 40
0.1304347826086956
 40
0.1304347826086956
 40
0.1304347826086956
 40
0.1304347826086956
 40
0.1739130434782609
 40
0.1739130434782609
 40
0.1739130434782609
 40
0.1739130434782609
 40
0.2173913043478261
 40
0.2173913043478261
 40
0.2173913043478261
 40
0.2173913043478261
 40
0.2608695652173913
 40
0.2608695652173913
 40
0.2608695652173913
 40
0.2608695652173913
 40
0.3043478260869565
 40
0.3043478260869565
 40
0.3043478260869565
 40
0.3043478260869565
 40
0.3478260869565217
 40
0.3478260869565217
 40
0.3478260869565217
 40
0.3478260869565217
 40
0.391304347826087
 40
0.391304347826087
 40
0.391304347826087
 40
0.391304347826087
 40
0.4347826086956522
 40
0.4347826086956522
 40
0.4347826086956522
 40
0.4347826086956522
 40
0.4782608695652174
 40
0.4782608695652174
 40
0.4782608695652174
 40
0.4782608695652174
 40
0.5217391304347826
 40
0.5217391304347826
 40
0.5217391304347826
 40
0.5217391304347826
 40
0.5652173913043478
 40
0.5652173913043478
 40
0.5652173913043478
 40
0.5652173913043478
 40
0.6086956521739131
 40
0.6086956521739131
 40
0.6086956521739131
 40
0.6086956521739131
 40
0.6521739130434783
 40
0.6521739130434783
 40
0.6521739130434783
 40
0.6521739130434783
 40
0.6956521739130435
 40
0.6956521739130435
 40
0.6956521739130435
 40
0.6956521739130435
 40
0.7391304347826086
 40
0.7391304347826086
 40
0.7391304347826086
 40
0.7391304347826086
 40
0.782608695652174
 40
0.782608695652174
 40
0.782608695652174
 40
0.782608695652174
 40
0.8260869565217391
 40
0.8260869565217391
 40
0.8260869565217391
 40
0.8260869565217391
 40
0.8695652173913043
 40
0.8695652173913043
 40
0.8695652173913043
 40
0.8695652173913043
 40
0.9130434782608695
 40
0.9130434782608695
 40
0.9130434782608695
 40
0.9130434782608695
 40
1.0
 40
1.0
 40
1.0
 40
1.0
 10
3.5712
 20
18.3099
 30
0.0
 10
3.5712
 20
18.3099
 30
0.0
 10
3.5712
 20
18.0714
 30
0.0
 10
3.5712
 20
18.0714
 30
0.0
 10
3.5712
 20
18.0714
 30
0.0
 10
3.5712
 20
18.0714
 30
0.0
 10
2.2358
 20
18.0714
 30
0.0
 10
2.2358
 20
18.0714
 30
0.0
 10
2.2358
 20
18.0714
 30
0.0
 10
2.2339
 20
18.1311
 30
0.0
 10
2.2433
 20
18.1885
 30
0.0
 10
2.2645
 20
18.2436
 30
0.0
 10
2.2645
 20
18.2436
 30
0.0
 10
2.2984
 20
18.3348
 30
0.0
 10
2.3529
 20
18.4242
 30
0.0
 10
2.4277
 20
18.5126
 30
0.0
 10
2.4277
 20
18.5126
 30
0.0
 10
2.503
 20
18.6006
 30
0.0
 10
2.6112
 20
18.7026
 30
0.0
 10
2.7523
 20
18.8183
 30
0.0
 10
2.7523
 20
18.8183
 30
0.0
 10
2.9719
 20
18.9985
 30
0.0
 10
3.1206
 20
19.141
 30
0.0
 10
3.1977
 20
19.2464
 30
0.0
 10
3.1977
 20
19.2464
 30
0.0
 10
3.2748
 20
19.3513
 30
0.0
 10
3.3134
 20
19.451
 30
0.0
 10
3.3134
 20
19.5446
 30
0.0
 10
3.3134
 20
19.5446
 30
0.0
 10
3.3134
 20
19.6429
 30
0.0
 10
3.2781
 20
19.7257
 30
0.0
 10
3.2081
 20
19.7934
 30
0.0
 10
3.2081
 20
19.7934
 30
0.0
 10
3.1375
 20
19.8607
 30
0.0
 10
3.0458
 20
19.8945
 30
0.0
 10
2.9329
 20
19.8945
 30
0.0
 10
2.9329
 20
19.8945
 30
0.0
 10
2.8134
 20
19.8945
 30
0.0
 10
2.7179
 20
19.8588
 30
0.0
 10
2.6464
 20
19.7868
 30
0.0
 10
2.6464
 20
19.7868
 30
0.0
 10
2.5745
 20
19.7153
 30
0.0
 10
2.5383
 20
19.6161
 30
0.0
 10
2.5373
 20
19.4896
 30
0.0
 10
2.5373
 20
19.4896
 30
0.0
 10
2.5373
 20
19.4896
 30
0.0
 10
2.2824
 20
19.5154
 30
0.0
 10
2.2824
 20
19.5154
 30
0.0
 10
2.2824
 20
19.5154
 30
0.0
 10
2.2998
 20
19.7059
 30
0.0
 10
2.3656
 20
19.8508
 30
0.0
 10
2.4795
 20
19.9505
 30
0.0
 10
2.4795
 20
19.9505
 30
0.0
 10
2.5933
 20
20.0502
 30
0.0
 10
2.7466
 20
20.1001
 30
0.0
 10
2.9385
 20
20.1001
 30
0.0
 10
2.9385
 20
20.1001
 30
0.0
 10
3.1323
 20
20.1001
 30
0.0
 10
3.2857
 20
20.046
 30
0.0
 10
3.3986
 20
19.9388
 30
0.0
 10
3.3986
 20
19.9388
 30
0.0
 10
3.5119
 20
19.831
 30
0.0
 10
3.5684
 20
19.6979
 30
0.0
 10
3.5684
 20
19.5389
 30
0.0
 10
3.5684
 20
19.5389
 30
0.0
 10
3.5684
 20
19.458
 30
0.0
 10
3.5519
 20
19.3785
 30
0.0
 10
3.5185
 20
19.3005
 30
0.0
 10
3.5185
 20
19.3005
 30
0.0
 10
3.4856
 20
19.2224
 30
0.0
 10
3.4305
 20
19.1401
 30
0.0
 10
3.3539
 20
19.054
 30
0.0
 10
3.3539
 20
19.054
 30
0.0
 10
3.2772
 20
18.9674
 30
0.0
 10
3.1497
 20
18.8489
 30
0.0
 10
2.9715
 20
18.6984
 30
0.0
 10
2.9715
 20
18.6984
 30
0.0
 10
2.8228
 20
18.5733
 30
0.0
 10
2.7273
 20
18.4886
 30
0.0
 10
2.685
 20
18.4439
 30
0.0
 10
2.685
 20
18.4439
 30
0.0
 10
2.6427
 20
18.3997
 30
0.0
 10
2.6079
 20
18.355
 30
0.0
 10
2.5801
 20
18.3099
 30
0.0
 10
2.5801
 20
18.3099
 30
0.0
 10
2.5801
 20
18.3099
 30
0.0
 10
3.5712
 20
18.3099
 30
0.0
 10
3.5712
 20
18.3099
 30
0.0
  0
SPLINE
  5
59
330
1F
100
AcDbEntity
  8
DEFAULT_1
 62
   250
100
AcDbSpline
210
0.0
220
0.0
230
1.0
 70
    11
 71
     3
 72
    92
 73
    88
 74
     0
 42
0.0000000001
 43
0.0000000001
 40
0.0
 40
0.0
 40
0.0
 40
0.0
 40
0.0434782608695652
 40
0.0434782608695652
 40
0.0434782608695652
 40
0.0434782608695652
 40
0.0869565217391304
 40
0.0869565217391304
 40
0.0869565217391304
 40
0.0869565217391304
 40
0.1304347826086956
 40
0.1304347826086956
 40
0.1304347826086956
 40
0.1304347826086956
 40
0.1739130434782609
 40
0.1739130434782609
 40
0.1739130434782609
 40
0.1739130434782609
 40
0.2173913043478261
 40
0.2173913043478261
 40
0.2173913043478261
 40
0.2173913043478261
 40
0.2608695652173913
 40
0.2608695652173913
 40
0.2608695652173913
 40
0.2608695652173913
 40
0.3043478260869565
 40
0.3043478260869565
 40
0.3043478260869565
 40
0.3043478260869565
 40
0.3478260869565217
 40
0.3478260869565217
 40
0.3478260869565217
 40
0.3478260869565217
 40
0.391304347826087
 40
0.391304347826087
 40
0.391304347826087
 40
0.391304347826087
 40
0.4347826086956522
 40
0.4347826086956522
 40
0.4347826086956522
 40
0.4347826086956522
 40
0.4782608695652174
 40
0.4782608695652174
 40
0.4782608695652174
 40
0.4782608695652174
 40
0.5217391304347826
 40
0.5217391304347826
 40
0.5217391304347826
 40
0.5217391304347826
 40
0.5652173913043478
 40
0.5652173913043478
 40
0.5652173913043478
 40
0.5652173913043478
 40
0.6086956521739131
 40
0.6086956521739131
 40
0.6086956521739131
 40
0.6086956521739131
 40
0.6521739130434783
 40
0.6521739130434783
 40
0.6521739130434783
 40
0.6521739130434783
 40
0.6956521739130435
 40
0.6956521739130435
 40
0.6956521739130435
 40
0.6956521739130435
 40
0.7391304347826086
 40
0.7391304347826086
 40
0.7391304347826086
 40
0.7391304347826086
 40
0.782608695652174
 40
0.782608695652174
 40
0.782608695652174
 40
0.782608695652174
 40
0.8260869565217391
 40
0.8260869565217391
 40
0.8260869565217391
 40
0.8260869565217391
 40
0.8695652173913043
 40
0.8695652173913043
 40
0.8695652173913043
 40
0.8695652173913043
 40
0.9130434782608695
 40
0.9130434782608695
 40
0.9130434782608695
 40
0.9130434782608695
 40
1.0
 40
1.0
 40
1.0
 40
1.0
 10
5.1408
 20
18.3099
 30
0.0
 10
5.1408
 20
18.3099
 30
0.0
 10
5.1408
 20
18.0714
 30
0.0
 10
5.1408
 20
18.0714
 30
0.0
 10
5.1408
 20
18.0714
 30
0.0
 10
5.1408
 20
18.0714
 30
0.0
 10
3.8054
 20
18.0714
 30
0.0
 10
3.8054
 20
18.0714
 30
0.0
 10
3.8054
 20
18.0714
 30
0.0
 10
3.8035
 20
18.1311
 30
0.0
 10
3.8129
 20
18.1885
 30
0.0
 10
3.8341
 20
18.2436
 30
0.0
 10
3.8341
 20
18.2436
 30
0.0
 10
3.868
 20
18.3348
 30
0.0
 10
3.9225
 20
18.4242
 30
0.0
 10
3.9973
 20
18.5126
 30
0.0
 10
3.9973
 20
18.5126
 30
0.0
 10
4.0726
 20
18.6006
 30
0.0
 10
4.1808
 20
18.7026
 30
0.0
 10
4.3219
 20
18.8183
 30
0.0
 10
4.3219
 20
18.8183
 30
0.0
 10
4.5415
 20
18.9985
 30
0.0
 10
4.6902
 20
19.141
 30
0.0
 10
4.7673
 20
19.2464
 30
0.0
 10
4.7673
 20
19.2464
 30
0.0
 10
4.8444
 20
19.3513
 30
0.0
 10
4.883
 20
19.451
 30
0.0
 10
4.883
 20
19.5446
 30
0.0
 10
4.883
 20
19.5446
 30
0.0
 10
4.883
 20
19.6429
 30
0.0
 10
4.8477
 20
19.7257
 30
0.0
 10
4.7777
 20
19.7934
 30
0.0
 10
4.7777
 20
19.7934
 30
0.0
 10
4.7071
 20
19.8607
 30
0.0
 10
4.6154
 20
19.8945
 30
0.0
 10
4.5025
 20
19.8945
 30
0.0
 10
4.5025
 20
19.8945
 30
0.0
 10
4.383
 20
19.8945
 30
0.0
 10
4.2875
 20
19.8588
 30
0.0
 10
4.216
 20
19.7868
 30
0.0
 10
4.216
 20
19.7868
 30
0.0
 10
4.1441
 20
19.7153
 30
0.0
 10
4.1079
 20
19.6161
 30
0.0
 10
4.1069
 20
19.4896
 30
0.0
 10
4.1069
 20
19.4896
 30
0.0
 10
4.1069
 20
19.4896
 30
0.0
 10
3.852
 20
19.5154
 30
0.0
 10
3.852
 20
19.5154
 30
0.0
 10
3.852
 20
19.5154
 30
0.0
 10
3.8694
 20
19.7059
 30
0.0
 10
3.9352
 20
19.8508
 30
0.0
 10
4.0491
 20
19.9505
 30
0.0
 10
4.0491
 20
19.9505
 30
0.0
 10
4.1629
 20
20.0502
 30
0.0
 10
4.3162
 20
20.1001
 30
0.0
 10
4.5081
 20
20.1001
 30
0.0
 10
4.5081
 20
20.1001
 30
0.0
 10
4.7019
 20
20.1001
 30
0.0
 10
4.8553
 20
20.046
 30
0.0
 10
4.9682
 20
19.9388
 30
0.0
 10
4.9682
 20
19.9388
 30
0.0
 10
5.0815
 20
19.831
 30
0.0
 10
5.138
 20
19.6979
 30
0.0
 10
5.138
 20
19.5389
 30
0.0
 10
5.138
 20
19.5389
 30
0.0
 10
5.138
 20
19.458
 30
0.0
 10
5.1215
 20
19.3785
 30
0.0
 10
5.0881
 20
19.3005
 30
0.0
 10
5.0881
 20
19.3005
 30
0.0
 10
5.0552
 20
19.2224
 30
0.0
 10
5.0001
 20
19.1401
 30
0.0
 10
4.9235
 20
19.054
 30
0.0
 10
4.9235
 20
19.054
 30
0.0
 10
4.8468
 20
18.9674
 30
0.0
 10
4.7193
 20
18.8489
 30
0.0
 10
4.5411
 20
18.6984
 30
0.0
 10
4.5411
 20
18.6984
 30
0.0
 10
4.3924
 20
18.5733
 30
0.0
 10
4.2969
 20
18.4886
 30
0.0
 10
4.2546
 20
18.4439
 30
0.0
 10
4.2546
 20
18.4439
 30
0.0
 10
4.2123
 20
18.3997
 30
0.0
 10
4.1775
 20
18.355
 30
0.0
 10
4.1497
 20
18.3099
 30
0.0
 10
4.1497
 20
18.3099
 30
0.0
 10
4.1497
 20
18.3099
 30
0.0
 10
5.1408
 20
18.3099
 30
0.0
 10
5.1408
 20
18.3099
 30
0.0
  0
SPLINE
  5
5A
330
1F
100
AcDbEntity
  8
DEFAULT_1
 62
   250
100
AcDbSpline
210
0.0
220
0.0
230
1.0
 70
    11
 71
     3
 72
    52
 73
    48
 74
     0
 42
0.0000000001
 43
0.0000000001
 40
0.0
 40
0.0
 40
0.0
 40
0.0
 40
0.0769230769230769
 40
0.0769230769230769
 40
0.0769230769230769
 40
0.0769230769230769
 40
0.1538461538461539
 40
0.1538461538461539
 40
0.1538461538461539
 40
0.1538461538461539
 40
0.2307692307692308
 40
0.2307692307692308
 40
0.2307692307692308
 40
0.2307692307692308
 40
0.3076923076923077
 40
0.3076923076923077
 40
0.3076923076923077
 40
0.3076923076923077
 40
0.3846153846153846
 40
0.3846153846153846
 40
0.3846153846153846
 40
0.3846153846153846
 40
0.4615384615384616
 40
0.4615384615384616
 40
0.4615384615384616
 40
0.4615384615384616
 40
0.5384615384615384
 40
0.5384615384615384
 40
0.5384615384615384
 40
0.5384615384615384
 40
0.6153846153846154
 40
0.6153846153846154
 40
0.6153846153846154
 40
0.6153846153846154
 40
0.6923076923076923
 40
0.6923076923076923
 40
0.6923076923076923
 40
0.6923076923076923
 40
0.7692307692307693
 40
0.7692307692307693
 40
0.7692307692307693
 40
0.7692307692307693
 40
0.8461538461538461
 40
0.8461538461538461
 40
0.8461538461538461
 40
0.8461538461538461
 40
1.0
 40
1.0
 40
1.0
 40
1.0
 10
5.4065
 20
19.0676
 30
0.0
 10
5.4065
 20
19.3066
 30
0.0
 10
5.431
 20
19.499
 30
0.0
 10
5.4804
 20
19.6443
 30
0.0
 10
5.4804
 20
19.6443
 30
0.0
 10
5.5293
 20
19.7901
 30
0.0
 10
5.6027
 20
19.9025
 30
0.0
 10
5.6996
 20
19.9816
 30
0.0
 10
5.6996
 20
19.9816
 30
0.0
 10
5.7965
 20
20.0606
 30
0.0
 10
5.9183
 20
20.1001
 30
0.0
 10
6.065
 20
20.1001
 30
0.0
 10
6.065
 20
20.1001
 30
0.0
 10
6.1737
 20
20.1001
 30
0.0
 10
6.2687
 20
20.078
 30
0.0
 10
6.3505
 20
20.0342
 30
0.0
 10
6.3505
 20
20.0342
 30
0.0
 10
6.4324
 20
19.991
 30
0.0
 10
6.4997
 20
19.9279
 30
0.0
 10
6.5533
 20
19.8456
 30
0.0
 10
6.5533
 20
19.8456
 30
0.0
 10
6.6064
 20
19.7633
 30
0.0
 10
6.6483
 20
19.6631
 30
0.0
 10
6.6784
 20
19.5451
 30
0.0
 10
6.6784
 20
19.5451
 30
0.0
 10
6.709
 20
19.427
 30
0.0
 10
6.724
 20
19.268
 30
0.0
 10
6.724
 20
19.0676
 30
0.0
 10
6.724
 20
19.0676
 30
0.0
 10
6.724
 20
18.8306
 30
0.0
 10
6.6996
 20
18.6396
 30
0.0
 10
6.6511
 20
18.4938
 30
0.0
 10
6.6511
 20
18.4938
 30
0.0
 10
6.6022
 20
18.348
 30
0.0
 10
6.5293
 20
18.2356
 30
0.0
 10
6.4324
 20
18.1561
 30
0.0
 10
6.4324
 20
18.1561
 30
0.0
 10
6.3355
 20
18.0766
 30
0.0
 10
6.2132
 20
18.0371
 30
0.0
 10
6.065
 20
18.0371
 30
0.0
 10
6.065
 20
18.0371
 30
0.0
 10
5.8703
 20
18.0371
 30
0.0
 10
5.7174
 20
18.1067
 30
0.0
 10
5.6064
 20
18.2464
 30
0.0
 10
5.6064
 20
18.2464
 30
0.0
 10
5.4733
 20
18.4143
 30
0.0
 10
5.4065
 20
18.6885
 30
0.0
 10
5.4065
 20
19.0676
 30
0.0
  0
SPLINE
  5
5B
330
1F
100
AcDbEntity
  8
DEFAULT_1
 62
   250
100
AcDbSpline
210
0.0
220
0.0
230
1.0
 70
    11
 71
     3
 72
    36
 73
    32
 74
     0
 42
0.0000000001
 43
0.0000000001
 40
0.0
 40
0.0
 40
0.0
 40
0.0
 40
0.1111111111111111
 40
0.1111111111111111
 40
0.1111111111111111
 40
0.1111111111111111
 40
0.2222222222222222
 40
0.2222222222222222
 40
0.2222222222222222
 40
0.2222222222222222
 40
0.3333333333333333
 40
0.3333333333333333
 40
0.3333333333333333
 40
0.3333333333333333
 40
0.4444444444444444
 40
0.4444444444444444
 40
0.4444444444444444
 40
0.4444444444444444
 40
0.5555555555555556
 40
0.5555555555555556
 40
0.5555555555555556
 40
0.5555555555555556
 40
0.6666666666666666
 40
0.6666666666666666
 40
0.6666666666666666
 40
0.6666666666666666
 40
0.7777777777777778
 40
0.7777777777777778
 40
0.7777777777777778
 40
0.7777777777777778
 40
1.0
 40
1.0
 40
1.0
 40
1.0
 10
5.6615
 20
19.0676
 30
0.0
 10
5.6615
 20
18.736
 30
0.0
 10
5.7005
 20
18.5154
 30
0.0
 10
5.7781
 20
18.4054
 30
0.0
 10
5.7781
 20
18.4054
 30
0.0
 10
5.8557
 20
18.2958
 30
0.0
 10
5.9512
 20
18.2407
 30
0.0
 10
6.065
 20
18.2407
 30
0.0
 10
6.065
 20
18.2407
 30
0.0
 10
6.1793
 20
18.2407
 30
0.0
 10
6.2748
 20
18.2962
 30
0.0
 10
6.3524
 20
18.4063
 30
0.0
 10
6.3524
 20
18.4063
 30
0.0
 10
6.43
 20
18.5164
 30
0.0
 10
6.4691
 20
18.737
 30
0.0
 10
6.4691
 20
19.0676
 30
0.0
 10
6.4691
 20
19.0676
 30
0.0
 10
6.4691
 20
19.4002
 30
0.0
 10
6.43
 20
19.6213
 30
0.0
 10
6.3524
 20
19.7304
 30
0.0
 10
6.3524
 20
19.7304
 30
0.0
 10
6.2748
 20
19.84
 30
0.0
 10
6.1784
 20
19.8945
 30
0.0
 10
6.0627
 20
19.8945
 30
0.0
 10
6.0627
 20
19.8945
 30
0.0
 10
5.9484
 20
19.8945
 30
0.0
 10
5.8576
 20
19.8461
 30
0.0
 10
5.7894
 20
19.7497
 30
0.0
 10
5.7894
 20
19.7497
 30
0.0
 10
5.7043
 20
19.6269
 30
0.0
 10
5.6615
 20
19.3992
 30
0.0
 10
5.6615
 20
19.0676
 30
0.0
  0
SPLINE
  5
5C
330
1F
100
AcDbEntity
  8
DEFAULT_1
 62
   250
100
AcDbSpline
210
0.0
220
0.0
230
1.0
 70
    11
 71
     3
 72
    84
 73
    80
 74
     0
 42
0.0000000001
 43
0.0000000001
 40
0.0
 40
0.0
 40
0.0
 40
0.0
 40
0.0476190476190476
 40
0.0476190476190476
 40
0.0476190476190476
 40
0.0476190476190476
 40
0.0952380952380952
 40
0.0952380952380952
 40
0.0952380952380952
 40
0.0952380952380952
 40
0.1428571428571428
 40
0.1428571428571428
 40
0.1428571428571428
 40
0.1428571428571428
 40
0.1904761904761905
 40
0.1904761904761905
 40
0.1904761904761905
 40
0.1904761904761905
 40
0.2380952380952381
 40
0.2380952380952381
 40
0.2380952380952381
 40
0.2380952380952381
 40
0.2857142857142857
 40
0.2857142857142857
 40
0.2857142857142857
 40
0.2857142857142857
 40
0.3333333333333333
 40
0.3333333333333333
 40
0.3333333333333333
 40
0.3333333333333333
 40
0.3809523809523809
 40
0.3809523809523809
 40
0.3809523809523809
 40
0.3809523809523809
 40
0.4285714285714285
 40
0.4285714285714285
 40
0.4285714285714285
 40
0.4285714285714285
 40
0.4761904761904762
 40
0.4761904761904762
 40
0.4761904761904762
 40
0.4761904761904762
 40
0.5238095238095238
 40
0.5238095238095238
 40
0.5238095238095238
 40
0.5238095238095238
 40
0.5714285714285714
 40
0.5714285714285714
 40
0.5714285714285714
 40
0.5714285714285714
 40
0.6190476190476191
 40
0.6190476190476191
 40
0.6190476190476191
 40
0.6190476190476191
 40
0.6666666666666666
 40
0.6666666666666666
 40
0.6666666666666666
 40
0.6666666666666666
 40
0.7142857142857143
 40
0.7142857142857143
 40
0.7142857142857143
 40
0.7142857142857143
 40
0.7619047619047619
 40
0.7619047619047619
 40
0.7619047619047619
 40
0.7619047619047619
 40
0.8095238095238095
 40
0.8095238095238095
 40
0.8095238095238095
 40
0.8095238095238095
 40
0.8571428571428571
 40
0.8571428571428571
 40
0.8571428571428571
 40
0.8571428571428571
 40
0.9047619047619048
 40
0.9047619047619048
 40
0.9047619047619048
 40
0.9047619047619048
 40
1.0
 40
1.0
 40
1.0
 40
1.0
 10
2.2788
 20
-17.1884
 30
0.0
 10
2.2788
 20
-17.1884
 30
0.0
 10
2.5102
 20
-16.9293
 30
0.0
 10
2.5102
 20
-16.9293
 30
0.0
 10
2.5102
 20
-16.9293
 30
0.0
 10
2.5102
 20
-16.9293
 30
0.0
 10
2.6466
 20
-17.045
 30
0.0
 10
2.6466
 20
-17.045
 30
0.0
 10
2.6466
 20
-17.045
 30
0.0
 10
2.6466
 20
-17.045
 30
0.0
 10
2.4044
 20
-17.3178
 30
0.0
 10
2.4044
 20
-17.3178
 30
0.0
 10
2.4044
 20
-17.3178
 30
0.0
 10
2.4834
 20
-17.4354
 30
0.0
 10
2.5365
 20
-17.5384
 30
0.0
 10
2.5643
 20
-17.6263
 30
0.0
 10
2.5643
 20
-17.6263
 30
0.0
 10
2.601
 20
-17.7421
 30
0.0
 10
2.6193
 20
-17.8719
 30
0.0
 10
2.6193
 20
-18.0149
 30
0.0
 10
2.6193
 20
-18.0149
 30
0.0
 10
2.6193
 20
-18.2218
 30
0.0
 10
2.5775
 20
-18.4062
 30
0.0
 10
2.4937
 20
-18.5675
 30
0.0
 10
2.4937
 20
-18.5675
 30
0.0
 10
2.41
 20
-18.7294
 30
0.0
 10
2.2929
 20
-18.8516
 30
0.0
 10
2.1419
 20
-18.9344
 30
0.0
 10
2.1419
 20
-18.9344
 30
0.0
 10
1.9904
 20
-19.0167
 30
0.0
 10
1.8301
 20
-19.0581
 30
0.0
 10
1.6603
 20
-19.0581
 30
0.0
 10
1.6603
 20
-19.0581
 30
0.0
 10
1.5333
 20
-19.0581
 30
0.0
 10
1.4185
 20
-19.0403
 30
0.0
 10
1.3155
 20
-19.0045
 30
0.0
 10
1.3155
 20
-19.0045
 30
0.0
 10
1.2365
 20
-18.9768
 30
0.0
 10
1.1443
 20
-18.9241
 30
0.0
 10
1.0384
 20
-18.846
 30
0.0
 10
1.0384
 20
-18.846
 30
0.0
 10
1.0384
 20
-18.846
 30
0.0
 10
0.807
 20
-19.1052
 30
0.0
 10
0.807
 20
-19.1052
 30
0.0
 10
0.807
 20
-19.1052
 30
0.0
 10
0.807
 20
-19.1052
 30
0.0
 10
0.6706
 20
-18.9895
 30
0.0
 10
0.6706
 20
-18.9895
 30
0.0
 10
0.6706
 20
-18.9895
 30
0.0
 10
0.6706
 20
-18.9895
 30
0.0
 10
0.9133
 20
-18.7181
 30
0.0
 10
0.9133
 20
-18.7181
 30
0.0
 10
0.9133
 20
-18.7181
 30
0.0
 10
0.823
 20
-18.5812
 30
0.0
 10
0.7628
 20
-18.4641
 30
0.0
 10
0.7327
 20
-18.3672
 30
0.0
 10
0.7327
 20
-18.3672
 30
0.0
 10
0.7026
 20
-18.2703
 30
0.0
 10
0.6871
 20
-18.1536
 30
0.0
 10
0.6871
 20
-18.0177
 30
0.0
 10
0.6871
 20
-18.0177
 30
0.0
 10
0.6871
 20
-17.8103
 30
0.0
 10
0.7285
 20
-17.6254
 30
0.0
 10
0.8112
 20
-17.4631
 30
0.0
 10
0.8112
 20
-17.4631
 30
0.0
 10
0.894
 20
-17.3008
 30
0.0
 10
1.0097
 20
-17.1781
 30
0.0
 10
1.1593
 20
-17.0944
 30
0.0
 10
1.1593
 20
-17.0944
 30
0.0
 10
1.3084
 20
-17.0111
 30
0.0
 10
1.4745
 20
-16.9692
 30
0.0
 10
1.6574
 20
-16.9692
 30
0.0
 10
1.6574
 20
-16.9692
 30
0.0
 10
1.7807
 20
-16.9692
 30
0.0
 10
1.8884
 20
-16.9852
 30
0.0
 10
1.9806
 20
-17.0182
 30
0.0
 10
1.9806
 20
-17.0182
 30
0.0
 10
2.0728
 20
-17.0506
 30
0.0
 10
2.1725
 20
-17.1075
 30
0.0
 10
2.2788
 20
-17.1884
 30
0.0
  0
SPLINE
  5
5D
330
1F
100
AcDbEntity
  8
DEFAULT_1
 62
   250
100
AcDbSpline
210
0.0
220
0.0
230
1.0
 70
    11
 71
     3
 72
    32
 73
    28
 74
     0
 42
0.0000000001
 43
0.0000000001
 40
0.0
 40
0.0
 40
0.0
 40
0.0
 40
0.125
 40
0.125
 40
0.125
 40
0.125
 40
0.25
 40
0.25
 40
0.25
 40
0.25
 40
0.375
 40
0.375
 40
0.375
 40
0.375
 40
0.5
 40
0.5
 40
0.5
 40
0.5
 40
0.625
 40
0.625
 40
0.625
 40
0.625
 40
0.75
 40
0.75
 40
0.75
 40
0.75
 40
1.0
 40
1.0
 40
1.0
 40
1.0
 10
2.1137
 20
-17.3742
 30
0.0
 10
2.0271
 20
-17.3065
 30
0.0
 10
1.9514
 20
-17.2599
 30
0.0
 10
1.887
 20
-17.235
 30
0.0
 10
1.887
 20
-17.235
 30
0.0
 10
1.8221
 20
-17.2105
 30
0.0
 10
1.7459
 20
-17.1978
 30
0.0
 10
1.6588
 20
-17.1978
 30
0.0
 10
1.6588
 20
-17.1978
 30
0.0
 10
1.4575
 20
-17.1978
 30
0.0
 10
1.2915
 20
-17.266
 30
0.0
 10
1.1598
 20
-17.4024
 30
0.0
 10
1.1598
 20
-17.4024
 30
0.0
 10
1.0285
 20
-17.5389
 30
0.0
 10
0.9627
 20
-17.7425
 30
0.0
 10
0.9627
 20
-18.0139
 30
0.0
 10
0.9627
 20
-18.0139
 30
0.0
 10
0.9627
 20
-18.1202
 30
0.0
 10
0.973
 20
-18.2148
 30
0.0
 10
0.9933
 20
-18.2976
 30
0.0
 10
0.9933
 20
-18.2976
 30
0.0
 10
1.0079
 20
-18.3592
 30
0.0
 10
1.0384
 20
-18.4349
 30
0.0
 10
1.0855
 20
-18.5247
 30
0.0
 10
1.0855
 20
-18.5247
 30
0.0
 10
1.0855
 20
-18.5247
 30
0.0
 10
2.1137
 20
-17.3742
 30
0.0
 10
2.1137
 20
-17.3742
 30
0.0
  0
SPLINE
  5
5E
330
1F
100
AcDbEntity
  8
DEFAULT_1
 62
   250
100
AcDbSpline
210
0.0
220
0.0
230
1.0
 70
    11
 71
     3
 72
    28
 73
    24
 74
     0
 42
0.0000000001
 43
0.0000000001
 40
0.0
 40
0.0
 40
0.0
 40
0.0
 40
0.1428571428571428
 40
0.1428571428571428
 40
0.1428571428571428
 40
0.1428571428571428
 40
0.2857142857142857
 40
0.2857142857142857
 40
0.2857142857142857
 40
0.2857142857142857
 40
0.4285714285714285
 40
0.4285714285714285
 40
0.4285714285714285
 40
0.4285714285714285
 40
0.5714285714285714
 40
0.5714285714285714
 40
0.5714285714285714
 40
0.5714285714285714
 40
0.7142857142857143
 40
0.7142857142857143
 40
0.7142857142857143
 40
0.7142857142857143
 40
1.0
 40
1.0
 40
1.0
 40
1.0
 10
2.2266
 20
-17.5163
 30
0.0
 10
2.2266
 20
-17.5163
 30
0.0
 10
1.2026
 20
-18.6626
 30
0.0
 10
1.2026
 20
-18.6626
 30
0.0
 10
1.2026
 20
-18.6626
 30
0.0
 10
1.2731
 20
-18.7204
 30
0.0
 10
1.3385
 20
-18.7609
 30
0.0
 10
1.3983
 20
-18.7839
 30
0.0
 10
1.3983
 20
-18.7839
 30
0.0
 10
1.4763
 20
-18.8145
 30
0.0
 10
1.561
 20
-18.8295
 30
0.0
 10
1.6518
 20
-18.8295
 30
0.0
 10
1.6518
 20
-18.8295
 30
0.0
 10
1.8522
 20
-18.8295
 30
0.0
 10
2.0173
 20
-18.759
 30
0.0
 10
2.148
 20
-18.6174
 30
0.0
 10
2.148
 20
-18.6174
 30
0.0
 10
2.2783
 20
-18.4758
 30
0.0
 10
2.3437
 20
-18.2773
 30
0.0
 10
2.3437
 20
-18.0219
 30
0.0
 10
2.3437
 20
-18.0219
 30
0.0
 10
2.3437
 20
-17.831
 30
0.0
 10
2.3047
 20
-17.6621
 30
0.0
 10
2.2266
 20
-17.5163
 30
0.0
  0
SPLINE
  5
5F
330
1F
100
AcDbEntity
  8
DEFAULT_1
 62
   250
100
AcDbSpline
210
0.0
220
0.0
230
1.0
 70
    11
 71
     3
 72
    48
 73
    44
 74
     0
 42
0.0000000001
 43
0.0000000001
 40
0.0
 40
0.0
 40
0.0
 40
0.0
 40
0.0833333333333333
 40
0.0833333333333333
 40
0.0833333333333333
 40
0.0833333333333333
 40
0.1666666666666667
 40
0.1666666666666667
 40
0.1666666666666667
 40
0.1666666666666667
 40
0.25
 40
0.25
 40
0.25
 40
0.25
 40
0.3333333333333333
 40
0.3333333333333333
 40
0.3333333333333333
 40
0.3333333333333333
 40
0.4166666666666667
 40
0.4166666666666667
 40
0.4166666666666667
 40
0.4166666666666667
 40
0.5
 40
0.5
 40
0.5
 40
0.5
 40
0.5833333333333334
 40
0.5833333333333334
 40
0.5833333333333334
 40
0.5833333333333334
 40
0.6666666666666666
 40
0.6666666666666666
 40
0.6666666666666666
 40
0.6666666666666666
 40
0.75
 40
0.75
 40
0.75
 40
0.75
 40
0.8333333333333334
 40
0.8333333333333334
 40
0.8333333333333334
 40
0.8333333333333334
 40
1.0
 40
1.0
 40
1.0
 40
1.0
 10
2.8851
 20
-17.2684
 30
0.0
 10
2.8851
 20
-17.2684
 30
0.0
 10
2.8851
 20
-17.0299
 30
0.0
 10
2.8851
 20
-17.0299
 30
0.0
 10
2.8851
 20
-17.0299
 30
0.0
 10
2.8851
 20
-17.0299
 30
0.0
 10
4.1927
 20
-17.0299
 30
0.0
 10
4.1927
 20
-17.0299
 30
0.0
 10
4.1927
 20
-17.0299
 30
0.0
 10
4.1927
 20
-17.0299
 30
0.0
 10
4.1927
 20
-17.2228
 30
0.0
 10
4.1927
 20
-17.2228
 30
0.0
 10
4.1927
 20
-17.2228
 30
0.0
 10
4.0643
 20
-17.3596
 30
0.0
 10
3.9368
 20
-17.5417
 30
0.0
 10
3.8103
 20
-17.7684
 30
0.0
 10
3.8103
 20
-17.7684
 30
0.0
 10
3.6842
 20
-17.9951
 30
0.0
 10
3.5864
 20
-18.2289
 30
0.0
 10
3.5177
 20
-18.4683
 30
0.0
 10
3.5177
 20
-18.4683
 30
0.0
 10
3.4679
 20
-18.6376
 30
0.0
 10
3.4364
 20
-18.8225
 30
0.0
 10
3.4227
 20
-19.0238
 30
0.0
 10
3.4227
 20
-19.0238
 30
0.0
 10
3.4227
 20
-19.0238
 30
0.0
 10
3.1678
 20
-19.0238
 30
0.0
 10
3.1678
 20
-19.0238
 30
0.0
 10
3.1678
 20
-19.0238
 30
0.0
 10
3.1706
 20
-18.8648
 30
0.0
 10
3.2016
 20
-18.6729
 30
0.0
 10
3.2614
 20
-18.4476
 30
0.0
 10
3.2614
 20
-18.4476
 30
0.0
 10
3.3211
 20
-18.2228
 30
0.0
 10
3.4067
 20
-18.0055
 30
0.0
 10
3.5182
 20
-17.7966
 30
0.0
 10
3.5182
 20
-17.7966
 30
0.0
 10
3.6301
 20
-17.5878
 30
0.0
 10
3.7487
 20
-17.4114
 30
0.0
 10
3.8747
 20
-17.2684
 30
0.0
 10
3.8747
 20
-17.2684
 30
0.0
 10
3.8747
 20
-17.2684
 30
0.0
 10
2.8851
 20
-17.2684
 30
0.0
 10
2.8851
 20
-17.2684
 30
0.0
  0
SPLINE
  5
60
330
1F
100
AcDbEntity
  8
DEFAULT_1
 62
   250
100
AcDbSpline
210
0.0
220
0.0
230
1.0
 70
    11
 71
     3
 72
    92
 73
    88
 74
     0
 42
0.0000000001
 43
0.0000000001
 40
0.0
 40
0.0
 40
0.0
 40
0.0
 40
0.0434782608695652
 40
0.0434782608695652
 40
0.0434782608695652
 40
0.0434782608695652
 40
0.0869565217391304
 40
0.0869565217391304
 40
0.0869565217391304
 40
0.0869565217391304
 40
0.1304347826086956
 40
0.1304347826086956
 40
0.1304347826086956
 40
0.1304347826086956
 40
0.1739130434782609
 40
0.1739130434782609
 40
0.1739130434782609
 40
0.1739130434782609
 40
0.2173913043478261
 40
0.2173913043478261
 40
0.2173913043478261
 40
0.2173913043478261
 40
0.2608695652173913
 40
0.2608695652173913
 40
0.2608695652173913
 40
0.2608695652173913
 40
0.3043478260869565
 40
0.3043478260869565
 40
0.3043478260869565
 40
0.3043478260869565
 40
0.3478260869565217
 40
0.3478260869565217
 40
0.3478260869565217
 40
0.3478260869565217
 40
0.391304347826087
 40
0.391304347826087
 40
0.391304347826087
 40
0.391304347826087
 40
0.4347826086956522
 40
0.4347826086956522
 40
0.4347826086956522
 40
0.4347826086956522
 40
0.4782608695652174
 40
0.4782608695652174
 40
0.4782608695652174
 40
0.4782608695652174
 40
0.5217391304347826
 40
0.5217391304347826
 40
0.5217391304347826
 40
0.5217391304347826
 40
0.5652173913043478
 40
0.5652173913043478
 40
0.5652173913043478
 40
0.5652173913043478
 40
0.6086956521739131
 40
0.6086956521739131
 40
0.6086956521739131
 40
0.6086956521739131
 40
0.6521739130434783
 40
0.6521739130434783
 40
0.6521739130434783
 40
0.6521739130434783
 40
0.6956521739130435
 40
0.6956521739130435
 40
0.6956521739130435
 40
0.6956521739130435
 40
0.7391304347826086
 40
0.7391304347826086
 40
0.7391304347826086
 40
0.7391304347826086
 40
0.782608695652174
 40
0.782608695652174
 40
0.782608695652174
 40
0.782608695652174
 40
0.8260869565217391
 40
0.8260869565217391
 40
0.8260869565217391
 40
0.8260869565217391
 40
0.8695652173913043
 40
0.8695652173913043
 40
0.8695652173913043
 40
0.8695652173913043
 40
0.9130434782608695
 40
0.9130434782608695
 40
0.9130434782608695
 40
0.9130434782608695
 40
1.0
 40
1.0
 40
1.0
 40
1.0
 10
4.4382
 20
-18.4946
 30
0.0
 10
4.4382
 20
-18.4946
 30
0.0
 10
4.6988
 20
-18.4725
 30
0.0
 10
4.6988
 20
-18.4725
 30
0.0
 10
4.6988
 20
-18.4725
 30
0.0
 10
4.7181
 20
-18.5995
 30
0.0
 10
4.7628
 20
-18.6945
 30
0.0
 10
4.8329
 20
-18.7585
 30
0.0
 10
4.8329
 20
-18.7585
 30
0.0
 10
4.9034
 20
-18.8225
 30
0.0
 10
4.9881
 20
-18.8545
 30
0.0
 10
5.0873
 20
-18.8545
 30
0.0
 10
5.0873
 20
-18.8545
 30
0.0
 10
5.2068
 20
-18.8545
 30
0.0
 10
5.3079
 20
-18.8093
 30
0.0
 10
5.3902
 20
-18.7195
 30
0.0
 10
5.3902
 20
-18.7195
 30
0.0
 10
5.473
 20
-18.6292
 30
0.0
 10
5.5144
 20
-18.5097
 30
0.0
 10
5.5144
 20
-18.3611
 30
0.0
 10
5.5144
 20
-18.3611
 30
0.0
 10
5.5144
 20
-18.2195
 30
0.0
 10
5.4749
 20
-18.108
 30
0.0
 10
5.3954
 20
-18.0262
 30
0.0
 10
5.3954
 20
-18.0262
 30
0.0
 10
5.3159
 20
-17.9443
 30
0.0
 10
5.212
 20
-17.9034
 30
0.0
 10
5.0831
 20
-17.9034
 30
0.0
 10
5.0831
 20
-17.9034
 30
0.0
 10
5.0031
 20
-17.9034
 30
0.0
 10
4.9312
 20
-17.9217
 30
0.0
 10
4.8667
 20
-17.9579
 30
0.0
 10
4.8667
 20
-17.9579
 30
0.0
 10
4.8023
 20
-17.9942
 30
0.0
 10
4.752
 20
-18.0412
 30
0.0
 10
4.7153
 20
-18.0991
 30
0.0
 10
4.7153
 20
-18.0991
 30
0.0
 10
4.7153
 20
-18.0991
 30
0.0
 10
4.4824
 20
-18.069
 30
0.0
 10
4.4824
 20
-18.069
 30
0.0
 10
4.4824
 20
-18.069
 30
0.0
 10
4.4824
 20
-18.069
 30
0.0
 10
4.6781
 20
-17.0313
 30
0.0
 10
4.6781
 20
-17.0313
 30
0.0
 10
4.6781
 20
-17.0313
 30
0.0
 10
4.6781
 20
-17.0313
 30
0.0
 10
5.6828
 20
-17.0313
 30
0.0
 10
5.6828
 20
-17.0313
 30
0.0
 10
5.6828
 20
-17.0313
 30
0.0
 10
5.6828
 20
-17.0313
 30
0.0
 10
5.6828
 20
-17.2684
 30
0.0
 10
5.6828
 20
-17.2684
 30
0.0
 10
5.6828
 20
-17.2684
 30
0.0
 10
5.6828
 20
-17.2684
 30
0.0
 10
4.8766
 20
-17.2684
 30
0.0
 10
4.8766
 20
-17.2684
 30
0.0
 10
4.8766
 20
-17.2684
 30
0.0
 10
4.8766
 20
-17.2684
 30
0.0
 10
4.7675
 20
-17.8112
 30
0.0
 10
4.7675
 20
-17.8112
 30
0.0
 10
4.7675
 20
-17.8112
 30
0.0
 10
4.8888
 20
-17.7265
 30
0.0
 10
5.0163
 20
-17.6842
 30
0.0
 10
5.1494
 20
-17.6842
 30
0.0
 10
5.1494
 20
-17.6842
 30
0.0
 10
5.3258
 20
-17.6842
 30
0.0
 10
5.4744
 20
-17.7453
 30
0.0
 10
5.5958
 20
-17.8676
 30
0.0
 10
5.5958
 20
-17.8676
 30
0.0
 10
5.7171
 20
-17.9899
 30
0.0
 10
5.7778
 20
-18.147
 30
0.0
 10
5.7778
 20
-18.3389
 30
0.0
 10
5.7778
 20
-18.3389
 30
0.0
 10
5.7778
 20
-18.5219
 30
0.0
 10
5.7242
 20
-18.68
 30
0.0
 10
5.6179
 20
-18.8131
 30
0.0
 10
5.6179
 20
-18.8131
 30
0.0
 10
5.4881
 20
-18.9763
 30
0.0
 10
5.3112
 20
-19.0581
 30
0.0
 10
5.0873
 20
-19.0581
 30
0.0
 10
5.0873
 20
-19.0581
 30
0.0
 10
4.9034
 20
-19.0581
 30
0.0
 10
4.7534
 20
-19.0069
 30
0.0
 10
4.6372
 20
-18.9039
 30
0.0
 10
4.6372
 20
-18.9039
 30
0.0
 10
4.521
 20
-18.8008
 30
0.0
 10
4.4547
 20
-18.6644
 30
0.0
 10
4.4382
 20
-18.4946
 30
0.0
  0
SPLINE
  5
61
330
1F
100
AcDbEntity
  8
DEFAULT_1
 62
   250
100
AcDbSpline
210
0.0
220
0.0
230
1.0
 70
    11
 71
     3
 72
    20
 73
    16
 74
     0
 42
0.0000000001
 43
0.0000000001
 40
0.0
 40
0.0
 40
0.0
 40
0.0
 40
0.2
 40
0.2
 40
0.2
 40
0.2
 40
0.4
 40
0.4
 40
0.4
 40
0.4
 40
0.6
 40
0.6
 40
0.6
 40
0.6
 40
1.0
 40
1.0
 40
1.0
 40
1.0
 10
18.9453
 20
17.9641
 30
0.0
 10
18.9453
 20
17.9641
 30
0.0
 10
21.4453
 20
17.6112
 30
0.0
 10
21.4453
 20
17.6112
 30
0.0
 10
21.4453
 20
17.6112
 30
0.0
 10
21.4453
 20
17.6112
 30
0.0
 10
21.4453
 20
17.5329
 30
0.0
 10
21.4453
 20
17.5329
 30
0.0
 10
21.4453
 20
17.5329
 30
0.0
 10
21.4453
 20
17.5329
 30
0.0
 10
18.9453
 20
17.1566
 30
0.0
 10
18.9453
 20
17.1566
 30
0.0
 10
18.9453
 20
17.1566
 30
0.0
 10
18.9453
 20
17.1566
 30
0.0
 10
18.9453
 20
17.9641
 30
0.0
 10
18.9453
 20
17.9641
 30
0.0
  0
SPLINE
  5
62
330
1F
100
AcDbEntity
  8
DEFAULT_1
 62
   250
100
AcDbSpline
210
0.0
220
0.0
230
1.0
 70
    11
 71
     3
 72
    20
 73
    16
 74
     0
 42
0.0000000001
 43
0.0000000001
 40
0.0
 40
0.0
 40
0.0
 40
0.0
 40
0.2
 40
0.2
 40
0.2
 40
0.2
 40
0.4
 40
0.4
 40
0.4
 40
0.4
 40
0.6
 40
0.6
 40
0.6
 40
0.6
 40
1.0
 40
1.0
 40
1.0
 40
1.0
 10
7.0781
 20
-19.2634
 30
0.0
 10
7.0781
 20
-19.2634
 30
0.0
 10
9.5781
 20
-19.6163
 30
0.0
 10
9.5781
 20
-19.6163
 30
0.0
 10
9.5781
 20
-19.6163
 30
0.0
 10
9.5781
 20
-19.6163
 30
0.0
 10
9.5781
 20
-19.6946
 30
0.0
 10
9.5781
 20
-19.6946
 30
0.0
 10
9.5781
 20
-19.6946
 30
0.0
 10
9.5781
 20
-19.6946
 30
0.0
 10
7.0781
 20
-20.0709
 30
0.0
 10
7.0781
 20
-20.0709
 30
0.0
 10
7.0781
 20
-20.0709
 30
0.0
 10
7.0781
 20
-20.0709
 30
0.0
 10
7.0781
 20
-19.2634
 30
0.0
 10
7.0781
 20
-19.2634
 30
0.0
  0
SPLINE
  5
63
330
1F
100
AcDbEntity
  8
DEFAULT_1
 62
   250
100
AcDbSpline
210
0.0
220
0.0
230
1.0
 70
    11
 71
     3
 72
    20
 73
    16
 74
     0
 42
0.0000000001
 43
0.0000000001
 40
0.0
 40
0.0
 40
0.0
 40
0.0
 40
0.2
 40
0.2
 40
0.2
 40
0.2
 40
0.4
 40
0.4
 40
0.4
 40
0.4
 40
0.6
 40
0.6
 40
0.6
 40
0.6
 40
1.0
 40
1.0
 40
1.0
 40
1.0
 10
-12.6782
 20
17.2157
 30
0.0
 10
-12.6782
 20
17.2157
 30
0.0
 10
-15.1782
 20
17.5686
 30
0.0
 10
-15.1782
 20
17.5686
 30
0.0
 10
-15.1782
 20
17.5686
 30
0.0
 10
-15.1782
 20
17.5686
 30
0.0
 10
-15.1782
 20
17.6469
 30
0.0
 10
-15.1782
 20
17.6469
 30
0.0
 10
-15.1782
 20
17.6469
 30
0.0
 10
-15.1782
 20
17.6469
 30
0.0
 10
-12.6782
 20
18.0232
 30
0.0
 10
-12.6782
 20
18.0232
 30
0.0
 10
-12.6782
 20
18.0232
 30
0.0
 10
-12.6782
 20
18.0232
 30
0.0
 10
-12.6782
 20
17.2157
 30
0.0
 10
-12.6782
 20
17.2157
 30
0.0
  0
SPLINE
  5
64
330
1F
100
AcDbEntity
  8
DEFAULT_1
 62
   250
100
AcDbSpline
210
0.0
220
0.0
230
1.0
 70
    11
 71
     3
 72
    20
 73
    16
 74
     0
 42
0.0000000001
 43
0.0000000001
 40
0.0
 40
0.0
 40
0.0
 40
0.0
 40
0.2
 40
0.2
 40
0.2
 40
0.2
 40
0.4
 40
0.4
 40
0.4
 40
0.4
 40
0.6
 40
0.6
 40
0.6
 40
0.6
 40
1.0
 40
1.0
 40
1.0
 40
1.0
 10
-0.6997
 20
-20.0118
 30
0.0
 10
-0.6997
 20
-20.0118
 30
0.0
 10
-3.1997
 20
-19.6589
 30
0.0
 10
-3.1997
 20
-19.6589
 30
0.0
 10
-3.1997
 20
-19.6589
 30
0.0
 10
-3.1997
 20
-19.6589
 30
0.0
 10
-3.1997
 20
-19.5806
 30
0.0
 10
-3.1997
 20
-19.5806
 30
0.0
 10
-3.1997
 20
-19.5806
 30
0.0
 10
-3.1997
 20
-19.5806
 30
0.0
 10
-0.6997
 20
-19.2043
 30
0.0
 10
-0.6997
 20
-19.2043
 30
0.0
 10
-0.6997
 20
-19.2043
 30
0.0
 10
-0.6997
 20
-19.2043
 30
0.0
 10
-0.6997
 20
-20.0118
 30
0.0
 10
-0.6997
 20
-20.0118
 30
0.0
  0
SPLINE
  5
65
330
1F
100
AcDbEntity
  8
DEFAULT_1
  6
NEW_LINE1
 62
   250
100
AcDbSpline
210
0.0
220
0.0
230
1.0
 70
    24
 71
     3
 72
     8
 73
     4
 74
     0
 42
0.0000000001
 43
0.0000000001
 40
0.0
 40
0.0
 40
0.0
 40
0.0
 40
1.0
 40
1.0
 40
1.0
 40
1.0
 10
3.2291
 20
-10.197
 30
0.0
 10
3.2291
 20
-10.197
 30
0.0
 10
3.2291
 20
15.2952
 30
0.0
 10
3.2291
 20
15.2952
 30
0.0
  0
SPLINE
  5
67
330
1F
100
AcDbEntity
  8
DEFAULT_1
 62
   250
100
AcDbSpline
210
0.0
220
0.0
230
1.0
 70
    24
 71
     3
 72
     8
 73
     4
 74
     0
 42
0.0000000001
 43
0.0000000001
 40
0.0
 40
0.0
 40
0.0
 40
0.0
 40
1.0
 40
1.0
 40
1.0
 40
1.0
 10
-15.1947
 20
13.2119
 30
0.0
 10
-15.1947
 20
13.2119
 30
0.0
 10
21.6249
 20
13.2119
 30
0.0
 10
21.6249
 20
13.2119
 30
0.0
  0
SPLINE
  5
68
330
1F
100
AcDbEntity
  8
DEFAULT_1
 62
   250
100
AcDbSpline
210
0.0
220
0.0
230
1.0
 70
    24
 71
     3
 72
     8
 73
     4
 74
     0
 42
0.0000000001
 43
0.0000000001
 40
0.0
 40
0.0
 40
0.0
 40
0.0
 40
1.0
 40
1.0
 40
1.0
 40
1.0
 10
-8.8471
 20
13.2119
 30
0.0
 10
-8.8471
 20
13.2119
 30
0.0
 10
-6.7308
 20
13.2119
 30
0.0
 10
-6.7308
 20
13.2119
 30
0.0
  0
SPLINE
  5
69
330
1F
100
AcDbEntity
  8
DEFAULT_1
 62
   250
100
AcDbSpline
210
0.0
220
0.0
230
1.0
 70
    24
 71
     3
 72
     8
 73
     4
 74
     0
 42
0.0000000001
 43
0.0000000001
 40
0.0
 40
0.0
 40
0.0
 40
0.0
 40
1.0
 40
1.0
 40
1.0
 40
1.0
 10
-5.2413
 20
13.2119
 30
0.0
 10
-5.2413
 20
13.2119
 30
0.0
 10
2.4703
 20
13.2119
 30
0.0
 10
2.4703
 20
13.2119
 30
0.0
  0
SPLINE
  5
6A
330
1F
100
AcDbEntity
  8
DEFAULT_1
 62
   250
100
AcDbSpline
210
0.0
220
0.0
230
1.0
 70
    24
 71
     3
 72
     8
 73
     4
 74
     0
 42
0.0000000001
 43
0.0000000001
 40
0.0
 40
0.0
 40
0.0
 40
0.0
 40
1.0
 40
1.0
 40
1.0
 40
1.0
 10
-3.0788
 20
13.714
 30
0.0
 10
-3.0788
 20
13.714
 30
0.0
 10
-2.8737
 20
13.2119
 30
0.0
 10
-2.8737
 20
13.2119
 30
0.0
  0
SPLINE
  5
6B
330
1F
100
AcDbEntity
  8
DEFAULT_1
 62
   250
100
AcDbSpline
210
0.0
220
0.0
230
1.0
 70
    24
 71
     3
 72
     8
 73
     4
 74
     0
 42
0.0000000001
 43
0.0000000001
 40
0.0
 40
0.0
 40
0.0
 40
0.0
 40
1.0
 40
1.0
 40
1.0
 40
1.0
 10
-3.0788
 20
13.714
 30
0.0
 10
-3.0788
 20
13.714
 30
0.0
 10
-3.8651
 20
13.714
 30
0.0
 10
-3.8651
 20
13.714
 30
0.0
  0
SPLINE
  5
6C
330
1F
100
AcDbEntity
  8
DEFAULT_1
 62
   250
100
AcDbSpline
210
0.0
220
0.0
230
1.0
 70
    24
 71
     3
 72
     8
 73
     4
 74
     0
 42
0.0000000001
 43
0.0000000001
 40
0.0
 40
0.0
 40
0.0
 40
0.0
 40
1.0
 40
1.0
 40
1.0
 40
1.0
 10
-3.8651
 20
13.2119
 30
0.0
 10
-3.8651
 20
13.2119
 30
0.0
 10
-3.8651
 20
13.714
 30
0.0
 10
-3.8651
 20
13.714
 30
0.0
  0
SPLINE
  5
6D
330
1F
100
AcDbEntity
  8
DEFAULT_1
 62
   250
100
AcDbSpline
210
0.0
220
0.0
230
1.0
 70
    24
 71
     3
 72
     8
 73
     4
 74
     0
 42
0.0000000001
 43
0.0000000001
 40
0.0
 40
0.0
 40
0.0
 40
0.0
 40
1.0
 40
1.0
 40
1.0
 40
1.0
 10
3.9599
 20
13.2119
 30
0.0
 10
3.9599
 20
13.2119
 30
0.0
 10
11.6715
 20
13.2119
 30
0.0
 10
11.6715
 20
13.2119
 30
0.0
  0
SPLINE
  5
6E
330
1F
100
AcDbEntity
  8
DEFAULT_1
 62
   250
100
AcDbSpline
210
0.0
220
0.0
230
1.0
 70
    24
 71
     3
 72
     8
 73
     4
 74
     0
 42
0.0000000001
 43
0.0000000001
 40
0.0
 40
0.0
 40
0.0
 40
0.0
 40
1.0
 40
1.0
 40
1.0
 40
1.0
 10
10.2953
 20
13.714
 30
0.0
 10
10.2953
 20
13.714
 30
0.0
 10
9.5091
 20
13.714
 30
0.0
 10
9.5091
 20
13.714
 30
0.0
  0
SPLINE
  5
6F
330
1F
100
AcDbEntity
  8
DEFAULT_1
 62
   250
100
AcDbSpline
210
0.0
220
0.0
230
1.0
 70
    24
 71
     3
 72
     8
 73
     4
 74
     0
 42
0.0000000001
 43
0.0000000001
 40
0.0
 40
0.0
 40
0.0
 40
0.0
 40
1.0
 40
1.0
 40
1.0
 40
1.0
 10
9.304
 20
13.2119
 30
0.0
 10
9.304
 20
13.2119
 30
0.0
 10
9.5091
 20
13.714
 30
0.0
 10
9.5091
 20
13.714
 30
0.0
  0
SPLINE
  5
70
330
1F
100
AcDbEntity
  8
DEFAULT_1
 62
   250
100
AcDbSpline
210
0.0
220
0.0
230
1.0
 70
    24
 71
     3
 72
     8
 73
     4
 74
     0
 42
0.0000000001
 43
0.0000000001
 40
0.0
 40
0.0
 40
0.0
 40
0.0
 40
1.0
 40
1.0
 40
1.0
 40
1.0
 10
10.2953
 20
13.2119
 30
0.0
 10
10.2953
 20
13.2119
 30
0.0
 10
10.2953
 20
13.714
 30
0.0
 10
10.2953
 20
13.714
 30
0.0
  0
SPLINE
  5
71
330
1F
100
AcDbEntity
  8
DEFAULT_1
 62
   250
100
AcDbSpline
210
0.0
220
0.0
230
1.0
 70
    24
 71
     3
 72
     8
 73
     4
 74
     0
 42
0.0000000001
 43
0.0000000001
 40
0.0
 40
0.0
 40
0.0
 40
0.0
 40
1.0
 40
1.0
 40
1.0
 40
1.0
 10
13.161
 20
13.2119
 30
0.0
 10
13.161
 20
13.2119
 30
0.0
 10
15.2773
 20
13.2119
 30
0.0
 10
15.2773
 20
13.2119
 30
0.0
  0
SPLINE
  5
72
330
1F
100
AcDbEntity
  8
DEFAULT_1
 62
   250
100
AcDbSpline
210
0.0
220
0.0
230
1.0
 70
    24
 71
     3
 72
     8
 73
     4
 74
     0
 42
0.0000000001
 43
0.0000000001
 40
0.0
 40
0.0
 40
0.0
 40
0.0
 40
1.0
 40
1.0
 40
1.0
 40
1.0
 10
-2.8814
 20
-9.2147
 30
0.0
 10
-2.8814
 20
-9.2147
 30
0.0
 10
9.3115
 20
-9.2147
 30
0.0
 10
9.3115
 20
-9.2147
 30
0.0
  0
SPLINE
  5
73
330
1F
100
AcDbEntity
  8
DEFAULT_1
 62
   250
100
AcDbSpline
210
0.0
220
0.0
230
1.0
 70
    24
 71
     3
 72
     8
 73
     4
 74
     0
 42
0.0000000001
 43
0.0000000001
 40
0.0
 40
0.0
 40
0.0
 40
0.0
 40
1.0
 40
1.0
 40
1.0
 40
1.0
 10
-5.1155
 20
10.1783
 30
0.0
 10
-5.1155
 20
10.1783
 30
0.0
 10
-5.1122
 20
10.1818
 30
0.0
 10
-5.1122
 20
10.1818
 30
0.0
  0
SPLINE
  5
74
330
1F
100
AcDbEntity
  8
DEFAULT_1
 62
   250
100
AcDbSpline
210
0.0
220
0.0
230
1.0
 70
    24
 71
     3
 72
     8
 73
     4
 74
     0
 42
0.0000000001
 43
0.0000000001
 40
0.0
 40
0.0
 40
0.0
 40
0.0
 40
1.0
 40
1.0
 40
1.0
 40
1.0
 10
-5.0922
 20
10.2011
 30
0.0
 10
-5.0922
 20
10.2011
 30
0.0
 10
-5.0885
 20
10.2028
 30
0.0
 10
-5.0885
 20
10.2028
 30
0.0
  0
SPLINE
  5
75
330
1F
100
AcDbEntity
  8
DEFAULT_1
 62
   250
100
AcDbSpline
210
0.0
220
0.0
230
1.0
 70
    24
 71
     3
 72
     8
 73
     4
 74
     0
 42
0.0000000001
 43
0.0000000001
 40
0.0
 40
0.0
 40
0.0
 40
0.0
 40
1.0
 40
1.0
 40
1.0
 40
1.0
 10
3.0707
 20
9.7628
 30
0.0
 10
3.0707
 20
9.7628
 30
0.0
 10
3.3596
 20
9.7628
 30
0.0
 10
3.3596
 20
9.7628
 30
0.0
  0
SPLINE
  5
76
330
1F
100
AcDbEntity
  8
DEFAULT_1
 62
   250
100
AcDbSpline
210
0.0
220
0.0
230
1.0
 70
    24
 71
     3
 72
     8
 73
     4
 74
     0
 42
0.0000000001
 43
0.0000000001
 40
0.0
 40
0.0
 40
0.0
 40
0.0
 40
1.0
 40
1.0
 40
1.0
 40
1.0
 10
-6.7776
 20
9.9473
 30
0.0
 10
-6.7776
 20
9.9473
 30
0.0
 10
-6.7637
 20
9.9618
 30
0.0
 10
-6.7637
 20
9.9618
 30
0.0
  0
SPLINE
  5
77
330
1F
100
AcDbEntity
  8
DEFAULT_1
 62
   250
100
AcDbSpline
210
0.0
220
0.0
230
1.0
 70
    24
 71
     3
 72
     8
 73
     4
 74
     0
 42
0.0000000001
 43
0.0000000001
 40
0.0
 40
0.0
 40
0.0
 40
0.0
 40
1.0
 40
1.0
 40
1.0
 40
1.0
 10
9.4941
 20
-8.5452
 30
0.0
 10
9.4941
 20
-8.5452
 30
0.0
 10
-3.0639
 20
-8.5452
 30
0.0
 10
-3.0639
 20
-8.5452
 30
0.0
  0
SPLINE
  5
78
330
1F
100
AcDbEntity
  8
DEFAULT_1
 62
   250
100
AcDbSpline
210
0.0
220
0.0
230
1.0
 70
    24
 71
     3
 72
     8
 73
     4
 74
     0
 42
0.0000000001
 43
0.0000000001
 40
0.0
 40
0.0
 40
0.0
 40
0.0
 40
1.0
 40
1.0
 40
1.0
 40
1.0
 10
9.5312
 20
-0.0254
 30
0.0
 10
9.5312
 20
-0.0254
 30
0.0
 10
-3.1011
 20
-0.0254
 30
0.0
 10
-3.1011
 20
-0.0254
 30
0.0
  0
SPLINE
  5
79
330
1F
100
AcDbEntity
  8
DEFAULT_1
 62
   250
100
AcDbSpline
210
0.0
220
0.0
230
1.0
 70
    24
 71
     3
 72
     8
 73
     4
 74
     0
 42
0.0000000001
 43
0.0000000001
 40
0.0
 40
0.0
 40
0.0
 40
0.0
 40
1.0
 40
1.0
 40
1.0
 40
1.0
 10
9.6393
 20
0.1317
 30
0.0
 10
9.6393
 20
0.1317
 30
0.0
 10
-3.213
 20
0.1317
 30
0.0
 10
-3.213
 20
0.1317
 30
0.0
  0
SPLINE
  5
7A
330
1F
100
AcDbEntity
  8
DEFAULT_1
 62
   250
100
AcDbSpline
210
0.0
220
0.0
230
1.0
 70
    24
 71
     3
 72
     8
 73
     4
 74
     0
 42
0.0000000001
 43
0.0000000001
 40
0.0
 40
0.0
 40
0.0
 40
0.0
 40
1.0
 40
1.0
 40
1.0
 40
1.0
 10
18.6961
 20
12.1733
 30
0.0
 10
18.6961
 20
12.1733
 30
0.0
 10
-12.2659
 20
12.1733
 30
0.0
 10
-12.2659
 20
12.1733
 30
0.0
  0
SPLINE
  5
7B
330
1F
100
AcDbEntity
  8
DEFAULT_1
 62
   250
100
AcDbSpline
210
0.0
220
0.0
230
1.0
 70
    24
 71
     3
 72
     8
 73
     4
 74
     0
 42
0.0000000001
 43
0.0000000001
 40
0.0
 40
0.0
 40
0.0
 40
0.0
 40
1.0
 40
1.0
 40
1.0
 40
1.0
 10
-12.2165
 20
12.1232
 30
0.0
 10
-12.2165
 20
12.1232
 30
0.0
 10
18.6468
 20
12.1232
 30
0.0
 10
18.6468
 20
12.1232
 30
0.0
  0
SPLINE
  5
7C
330
1F
100
AcDbEntity
  8
DEFAULT_1
 62
   250
100
AcDbSpline
210
0.0
220
0.0
230
1.0
 70
    24
 71
     3
 72
     8
 73
     4
 74
     0
 42
0.0000000001
 43
0.0000000001
 40
0.0
 40
0.0
 40
0.0
 40
0.0
 40
1.0
 40
1.0
 40
1.0
 40
1.0
 10
-5.015
 20
9.4806
 30
0.0
 10
-5.015
 20
9.4806
 30
0.0
 10
11.4451
 20
9.4806
 30
0.0
 10
11.4451
 20
9.4806
 30
0.0
  0
SPLINE
  5
7D
330
1F
100
AcDbEntity
  8
DEFAULT_1
 62
   250
100
AcDbSpline
210
0.0
220
0.0
230
1.0
 70
    24
 71
     3
 72
     8
 73
     4
 74
     0
 42
0.0000000001
 43
0.0000000001
 40
0.0
 40
0.0
 40
0.0
 40
0.0
 40
1.0
 40
1.0
 40
1.0
 40
1.0
 10
-5.3512
 20
9.5792
 30
0.0
 10
-5.3512
 20
9.5792
 30
0.0
 10
11.7815
 20
9.5792
 30
0.0
 10
11.7815
 20
9.5792
 30
0.0
  0
SPLINE
  5
7E
330
1F
100
AcDbEntity
  8
DEFAULT_1
 62
   250
100
AcDbSpline
210
0.0
220
0.0
230
1.0
 70
    24
 71
     3
 72
     8
 73
     4
 74
     0
 42
0.0000000001
 43
0.0000000001
 40
0.0
 40
0.0
 40
0.0
 40
0.0
 40
1.0
 40
1.0
 40
1.0
 40
1.0
 10
-9.0238
 20
12.0675
 30
0.0
 10
-9.0238
 20
12.0675
 30
0.0
 10
-10.591
 20
12.0947
 30
0.0
 10
-10.591
 20
12.0947
 30
0.0
  0
SPLINE
  5
7F
330
1F
100
AcDbEntity
  8
DEFAULT_1
 62
   250
100
AcDbSpline
210
0.0
220
0.0
230
1.0
 70
    24
 71
     3
 72
     8
 73
     4
 74
     0
 42
0.0000000001
 43
0.0000000001
 40
0.0
 40
0.0
 40
0.0
 40
0.0
 40
1.0
 40
1.0
 40
1.0
 40
1.0
 10
-10.4879
 20
12.093
 30
0.0
 10
-10.4879
 20
12.093
 30
0.0
 10
-10.5061
 20
12.0935
 30
0.0
 10
-10.5061
 20
12.0935
 30
0.0
  0
SPLINE
  5
80
330
1F
100
AcDbEntity
  8
DEFAULT_1
 62
   250
100
AcDbSpline
210
0.0
220
0.0
230
1.0
 70
    24
 71
     3
 72
     8
 73
     4
 74
     0
 42
0.0000000001
 43
0.0000000001
 40
0.0
 40
0.0
 40
0.0
 40
0.0
 40
1.0
 40
1.0
 40
1.0
 40
1.0
 10
-10.5909
 20
12.0947
 30
0.0
 10
-10.5909
 20
12.0947
 30
0.0
 10
-10.548
 20
12.094
 30
0.0
 10
-10.548
 20
12.094
 30
0.0
  0
SPLINE
  5
81
330
1F
100
AcDbEntity
  8
DEFAULT_1
 62
   250
100
AcDbSpline
210
0.0
220
0.0
230
1.0
 70
    24
 71
     3
 72
     8
 73
     4
 74
     0
 42
0.0000000001
 43
0.0000000001
 40
0.0
 40
0.0
 40
0.0
 40
0.0
 40
1.0
 40
1.0
 40
1.0
 40
1.0
 10
-9.475
 20
12.0757
 30
0.0
 10
-9.475
 20
12.0757
 30
0.0
 10
-9.4808
 20
12.0758
 30
0.0
 10
-9.4808
 20
12.0758
 30
0.0
  0
SPLINE
  5
82
330
1F
100
AcDbEntity
  8
DEFAULT_1
 62
   250
100
AcDbSpline
210
0.0
220
0.0
230
1.0
 70
    24
 71
     3
 72
     8
 73
     4
 74
     0
 42
0.0000000001
 43
0.0000000001
 40
0.0
 40
0.0
 40
0.0
 40
0.0
 40
1.0
 40
1.0
 40
1.0
 40
1.0
 10
-9.1265
 20
12.0694
 30
0.0
 10
-9.1265
 20
12.0694
 30
0.0
 10
-9.102
 20
12.0689
 30
0.0
 10
-9.102
 20
12.0689
 30
0.0
  0
SPLINE
  5
83
330
1F
100
AcDbEntity
  8
DEFAULT_1
 62
   250
100
AcDbSpline
210
0.0
220
0.0
230
1.0
 70
    24
 71
     3
 72
     8
 73
     4
 74
     0
 42
0.0000000001
 43
0.0000000001
 40
0.0
 40
0.0
 40
0.0
 40
0.0
 40
1.0
 40
1.0
 40
1.0
 40
1.0
 10
-9.3167
 20
12.0728
 30
0.0
 10
-9.3167
 20
12.0728
 30
0.0
 10
-9.3546
 20
12.0736
 30
0.0
 10
-9.3546
 20
12.0736
 30
0.0
  0
SPLINE
  5
84
330
1F
100
AcDbEntity
  8
DEFAULT_1
 62
   250
100
AcDbSpline
210
0.0
220
0.0
230
1.0
 70
    24
 71
     3
 72
     8
 73
     4
 74
     0
 42
0.0000000001
 43
0.0000000001
 40
0.0
 40
0.0
 40
0.0
 40
0.0
 40
1.0
 40
1.0
 40
1.0
 40
1.0
 10
-6.794
 20
9.9302
 30
0.0
 10
-6.794
 20
9.9302
 30
0.0
 10
-6.7776
 20
9.9473
 30
0.0
 10
-6.7776
 20
9.9473
 30
0.0
  0
SPLINE
  5
85
330
1F
100
AcDbEntity
  8
DEFAULT_1
 62
   250
100
AcDbSpline
210
0.0
220
0.0
230
1.0
 70
    24
 71
     3
 72
     8
 73
     4
 74
     0
 42
0.0000000001
 43
0.0000000001
 40
0.0
 40
0.0
 40
0.0
 40
0.0
 40
1.0
 40
1.0
 40
1.0
 40
1.0
 10
-6.794
 20
9.9302
 30
0.0
 10
-6.794
 20
9.9302
 30
0.0
 10
-9.3597
 20
9.9302
 30
0.0
 10
-9.3597
 20
9.9302
 30
0.0
  0
SPLINE
  5
86
330
1F
100
AcDbEntity
  8
DEFAULT_1
 62
   250
100
AcDbSpline
210
0.0
220
0.0
230
1.0
 70
    24
 71
     3
 72
     8
 73
     4
 74
     0
 42
0.0000000001
 43
0.0000000001
 40
0.0
 40
0.0
 40
0.0
 40
0.0
 40
1.0
 40
1.0
 40
1.0
 40
1.0
 10
-5.004
 20
9.4806
 30
0.0
 10
-5.004
 20
9.4806
 30
0.0
 10
-5.015
 20
9.4806
 30
0.0
 10
-5.015
 20
9.4806
 30
0.0
  0
SPLINE
  5
87
330
1F
100
AcDbEntity
  8
DEFAULT_1
 62
   250
100
AcDbSpline
210
0.0
220
0.0
230
1.0
 70
    24
 71
     3
 72
     8
 73
     4
 74
     0
 42
0.0000000001
 43
0.0000000001
 40
0.0
 40
0.0
 40
0.0
 40
0.0
 40
1.0
 40
1.0
 40
1.0
 40
1.0
 10
12.8417
 20
9.78
 30
0.0
 10
12.8417
 20
9.78
 30
0.0
 10
12.8127
 20
9.7739
 30
0.0
 10
12.8127
 20
9.7739
 30
0.0
  0
SPLINE
  5
88
330
1F
100
AcDbEntity
  8
DEFAULT_1
 62
   250
100
AcDbSpline
210
0.0
220
0.0
230
1.0
 70
    24
 71
     3
 72
     8
 73
     4
 74
     0
 42
0.0000000001
 43
0.0000000001
 40
0.0
 40
0.0
 40
0.0
 40
0.0
 40
1.0
 40
1.0
 40
1.0
 40
1.0
 10
13.2078
 20
9.9473
 30
0.0
 10
13.2078
 20
9.9473
 30
0.0
 10
13.2242
 20
9.9302
 30
0.0
 10
13.2242
 20
9.9302
 30
0.0
  0
SPLINE
  5
89
330
1F
100
AcDbEntity
  8
DEFAULT_1
 62
   250
100
AcDbSpline
210
0.0
220
0.0
230
1.0
 70
    24
 71
     3
 72
     8
 73
     4
 74
     0
 42
0.0000000001
 43
0.0000000001
 40
0.0
 40
0.0
 40
0.0
 40
0.0
 40
1.0
 40
1.0
 40
1.0
 40
1.0
 10
15.7899
 20
9.9302
 30
0.0
 10
15.7899
 20
9.9302
 30
0.0
 10
13.2242
 20
9.9302
 30
0.0
 10
13.2242
 20
9.9302
 30
0.0
  0
SPLINE
  5
8A
330
1F
100
AcDbEntity
  8
DEFAULT_1
 62
   250
100
AcDbSpline
210
0.0
220
0.0
230
1.0
 70
    24
 71
     3
 72
     8
 73
     4
 74
     0
 42
0.0000000001
 43
0.0000000001
 40
0.0
 40
0.0
 40
0.0
 40
0.0
 40
1.0
 40
1.0
 40
1.0
 40
1.0
 10
2.3926
 20
10.257
 30
0.0
 10
2.3926
 20
10.257
 30
0.0
 10
2.3883
 20
10.2699
 30
0.0
 10
2.3883
 20
10.2699
 30
0.0
  0
SPLINE
  5
8B
330
1F
100
AcDbEntity
  8
DEFAULT_1
 62
   250
100
AcDbSpline
210
0.0
220
0.0
230
1.0
 70
    24
 71
     3
 72
     8
 73
     4
 74
     0
 42
0.0000000001
 43
0.0000000001
 40
0.0
 40
0.0
 40
0.0
 40
0.0
 40
1.0
 40
1.0
 40
1.0
 40
1.0
 10
2.3907
 20
10.2626
 30
0.0
 10
2.3907
 20
10.2626
 30
0.0
 10
2.3883
 20
10.2699
 30
0.0
 10
2.3883
 20
10.2699
 30
0.0
  0
SPLINE
  5
8C
330
1F
100
AcDbEntity
  8
DEFAULT_1
 62
   250
100
AcDbSpline
210
0.0
220
0.0
230
1.0
 70
    24
 71
     3
 72
     8
 73
     4
 74
     0
 42
0.0000000001
 43
0.0000000001
 40
0.0
 40
0.0
 40
0.0
 40
0.0
 40
1.0
 40
1.0
 40
1.0
 40
1.0
 10
2.3622
 20
10.2737
 30
0.0
 10
2.3622
 20
10.2737
 30
0.0
 10
2.3792
 20
10.2794
 30
0.0
 10
2.3792
 20
10.2794
 30
0.0
  0
SPLINE
  5
8D
330
1F
100
AcDbEntity
  8
DEFAULT_1
 62
   250
100
AcDbSpline
210
0.0
220
0.0
230
1.0
 70
    24
 71
     3
 72
     8
 73
     4
 74
     0
 42
0.0000000001
 43
0.0000000001
 40
0.0
 40
0.0
 40
0.0
 40
0.0
 40
1.0
 40
1.0
 40
1.0
 40
1.0
 10
2.389
 20
10.2678
 30
0.0
 10
2.389
 20
10.2678
 30
0.0
 10
2.3937
 20
10.2539
 30
0.0
 10
2.3937
 20
10.2539
 30
0.0
  0
SPLINE
  5
8E
330
1F
100
AcDbEntity
  8
DEFAULT_1
 62
   250
100
AcDbSpline
210
0.0
220
0.0
230
1.0
 70
    24
 71
     3
 72
     8
 73
     4
 74
     0
 42
0.0000000001
 43
0.0000000001
 40
0.0
 40
0.0
 40
0.0
 40
0.0
 40
1.0
 40
1.0
 40
1.0
 40
1.0
 10
4.051
 20
10.2794
 30
0.0
 10
4.051
 20
10.2794
 30
0.0
 10
4.068
 20
10.2737
 30
0.0
 10
4.068
 20
10.2737
 30
0.0
  0
SPLINE
  5
8F
330
1F
100
AcDbEntity
  8
DEFAULT_1
 62
   250
100
AcDbSpline
210
0.0
220
0.0
230
1.0
 70
    24
 71
     3
 72
     8
 73
     4
 74
     0
 42
0.0000000001
 43
0.0000000001
 40
0.0
 40
0.0
 40
0.0
 40
0.0
 40
1.0
 40
1.0
 40
1.0
 40
1.0
 10
4.0366
 20
10.2542
 30
0.0
 10
4.0366
 20
10.2542
 30
0.0
 10
4.0411
 20
10.2677
 30
0.0
 10
4.0411
 20
10.2677
 30
0.0
  0
SPLINE
  5
90
330
1F
100
AcDbEntity
  8
DEFAULT_1
 62
   250
100
AcDbSpline
210
0.0
220
0.0
230
1.0
 70
    24
 71
     3
 72
     8
 73
     4
 74
     0
 42
0.0000000001
 43
0.0000000001
 40
0.0
 40
0.0
 40
0.0
 40
0.0
 40
1.0
 40
1.0
 40
1.0
 40
1.0
 10
4.0394
 20
10.2626
 30
0.0
 10
4.0394
 20
10.2626
 30
0.0
 10
4.0425
 20
10.2718
 30
0.0
 10
4.0425
 20
10.2718
 30
0.0
  0
SPLINE
  5
91
330
1F
100
AcDbEntity
  8
DEFAULT_1
 62
   250
100
AcDbSpline
210
0.0
220
0.0
230
1.0
 70
    24
 71
     3
 72
     8
 73
     4
 74
     0
 42
0.0000000001
 43
0.0000000001
 40
0.0
 40
0.0
 40
0.0
 40
0.0
 40
1.0
 40
1.0
 40
1.0
 40
1.0
 10
4.0383
 20
10.2591
 30
0.0
 10
4.0383
 20
10.2591
 30
0.0
 10
4.0425
 20
10.2718
 30
0.0
 10
4.0425
 20
10.2718
 30
0.0
  0
SPLINE
  5
92
330
1F
100
AcDbEntity
  8
DEFAULT_1
 62
   250
100
AcDbSpline
210
0.0
220
0.0
230
1.0
 70
    24
 71
     3
 72
     8
 73
     4
 74
     0
 42
0.0000000001
 43
0.0000000001
 40
0.0
 40
0.0
 40
0.0
 40
0.0
 40
1.0
 40
1.0
 40
1.0
 40
1.0
 10
-8.6876
 20
12.0114
 30
0.0
 10
-8.6876
 20
12.0114
 30
0.0
 10
-9.0637
 20
12.0179
 30
0.0
 10
-9.0637
 20
12.0179
 30
0.0
  0
SPLINE
  5
93
330
1F
100
AcDbEntity
  8
DEFAULT_1
 62
   250
100
AcDbSpline
210
0.0
220
0.0
230
1.0
 70
    24
 71
     3
 72
     8
 73
     4
 74
     0
 42
0.0000000001
 43
0.0000000001
 40
0.0
 40
0.0
 40
0.0
 40
0.0
 40
1.0
 40
1.0
 40
1.0
 40
1.0
 10
-9.1422
 20
10.4956
 30
0.0
 10
-9.1422
 20
10.4956
 30
0.0
 10
-9.0773
 20
10.4956
 30
0.0
 10
-9.0773
 20
10.4956
 30
0.0
  0
SPLINE
  5
94
330
1F
100
AcDbEntity
  8
DEFAULT_1
 62
   250
100
AcDbSpline
210
0.0
220
0.0
230
1.0
 70
    24
 71
     3
 72
     8
 73
     4
 74
     0
 42
0.0000000001
 43
0.0000000001
 40
0.0
 40
0.0
 40
0.0
 40
0.0
 40
1.0
 40
1.0
 40
1.0
 40
1.0
 10
-9.1422
 20
10.4956
 30
0.0
 10
-9.1422
 20
10.4956
 30
0.0
 10
-10.5305
 20
10.4956
 30
0.0
 10
-10.5305
 20
10.4956
 30
0.0
  0
SPLINE
  5
95
330
1F
100
AcDbEntity
  8
DEFAULT_1
 62
   250
100
AcDbSpline
210
0.0
220
0.0
230
1.0
 70
    24
 71
     3
 72
     8
 73
     4
 74
     0
 42
0.0000000001
 43
0.0000000001
 40
0.0
 40
0.0
 40
0.0
 40
0.0
 40
1.0
 40
1.0
 40
1.0
 40
1.0
 10
18.6961
 20
12.693
 30
0.0
 10
18.6961
 20
12.693
 30
0.0
 10
-12.2659
 20
12.693
 30
0.0
 10
-12.2659
 20
12.693
 30
0.0
  0
SPLINE
  5
96
330
1F
100
AcDbEntity
  8
DEFAULT_1
 62
   250
100
AcDbSpline
210
0.0
220
0.0
230
1.0
 70
    24
 71
     3
 72
     8
 73
     4
 74
     0
 42
0.0000000001
 43
0.0000000001
 40
0.0
 40
0.0
 40
0.0
 40
0.0
 40
1.0
 40
1.0
 40
1.0
 40
1.0
 10
21.5755
 20
12.7926
 30
0.0
 10
21.5755
 20
12.7926
 30
0.0
 10
-15.1453
 20
12.7926
 30
0.0
 10
-15.1453
 20
12.7926
 30
0.0
  0
SPLINE
  5
97
330
1F
100
AcDbEntity
  8
DEFAULT_1
 62
   250
100
AcDbSpline
210
0.0
220
0.0
230
1.0
 70
    24
 71
     3
 72
     8
 73
     4
 74
     0
 42
0.0000000001
 43
0.0000000001
 40
0.0
 40
0.0
 40
0.0
 40
0.0
 40
1.0
 40
1.0
 40
1.0
 40
1.0
 10
-15.1947
 20
12.8428
 30
0.0
 10
-15.1947
 20
12.8428
 30
0.0
 10
21.6249
 20
12.8428
 30
0.0
 10
21.6249
 20
12.8428
 30
0.0
  0
SPLINE
  5
98
330
1F
100
AcDbEntity
  8
DEFAULT_1
 62
   250
100
AcDbSpline
210
0.0
220
0.0
230
1.0
 70
    24
 71
     3
 72
     8
 73
     4
 74
     0
 42
0.0000000001
 43
0.0000000001
 40
0.0
 40
0.0
 40
0.0
 40
0.0
 40
1.0
 40
1.0
 40
1.0
 40
1.0
 10
-3.2938
 20
13.2119
 30
0.0
 10
-3.2938
 20
13.2119
 30
0.0
 10
-3.2938
 20
13.714
 30
0.0
 10
-3.2938
 20
13.714
 30
0.0
  0
SPLINE
  5
99
330
1F
100
AcDbEntity
  8
DEFAULT_1
 62
   250
100
AcDbSpline
210
0.0
220
0.0
230
1.0
 70
    24
 71
     3
 72
     8
 73
     4
 74
     0
 42
0.0000000001
 43
0.0000000001
 40
0.0
 40
0.0
 40
0.0
 40
0.0
 40
1.0
 40
1.0
 40
1.0
 40
1.0
 10
9.7239
 20
13.714
 30
0.0
 10
9.7239
 20
13.714
 30
0.0
 10
9.7239
 20
13.2119
 30
0.0
 10
9.7239
 20
13.2119
 30
0.0
  0
SPLINE
  5
9A
330
1F
100
AcDbEntity
  8
DEFAULT_1
 62
   250
100
AcDbSpline
210
0.0
220
0.0
230
1.0
 70
    24
 71
     3
 72
     8
 73
     4
 74
     0
 42
0.0000000001
 43
0.0000000001
 40
0.0
 40
0.0
 40
0.0
 40
0.0
 40
1.0
 40
1.0
 40
1.0
 40
1.0
 10
16.9608
 20
10.4956
 30
0.0
 10
16.9608
 20
10.4956
 30
0.0
 10
15.5075
 20
10.4956
 30
0.0
 10
15.5075
 20
10.4956
 30
0.0
  0
SPLINE
  5
9B
330
1F
100
AcDbEntity
  8
DEFAULT_1
 62
   250
100
AcDbSpline
210
0.0
220
0.0
230
1.0
 70
    24
 71
     3
 72
     8
 73
     4
 74
     0
 42
0.0000000001
 43
0.0000000001
 40
0.0
 40
0.0
 40
0.0
 40
0.0
 40
1.0
 40
1.0
 40
1.0
 40
1.0
 10
15.4696
 20
12.063
 30
0.0
 10
15.4696
 20
12.063
 30
0.0
 10
15.4594
 20
12.0673
 30
0.0
 10
15.4594
 20
12.0673
 30
0.0
  0
SPLINE
  5
9C
330
1F
100
AcDbEntity
  8
DEFAULT_1
 62
   250
100
AcDbSpline
210
0.0
220
0.0
230
1.0
 70
    24
 71
     3
 72
     8
 73
     4
 74
     0
 42
0.0000000001
 43
0.0000000001
 40
0.0
 40
0.0
 40
0.0
 40
0.0
 40
1.0
 40
1.0
 40
1.0
 40
1.0
 10
15.4854
 20
12.0531
 30
0.0
 10
15.4854
 20
12.0531
 30
0.0
 10
15.4666
 20
12.0649
 30
0.0
 10
15.4666
 20
12.0649
 30
0.0
  0
SPLINE
  5
9D
330
1F
100
AcDbEntity
  8
DEFAULT_1
 62
   250
100
AcDbSpline
210
0.0
220
0.0
230
1.0
 70
    24
 71
     3
 72
     8
 73
     4
 74
     0
 42
0.0000000001
 43
0.0000000001
 40
0.0
 40
0.0
 40
0.0
 40
0.0
 40
1.0
 40
1.0
 40
1.0
 40
1.0
 10
-9.0292
 20
12.0673
 30
0.0
 10
-9.0292
 20
12.0673
 30
0.0
 10
-9.0586
 20
12.0532
 30
0.0
 10
-9.0586
 20
12.0532
 30
0.0
  0
SPLINE
  5
9E
330
1F
100
AcDbEntity
  8
DEFAULT_1
 62
   250
100
AcDbSpline
210
0.0
220
0.0
230
1.0
 70
    24
 71
     3
 72
     8
 73
     4
 74
     0
 42
0.0000000001
 43
0.0000000001
 40
0.0
 40
0.0
 40
0.0
 40
0.0
 40
1.0
 40
1.0
 40
1.0
 40
1.0
 10
11.3225
 20
2.4569
 30
0.0
 10
11.3225
 20
2.4569
 30
0.0
 10
-3.9229
 20
2.4569
 30
0.0
 10
-3.9229
 20
2.4569
 30
0.0
  0
SPLINE
  5
9F
330
1F
100
AcDbEntity
  8
DEFAULT_1
 62
   250
100
AcDbSpline
210
0.0
220
0.0
230
1.0
 70
    24
 71
     3
 72
     8
 73
     4
 74
     0
 42
0.0000000001
 43
0.0000000001
 40
0.0
 40
0.0
 40
0.0
 40
0.0
 40
1.0
 40
1.0
 40
1.0
 40
1.0
 10
-4.8923
 20
2.4569
 30
0.0
 10
-4.8923
 20
2.4569
 30
0.0
 10
-3.8718
 20
2.4569
 30
0.0
 10
-3.8718
 20
2.4569
 30
0.0
  0
SPLINE
  5
A0
330
1F
100
AcDbEntity
  8
DEFAULT_1
 62
   250
100
AcDbSpline
210
0.0
220
0.0
230
1.0
 70
     8
 71
     3
 72
     8
 73
     4
 74
     0
 42
0.0000000001
 43
0.0000000001
 40
0.0
 40
0.0
 40
0.0
 40
0.0
 40
1.0
 40
1.0
 40
1.0
 40
1.0
 10
-2.8814
 20
-9.2147
 30
0.0
 10
-2.895
 20
-9.1647
 30
0.0
 10
-3.0569
 20
-8.5966
 30
0.0
 10
-3.0639
 20
-8.5452
 30
0.0
  0
SPLINE
  5
A1
330
1F
100
AcDbEntity
  8
DEFAULT_1
 62
   250
100
AcDbSpline
210
0.0
220
0.0
230
1.0
 70
     8
 71
     3
 72
    16
 73
    12
 74
     0
 42
0.0000000001
 43
0.0000000001
 40
0.0
 40
0.0
 40
0.0
 40
0.0
 40
0.25
 40
0.25
 40
0.25
 40
0.25
 40
0.5
 40
0.5
 40
0.5
 40
0.5
 40
1.0
 40
1.0
 40
1.0
 40
1.0
 10
-3.0639
 20
-8.5452
 30
0.0
 10
-3.0639
 20
-8.5452
 30
0.0
 10
-3.0654
 20
-8.2104
 30
0.0
 10
-3.0654
 20
-8.2104
 30
0.0
 10
-3.0654
 20
-8.2104
 30
0.0
 10
-3.0654
 20
-8.2104
 30
0.0
 10
-3.0997
 20
-0.3601
 30
0.0
 10
-3.0997
 20
-0.3601
 30
0.0
 10
-3.0997
 20
-0.3601
 30
0.0
 10
-3.0997
 20
-0.3601
 30
0.0
 10
-3.1011
 20
-0.0254
 30
0.0
 10
-3.1011
 20
-0.0254
 30
0.0
  0
SPLINE
  5
A2
330
1F
100
AcDbEntity
  8
DEFAULT_1
 62
   250
100
AcDbSpline
210
0.0
220
0.0
230
1.0
 70
     8
 71
     3
 72
    24
 73
    20
 74
     0
 42
0.0000000001
 43
0.0000000001
 40
0.0
 40
0.0
 40
0.0
 40
0.0
 40
0.1666666666666667
 40
0.1666666666666667
 40
0.1666666666666667
 40
0.1666666666666667
 40
0.3333333333333333
 40
0.3333333333333333
 40
0.3333333333333333
 40
0.3333333333333333
 40
0.5
 40
0.5
 40
0.5
 40
0.5
 40
0.6666666666666666
 40
0.6666666666666666
 40
0.6666666666666666
 40
0.6666666666666666
 40
1.0
 40
1.0
 40
1.0
 40
1.0
 10
-3.1011
 20
-0.0254
 30
0.0
 10
-3.1012
 20
-0.0107
 30
0.0
 10
-3.1032
 20
0.0039
 30
0.0
 10
-3.107
 20
0.0181
 30
0.0
 10
-3.107
 20
0.0181
 30
0.0
 10
-3.1425
 20
0.1477
 30
0.0
 10
-3.3186
 20
0.1692
 30
0.0
 10
-3.4154
 20
0.2127
 30
0.0
 10
-3.4154
 20
0.2127
 30
0.0
 10
-3.6806
 20
0.332
 30
0.0
 10
-3.9244
 20
0.4986
 30
0.0
 10
-4.1327
 20
0.7013
 30
0.0
 10
-4.1327
 20
0.7013
 30
0.0
 10
-4.4984
 20
1.057
 30
0.0
 10
-4.7501
 20
1.5229
 30
0.0
 10
-4.847
 20
2.0237
 30
0.0
 10
-4.847
 20
2.0237
 30
0.0
 10
-4.8962
 20
2.2781
 30
0.0
 10
-4.8936
 20
2.5334
 30
0.0
 10
-4.8981
 20
2.7916
 30
0.0
  0
SPLINE
  5
A3
330
1F
100
AcDbEntity
  8
DEFAULT_1
 62
   250
100
AcDbSpline
210
0.0
220
0.0
230
1.0
 70
     8
 71
     3
 72
    12
 73
     8
 74
     0
 42
0.0000000001
 43
0.0000000001
 40
0.0
 40
0.0
 40
0.0
 40
0.0
 40
0.3333333333333333
 40
0.3333333333333333
 40
0.3333333333333333
 40
0.3333333333333333
 40
1.0
 40
1.0
 40
1.0
 40
1.0
 10
-4.8981
 20
2.7916
 30
0.0
 10
-4.8981
 20
2.7916
 30
0.0
 10
-5.0091
 20
9.1459
 30
0.0
 10
-5.0091
 20
9.1459
 30
0.0
 10
-5.0091
 20
9.1459
 30
0.0
 10
-5.0091
 20
9.1459
 30
0.0
 10
-5.0152
 20
9.4849
 30
0.0
 10
-5.0152
 20
9.4849
 30
0.0
  0
SPLINE
  5
A4
330
1F
100
AcDbEntity
  8
DEFAULT_1
 62
   250
100
AcDbSpline
210
0.0
220
0.0
230
1.0
 70
     8
 71
     3
 72
     8
 73
     4
 74
     0
 42
0.0000000001
 43
0.0000000001
 40
0.0
 40
0.0
 40
0.0
 40
0.0
 40
1.0
 40
1.0
 40
1.0
 40
1.0
 10
-5.0152
 20
9.4849
 30
0.0
 10
-5.0179
 20
9.5109
 30
0.0
 10
-5.0398
 20
9.5288
 30
0.0
 10
-5.0651
 20
9.5299
 30
0.0
  0
SPLINE
  5
A5
330
1F
100
AcDbEntity
  8
DEFAULT_1
 62
   250
100
AcDbSpline
210
0.0
220
0.0
230
1.0
 70
     8
 71
     3
 72
    12
 73
     8
 74
     0
 42
0.0000000001
 43
0.0000000001
 40
0.0
 40
0.0
 40
0.0
 40
0.0
 40
0.3333333333333333
 40
0.3333333333333333
 40
0.3333333333333333
 40
0.3333333333333333
 40
1.0
 40
1.0
 40
1.0
 40
1.0
 10
-10.544
 20
12.0452
 30
0.0
 10
-10.544
 20
12.0452
 30
0.0
 10
-10.5411
 20
11.7105
 30
0.0
 10
-10.5411
 20
11.7105
 30
0.0
 10
-10.5411
 20
11.7105
 30
0.0
 10
-10.5411
 20
11.7105
 30
0.0
 10
-10.5334
 20
10.8303
 30
0.0
 10
-10.5334
 20
10.8303
 30
0.0
  0
SPLINE
  5
A6
330
1F
100
AcDbEntity
  8
DEFAULT_1
 62
   250
100
AcDbSpline
210
0.0
220
0.0
230
1.0
 70
     8
 71
     3
 72
    12
 73
     8
 74
     0
 42
0.0000000001
 43
0.0000000001
 40
0.0
 40
0.0
 40
0.0
 40
0.0
 40
0.3333333333333333
 40
0.3333333333333333
 40
0.3333333333333333
 40
0.3333333333333333
 40
1.0
 40
1.0
 40
1.0
 40
1.0
 10
-10.5334
 20
10.8303
 30
0.0
 10
-10.532
 20
10.6662
 30
0.0
 10
-10.5496
 20
10.4717
 30
0.0
 10
-10.5042
 20
10.3056
 30
0.0
 10
-10.5042
 20
10.3056
 30
0.0
 10
-10.424
 20
10.0124
 30
0.0
 10
-10.1642
 20
9.7922
 30
0.0
 10
-9.8608
 20
9.7656
 30
0.0
  0
SPLINE
  5
A7
330
1F
100
AcDbEntity
  8
DEFAULT_1
 62
   250
100
AcDbSpline
210
0.0
220
0.0
230
1.0
 70
     8
 71
     3
 72
    32
 73
    28
 74
     0
 42
0.0000000001
 43
0.0000000001
 40
0.0
 40
0.0
 40
0.0
 40
0.0
 40
0.125
 40
0.125
 40
0.125
 40
0.125
 40
0.25
 40
0.25
 40
0.25
 40
0.25
 40
0.375
 40
0.375
 40
0.375
 40
0.375
 40
0.5
 40
0.5
 40
0.5
 40
0.5
 40
0.625
 40
0.625
 40
0.625
 40
0.625
 40
0.75
 40
0.75
 40
0.75
 40
0.75
 40
1.0
 40
1.0
 40
1.0
 40
1.0
 10
-9.8608
 20
9.7656
 30
0.0
 10
-9.8608
 20
9.7656
 30
0.0
 10
-9.7972
 20
9.7628
 30
0.0
 10
-9.7972
 20
9.7628
 30
0.0
 10
-9.7972
 20
9.7628
 30
0.0
 10
-9.7972
 20
9.7628
 30
0.0
 10
-9.4625
 20
9.7628
 30
0.0
 10
-9.4625
 20
9.7628
 30
0.0
 10
-9.4625
 20
9.7628
 30
0.0
 10
-9.4625
 20
9.7628
 30
0.0
 10
-6.0504
 20
9.7628
 30
0.0
 10
-6.0504
 20
9.7628
 30
0.0
 10
-6.0504
 20
9.7628
 30
0.0
 10
-6.0504
 20
9.7628
 30
0.0
 10
-5.7157
 20
9.7628
 30
0.0
 10
-5.7157
 20
9.7628
 30
0.0
 10
-5.7157
 20
9.7628
 30
0.0
 10
-5.7157
 20
9.7628
 30
0.0
 10
-5.6162
 20
9.7695
 30
0.0
 10
-5.6162
 20
9.7695
 30
0.0
 10
-5.6162
 20
9.7695
 30
0.0
 10
-5.6162
 20
9.7695
 30
0.0
 10
-5.5187
 20
9.7896
 30
0.0
 10
-5.5187
 20
9.7896
 30
0.0
 10
-5.5187
 20
9.7896
 30
0.0
 10
-5.5187
 20
9.7896
 30
0.0
 10
-5.4247
 20
9.8227
 30
0.0
 10
-5.4247
 20
9.8227
 30
0.0
  0
SPLINE
  5
A8
330
1F
100
AcDbEntity
  8
DEFAULT_1
 62
   250
100
AcDbSpline
210
0.0
220
0.0
230
1.0
 70
     8
 71
     3
 72
    12
 73
     8
 74
     0
 42
0.0000000001
 43
0.0000000001
 40
0.0
 40
0.0
 40
0.0
 40
0.0
 40
0.3333333333333333
 40
0.3333333333333333
 40
0.3333333333333333
 40
0.3333333333333333
 40
1.0
 40
1.0
 40
1.0
 40
1.0
 10
-5.4247
 20
9.8227
 30
0.0
 10
-5.4151
 20
9.826
 30
0.0
 10
-5.4116
 20
9.8271
 30
0.0
 10
-5.4014
 20
9.8266
 30
0.0
 10
-5.4014
 20
9.8266
 30
0.0
 10
-5.3754
 20
9.8256
 30
0.0
 10
-5.3554
 20
9.8032
 30
0.0
 10
-5.3547
 20
9.7775
 30
0.0
  0
SPLINE
  5
A9
330
1F
100
AcDbEntity
  8
DEFAULT_1
 62
   250
100
AcDbSpline
210
0.0
220
0.0
230
1.0
 70
    24
 71
     3
 72
     8
 73
     4
 74
     0
 42
0.0000000001
 43
0.0000000001
 40
0.0
 40
0.0
 40
0.0
 40
0.0
 40
1.0
 40
1.0
 40
1.0
 40
1.0
 10
-5.3547
 20
9.7775
 30
0.0
 10
-5.3547
 20
9.7775
 30
0.0
 10
-5.3512
 20
9.5792
 30
0.0
 10
-5.3512
 20
9.5792
 30
0.0
  0
SPLINE
  5
AA
330
1F
100
AcDbEntity
  8
DEFAULT_1
 62
   250
100
AcDbSpline
210
0.0
220
0.0
230
1.0
 70
     8
 71
     3
 72
    12
 73
     8
 74
     0
 42
0.0000000001
 43
0.0000000001
 40
0.0
 40
0.0
 40
0.0
 40
0.0
 40
0.3333333333333333
 40
0.3333333333333333
 40
0.3333333333333333
 40
0.3333333333333333
 40
1.0
 40
1.0
 40
1.0
 40
1.0
 10
-5.3512
 20
9.5792
 30
0.0
 10
-5.351
 20
9.5647
 30
0.0
 10
-5.3442
 20
9.5507
 30
0.0
 10
-5.333
 20
9.5414
 30
0.0
 10
-5.333
 20
9.5414
 30
0.0
 10
-5.3241
 20
9.5341
 30
0.0
 10
-5.3127
 20
9.5299
 30
0.0
 10
-5.301
 20
9.5299
 30
0.0
  0
SPLINE
  5
AB
330
1F
100
AcDbEntity
  8
DEFAULT_1
 62
   250
100
AcDbSpline
210
0.0
220
0.0
230
1.0
 70
    24
 71
     3
 72
    16
 73
    12
 74
     0
 42
0.0000000001
 43
0.0000000001
 40
0.0
 40
0.0
 40
0.0
 40
0.0
 40
0.25
 40
0.25
 40
0.25
 40
0.25
 40
0.5
 40
0.5
 40
0.5
 40
0.5
 40
1.0
 40
1.0
 40
1.0
 40
1.0
 10
-5.301
 20
9.5299
 30
0.0
 10
-5.301
 20
9.5299
 30
0.0
 10
-4.9663
 20
9.5299
 30
0.0
 10
-4.9663
 20
9.5299
 30
0.0
 10
-4.9663
 20
9.5299
 30
0.0
 10
-4.9663
 20
9.5299
 30
0.0
 10
11.1429
 20
9.5299
 30
0.0
 10
11.1429
 20
9.5299
 30
0.0
 10
11.1429
 20
9.5299
 30
0.0
 10
11.1429
 20
9.5299
 30
0.0
 10
11.4776
 20
9.5299
 30
0.0
 10
11.4776
 20
9.5299
 30
0.0
  0
SPLINE
  5
AC
330
1F
100
AcDbEntity
  8
DEFAULT_1
 62
   250
100
AcDbSpline
210
0.0
220
0.0
230
1.0
 70
    24
 71
     3
 72
    16
 73
    12
 74
     0
 42
0.0000000001
 43
0.0000000001
 40
0.0
 40
0.0
 40
0.0
 40
0.0
 40
0.25
 40
0.25
 40
0.25
 40
0.25
 40
0.5
 40
0.5
 40
0.5
 40
0.5
 40
1.0
 40
1.0
 40
1.0
 40
1.0
 10
-5.0474
 20
9.5299
 30
0.0
 10
-5.0474
 20
9.5299
 30
0.0
 10
-4.7127
 20
9.5299
 30
0.0
 10
-4.7127
 20
9.5299
 30
0.0
 10
-4.7127
 20
9.5299
 30
0.0
 10
-4.7127
 20
9.5299
 30
0.0
 10
11.3965
 20
9.5299
 30
0.0
 10
11.3965
 20
9.5299
 30
0.0
 10
11.3965
 20
9.5299
 30
0.0
 10
11.3965
 20
9.5299
 30
0.0
 10
11.7312
 20
9.5299
 30
0.0
 10
11.7312
 20
9.5299
 30
0.0
  0
SPLINE
  5
AD
330
1F
100
AcDbEntity
  8
DEFAULT_1
 62
   250
100
AcDbSpline
210
0.0
220
0.0
230
1.0
 70
     8
 71
     3
 72
    12
 73
     8
 74
     0
 42
0.0000000001
 43
0.0000000001
 40
0.0
 40
0.0
 40
0.0
 40
0.0
 40
0.3333333333333333
 40
0.3333333333333333
 40
0.3333333333333333
 40
0.3333333333333333
 40
1.0
 40
1.0
 40
1.0
 40
1.0
 10
11.7312
 20
9.5299
 30
0.0
 10
11.7428
 20
9.5299
 30
0.0
 10
11.7542
 20
9.5341
 30
0.0
 10
11.7632
 20
9.5414
 30
0.0
 10
11.7632
 20
9.5414
 30
0.0
 10
11.7744
 20
9.5507
 30
0.0
 10
11.7812
 20
9.5647
 30
0.0
 10
11.7815
 20
9.5792
 30
0.0
  0
SPLINE
  5
AE
330
1F
100
AcDbEntity
  8
DEFAULT_1
 62
   250
100
AcDbSpline
210
0.0
220
0.0
230
1.0
 70
    24
 71
     3
 72
     8
 73
     4
 74
     0
 42
0.0000000001
 43
0.0000000001
 40
0.0
 40
0.0
 40
0.0
 40
0.0
 40
1.0
 40
1.0
 40
1.0
 40
1.0
 10
11.7815
 20
9.5792
 30
0.0
 10
11.7815
 20
9.5792
 30
0.0
 10
11.7849
 20
9.7775
 30
0.0
 10
11.7849
 20
9.7775
 30
0.0
  0
SPLINE
  5
AF
330
1F
100
AcDbEntity
  8
DEFAULT_1
 62
   250
100
AcDbSpline
210
0.0
220
0.0
230
1.0
 70
     8
 71
     3
 72
    12
 73
     8
 74
     0
 42
0.0000000001
 43
0.0000000001
 40
0.0
 40
0.0
 40
0.0
 40
0.0
 40
0.3333333333333333
 40
0.3333333333333333
 40
0.3333333333333333
 40
0.3333333333333333
 40
1.0
 40
1.0
 40
1.0
 40
1.0
 10
11.7849
 20
9.7775
 30
0.0
 10
11.7856
 20
9.8032
 30
0.0
 10
11.8056
 20
9.8255
 30
0.0
 10
11.8315
 20
9.8266
 30
0.0
 10
11.8315
 20
9.8266
 30
0.0
 10
11.8416
 20
9.827
 30
0.0
 10
11.8454
 20
9.826
 30
0.0
 10
11.8549
 20
9.8227
 30
0.0
  0
SPLINE
  5
B0
330
1F
100
AcDbEntity
  8
DEFAULT_1
 62
   250
100
AcDbSpline
210
0.0
220
0.0
230
1.0
 70
     8
 71
     3
 72
    32
 73
    28
 74
     0
 42
0.0000000001
 43
0.0000000001
 40
0.0
 40
0.0
 40
0.0
 40
0.0
 40
0.125
 40
0.125
 40
0.125
 40
0.125
 40
0.25
 40
0.25
 40
0.25
 40
0.25
 40
0.375
 40
0.375
 40
0.375
 40
0.375
 40
0.5
 40
0.5
 40
0.5
 40
0.5
 40
0.625
 40
0.625
 40
0.625
 40
0.625
 40
0.75
 40
0.75
 40
0.75
 40
0.75
 40
1.0
 40
1.0
 40
1.0
 40
1.0
 10
11.8549
 20
9.8227
 30
0.0
 10
11.8549
 20
9.8227
 30
0.0
 10
11.9489
 20
9.7896
 30
0.0
 10
11.9489
 20
9.7896
 30
0.0
 10
11.9489
 20
9.7896
 30
0.0
 10
11.9489
 20
9.7896
 30
0.0
 10
12.0464
 20
9.7695
 30
0.0
 10
12.0464
 20
9.7695
 30
0.0
 10
12.0464
 20
9.7695
 30
0.0
 10
12.0464
 20
9.7695
 30
0.0
 10
12.1458
 20
9.7628
 30
0.0
 10
12.1458
 20
9.7628
 30
0.0
 10
12.1458
 20
9.7628
 30
0.0
 10
12.1458
 20
9.7628
 30
0.0
 10
12.4806
 20
9.7628
 30
0.0
 10
12.4806
 20
9.7628
 30
0.0
 10
12.4806
 20
9.7628
 30
0.0
 10
12.4806
 20
9.7628
 30
0.0
 10
15.8928
 20
9.7628
 30
0.0
 10
15.8928
 20
9.7628
 30
0.0
 10
15.8928
 20
9.7628
 30
0.0
 10
15.8928
 20
9.7628
 30
0.0
 10
16.2275
 20
9.7628
 30
0.0
 10
16.2275
 20
9.7628
 30
0.0
 10
16.2275
 20
9.7628
 30
0.0
 10
16.2275
 20
9.7628
 30
0.0
 10
16.2911
 20
9.7656
 30
0.0
 10
16.2911
 20
9.7656
 30
0.0
  0
SPLINE
  5
B1
330
1F
100
AcDbEntity
  8
DEFAULT_1
 62
   250
100
AcDbSpline
210
0.0
220
0.0
230
1.0
 70
     8
 71
     3
 72
    12
 73
     8
 74
     0
 42
0.0000000001
 43
0.0000000001
 40
0.0
 40
0.0
 40
0.0
 40
0.0
 40
0.3333333333333333
 40
0.3333333333333333
 40
0.3333333333333333
 40
0.3333333333333333
 40
1.0
 40
1.0
 40
1.0
 40
1.0
 10
16.2911
 20
9.7656
 30
0.0
 10
16.5945
 20
9.7922
 30
0.0
 10
16.8542
 20
10.0124
 30
0.0
 10
16.9344
 20
10.3056
 30
0.0
 10
16.9344
 20
10.3056
 30
0.0
 10
16.9798
 20
10.4717
 30
0.0
 10
16.9622
 20
10.6662
 30
0.0
 10
16.9637
 20
10.8303
 30
0.0
  0
SPLINE
  5
B2
330
1F
100
AcDbEntity
  8
DEFAULT_1
 62
   250
100
AcDbSpline
210
0.0
220
0.0
230
1.0
 70
     8
 71
     3
 72
    12
 73
     8
 74
     0
 42
0.0000000001
 43
0.0000000001
 40
0.0
 40
0.0
 40
0.0
 40
0.0
 40
0.3333333333333333
 40
0.3333333333333333
 40
0.3333333333333333
 40
0.3333333333333333
 40
1.0
 40
1.0
 40
1.0
 40
1.0
 10
16.9637
 20
10.8303
 30
0.0
 10
16.9637
 20
10.8303
 30
0.0
 10
16.9713
 20
11.7105
 30
0.0
 10
16.9713
 20
11.7105
 30
0.0
 10
16.9713
 20
11.7105
 30
0.0
 10
16.9713
 20
11.7105
 30
0.0
 10
16.9742
 20
12.0452
 30
0.0
 10
16.9742
 20
12.0452
 30
0.0
  0
SPLINE
  5
B3
330
1F
100
AcDbEntity
  8
DEFAULT_1
 62
   250
100
AcDbSpline
210
0.0
220
0.0
230
1.0
 70
     8
 71
     3
 72
    20
 73
    16
 74
     0
 42
0.0000000001
 43
0.0000000001
 40
0.0
 40
0.0
 40
0.0
 40
0.0
 40
0.2
 40
0.2
 40
0.2
 40
0.2
 40
0.4
 40
0.4
 40
0.4
 40
0.4
 40
0.6
 40
0.6
 40
0.6
 40
0.6
 40
1.0
 40
1.0
 40
1.0
 40
1.0
 10
17.0213
 20
12.0947
 30
0.0
 10
17.0213
 20
12.0947
 30
0.0
 10
17.3559
 20
12.1006
 30
0.0
 10
17.3559
 20
12.1006
 30
0.0
 10
17.3559
 20
12.1006
 30
0.0
 10
17.3559
 20
12.1006
 30
0.0
 10
18.3121
 20
12.1173
 30
0.0
 10
18.3121
 20
12.1173
 30
0.0
 10
18.3121
 20
12.1173
 30
0.0
 10
18.3121
 20
12.1173
 30
0.0
 10
18.6468
 20
12.1232
 30
0.0
 10
18.6468
 20
12.1232
 30
0.0
 10
18.6468
 20
12.1232
 30
0.0
 10
18.6468
 20
12.1232
 30
0.0
 10
18.6637
 20
12.1264
 30
0.0
 10
18.6637
 20
12.1264
 30
0.0
  0
SPLINE
  5
B4
330
1F
100
AcDbEntity
  8
DEFAULT_1
 62
   250
100
AcDbSpline
210
0.0
220
0.0
230
1.0
 70
     8
 71
     3
 72
     8
 73
     4
 74
     0
 42
0.0000000001
 43
0.0000000001
 40
0.0
 40
0.0
 40
0.0
 40
0.0
 40
1.0
 40
1.0
 40
1.0
 40
1.0
 10
18.6637
 20
12.1264
 30
0.0
 10
18.683
 20
12.1337
 30
0.0
 10
18.696
 20
12.1528
 30
0.0
 10
18.6961
 20
12.1733
 30
0.0
  0
SPLINE
  5
B5
330
1F
100
AcDbEntity
  8
DEFAULT_1
 62
   250
100
AcDbSpline
210
0.0
220
0.0
230
1.0
 70
    24
 71
     3
 72
    12
 73
     8
 74
     0
 42
0.0000000001
 43
0.0000000001
 40
0.0
 40
0.0
 40
0.0
 40
0.0
 40
0.3333333333333333
 40
0.3333333333333333
 40
0.3333333333333333
 40
0.3333333333333333
 40
1.0
 40
1.0
 40
1.0
 40
1.0
 10
18.6961
 20
12.1733
 30
0.0
 10
18.6961
 20
12.1733
 30
0.0
 10
18.6961
 20
12.4332
 30
0.0
 10
18.6961
 20
12.4332
 30
0.0
 10
18.6961
 20
12.4332
 30
0.0
 10
18.6961
 20
12.4332
 30
0.0
 10
18.6961
 20
12.693
 30
0.0
 10
18.6961
 20
12.693
 30
0.0
  0
SPLINE
  5
B6
330
1F
100
AcDbEntity
  8
DEFAULT_1
 62
   250
100
AcDbSpline
210
0.0
220
0.0
230
1.0
 70
     8
 71
     3
 72
     8
 73
     4
 74
     0
 42
0.0000000001
 43
0.0000000001
 40
0.0
 40
0.0
 40
0.0
 40
0.0
 40
1.0
 40
1.0
 40
1.0
 40
1.0
 10
18.6961
 20
12.693
 30
0.0
 10
18.6961
 20
12.7209
 30
0.0
 10
18.7184
 20
12.7416
 30
0.0
 10
18.7454
 20
12.7432
 30
0.0
  0
SPLINE
  5
B7
330
1F
100
AcDbEntity
  8
DEFAULT_1
 62
   250
100
AcDbSpline
210
0.0
220
0.0
230
1.0
 70
    24
 71
     3
 72
     8
 73
     4
 74
     0
 42
0.0000000001
 43
0.0000000001
 40
0.0
 40
0.0
 40
0.0
 40
0.0
 40
1.0
 40
1.0
 40
1.0
 40
1.0
 10
21.6249
 20
13.2119
 30
0.0
 10
21.6249
 20
13.2119
 30
0.0
 10
21.6249
 20
13.0273
 30
0.0
 10
21.6249
 20
13.0273
 30
0.0
  0
SPLINE
  5
B8
330
1F
100
AcDbEntity
  8
DEFAULT_1
 62
   250
100
AcDbSpline
210
0.0
220
0.0
230
1.0
 70
     8
 71
     3
 72
     8
 73
     4
 74
     0
 42
0.0000000001
 43
0.0000000001
 40
0.0
 40
0.0
 40
0.0
 40
0.0
 40
1.0
 40
1.0
 40
1.0
 40
1.0
 10
21.6249
 20
13.0273
 30
0.0
 10
21.6249
 20
13.0171
 30
0.0
 10
21.6712
 20
12.7984
 30
0.0
 10
21.5755
 20
12.7926
 30
0.0
  0
SPLINE
  5
B9
330
1F
100
AcDbEntity
  8
DEFAULT_1
 62
   250
100
AcDbSpline
210
0.0
220
0.0
230
1.0
 70
     8
 71
     3
 72
     8
 73
     4
 74
     0
 42
0.0000000001
 43
0.0000000001
 40
0.0
 40
0.0
 40
0.0
 40
0.0
 40
1.0
 40
1.0
 40
1.0
 40
1.0
 10
-15.1453
 20
12.7926
 30
0.0
 10
-15.2409
 20
12.7984
 30
0.0
 10
-15.1947
 20
13.0171
 30
0.0
 10
-15.1947
 20
13.0273
 30
0.0
  0
SPLINE
  5
BA
330
1F
100
AcDbEntity
  8
DEFAULT_1
 62
   250
100
AcDbSpline
210
0.0
220
0.0
230
1.0
 70
    24
 71
     3
 72
     8
 73
     4
 74
     0
 42
0.0000000001
 43
0.0000000001
 40
0.0
 40
0.0
 40
0.0
 40
0.0
 40
1.0
 40
1.0
 40
1.0
 40
1.0
 10
-15.1947
 20
13.0273
 30
0.0
 10
-15.1947
 20
13.0273
 30
0.0
 10
-15.1947
 20
13.2119
 30
0.0
 10
-15.1947
 20
13.2119
 30
0.0
  0
SPLINE
  5
BB
330
1F
100
AcDbEntity
  8
DEFAULT_1
 62
   250
100
AcDbSpline
210
0.0
220
0.0
230
1.0
 70
     8
 71
     3
 72
     8
 73
     4
 74
     0
 42
0.0000000001
 43
0.0000000001
 40
0.0
 40
0.0
 40
0.0
 40
0.0
 40
1.0
 40
1.0
 40
1.0
 40
1.0
 10
-12.3152
 20
12.7432
 30
0.0
 10
-12.2882
 20
12.7416
 30
0.0
 10
-12.2659
 20
12.7209
 30
0.0
 10
-12.2659
 20
12.693
 30
0.0
  0
SPLINE
  5
BC
330
1F
100
AcDbEntity
  8
DEFAULT_1
 62
   250
100
AcDbSpline
210
0.0
220
0.0
230
1.0
 70
    24
 71
     3
 72
    12
 73
     8
 74
     0
 42
0.0000000001
 43
0.0000000001
 40
0.0
 40
0.0
 40
0.0
 40
0.0
 40
0.3333333333333333
 40
0.3333333333333333
 40
0.3333333333333333
 40
0.3333333333333333
 40
1.0
 40
1.0
 40
1.0
 40
1.0
 10
-12.2659
 20
12.693
 30
0.0
 10
-12.2659
 20
12.693
 30
0.0
 10
-12.2659
 20
12.4332
 30
0.0
 10
-12.2659
 20
12.4332
 30
0.0
 10
-12.2659
 20
12.4332
 30
0.0
 10
-12.2659
 20
12.4332
 30
0.0
 10
-12.2659
 20
12.1733
 30
0.0
 10
-12.2659
 20
12.1733
 30
0.0
  0
SPLINE
  5
BD
330
1F
100
AcDbEntity
  8
DEFAULT_1
 62
   250
100
AcDbSpline
210
0.0
220
0.0
230
1.0
 70
     8
 71
     3
 72
     8
 73
     4
 74
     0
 42
0.0000000001
 43
0.0000000001
 40
0.0
 40
0.0
 40
0.0
 40
0.0
 40
1.0
 40
1.0
 40
1.0
 40
1.0
 10
-12.2659
 20
12.1733
 30
0.0
 10
-12.2659
 20
12.1527
 30
0.0
 10
-12.2528
 20
12.1337
 30
0.0
 10
-12.2335
 20
12.1264
 30
0.0
  0
SPLINE
  5
BE
330
1F
100
AcDbEntity
  8
DEFAULT_1
 62
   250
100
AcDbSpline
210
0.0
220
0.0
230
1.0
 70
     8
 71
     3
 72
    20
 73
    16
 74
     0
 42
0.0000000001
 43
0.0000000001
 40
0.0
 40
0.0
 40
0.0
 40
0.0
 40
0.2
 40
0.2
 40
0.2
 40
0.2
 40
0.4
 40
0.4
 40
0.4
 40
0.4
 40
0.6
 40
0.6
 40
0.6
 40
0.6
 40
1.0
 40
1.0
 40
1.0
 40
1.0
 10
-12.2335
 20
12.1264
 30
0.0
 10
-12.2335
 20
12.1264
 30
0.0
 10
-12.2165
 20
12.1232
 30
0.0
 10
-12.2165
 20
12.1232
 30
0.0
 10
-12.2165
 20
12.1232
 30
0.0
 10
-12.2165
 20
12.1232
 30
0.0
 10
-11.8818
 20
12.1173
 30
0.0
 10
-11.8818
 20
12.1173
 30
0.0
 10
-11.8818
 20
12.1173
 30
0.0
 10
-11.8818
 20
12.1173
 30
0.0
 10
-10.9275
 20
12.1006
 30
0.0
 10
-10.9275
 20
12.1006
 30
0.0
 10
-10.9275
 20
12.1006
 30
0.0
 10
-10.9275
 20
12.1006
 30
0.0
 10
-10.5909
 20
12.0947
 30
0.0
 10
-10.5909
 20
12.0947
 30
0.0
  0
SPLINE
  5
BF
330
1F
100
AcDbEntity
  8
DEFAULT_1
 62
   250
100
AcDbSpline
210
0.0
220
0.0
230
1.0
 70
     8
 71
     3
 72
     8
 73
     4
 74
     0
 42
0.0000000001
 43
0.0000000001
 40
0.0
 40
0.0
 40
0.0
 40
0.0
 40
1.0
 40
1.0
 40
1.0
 40
1.0
 10
-10.5957
 20
12.0947
 30
0.0
 10
-10.5694
 20
12.0826
 30
0.0
 10
-10.5521
 20
12.0794
 30
0.0
 10
-10.55
 20
12.0452
 30
0.0
  0
SPLINE
  5
C0
330
1F
100
AcDbEntity
  8
DEFAULT_1
 62
   250
100
AcDbSpline
210
0.0
220
0.0
230
1.0
 70
     8
 71
     3
 72
     8
 73
     4
 74
     0
 42
0.0000000001
 43
0.0000000001
 40
0.0
 40
0.0
 40
0.0
 40
0.0
 40
1.0
 40
1.0
 40
1.0
 40
1.0
 10
16.9803
 20
12.0452
 30
0.0
 10
16.9824
 20
12.0794
 30
0.0
 10
16.9997
 20
12.0826
 30
0.0
 10
17.026
 20
12.0947
 30
0.0
  0
SPLINE
  5
C1
330
1F
100
AcDbEntity
  8
DEFAULT_1
 62
   250
100
AcDbSpline
210
0.0
220
0.0
230
1.0
 70
     8
 71
     3
 72
     8
 73
     4
 74
     0
 42
0.0000000001
 43
0.0000000001
 40
0.0
 40
0.0
 40
0.0
 40
0.0
 40
1.0
 40
1.0
 40
1.0
 40
1.0
 10
12.8975
 20
9.7945
 30
0.0
 10
12.9408
 20
9.8098
 30
0.0
 10
12.9512
 20
9.8134
 30
0.0
 10
12.9892
 20
9.8293
 30
0.0
  0
SPLINE
  5
C2
330
1F
100
AcDbEntity
  8
DEFAULT_1
 62
   250
100
AcDbSpline
210
0.0
220
0.0
230
1.0
 70
     8
 71
     3
 72
     8
 73
     4
 74
     0
 42
0.0000000001
 43
0.0000000001
 40
0.0
 40
0.0
 40
0.0
 40
0.0
 40
1.0
 40
1.0
 40
1.0
 40
1.0
 10
11.523
 20
10.1961
 30
0.0
 10
11.5275
 20
10.1952
 30
0.0
 10
11.5309
 20
10.1915
 30
0.0
 10
11.5345
 20
10.1887
 30
0.0
  0
SPLINE
  5
C3
330
1F
100
AcDbEntity
  8
DEFAULT_1
 62
   250
100
AcDbSpline
210
0.0
220
0.0
230
1.0
 70
     8
 71
     3
 72
     8
 73
     4
 74
     0
 42
0.0000000001
 43
0.0000000001
 40
0.0
 40
0.0
 40
0.0
 40
0.0
 40
1.0
 40
1.0
 40
1.0
 40
1.0
 10
11.2616
 20
10.2168
 30
0.0
 10
11.3157
 20
10.2168
 30
0.0
 10
11.4963
 20
10.2603
 30
0.0
 10
11.5771
 20
10.1979
 30
0.0
  0
SPLINE
  5
C4
330
1F
100
AcDbEntity
  8
DEFAULT_1
 62
   250
100
AcDbSpline
210
0.0
220
0.0
230
1.0
 70
     8
 71
     3
 72
     8
 73
     4
 74
     0
 42
0.0000000001
 43
0.0000000001
 40
0.0
 40
0.0
 40
0.0
 40
0.0
 40
1.0
 40
1.0
 40
1.0
 40
1.0
 10
11.4954
 20
9.5299
 30
0.0
 10
11.4699
 20
9.5288
 30
0.0
 10
11.4481
 20
9.5109
 30
0.0
 10
11.4454
 20
9.4849
 30
0.0
  0
SPLINE
  5
C5
330
1F
100
AcDbEntity
  8
DEFAULT_1
 62
   250
100
AcDbSpline
210
0.0
220
0.0
230
1.0
 70
     8
 71
     3
 72
    16
 73
    12
 74
     0
 42
0.0000000001
 43
0.0000000001
 40
0.0
 40
0.0
 40
0.0
 40
0.0
 40
0.25
 40
0.25
 40
0.25
 40
0.25
 40
0.5
 40
0.5
 40
0.5
 40
0.5
 40
1.0
 40
1.0
 40
1.0
 40
1.0
 10
11.4454
 20
9.4849
 30
0.0
 10
11.4454
 20
9.4849
 30
0.0
 10
11.4393
 20
9.1459
 30
0.0
 10
11.4393
 20
9.1459
 30
0.0
 10
11.4393
 20
9.1459
 30
0.0
 10
11.4393
 20
9.1459
 30
0.0
 10
11.3283
 20
2.7916
 30
0.0
 10
11.3283
 20
2.7916
 30
0.0
 10
11.3283
 20
2.7916
 30
0.0
 10
11.3283
 20
2.7916
 30
0.0
 10
11.3225
 20
2.4569
 30
0.0
 10
11.3225
 20
2.4569
 30
0.0
  0
SPLINE
  5
C6
330
1F
100
AcDbEntity
  8
DEFAULT_1
 62
   250
100
AcDbSpline
210
0.0
220
0.0
230
1.0
 70
     8
 71
     3
 72
    20
 73
    16
 74
     0
 42
0.0000000001
 43
0.0000000001
 40
0.0
 40
0.0
 40
0.0
 40
0.0
 40
0.2
 40
0.2
 40
0.2
 40
0.2
 40
0.4
 40
0.4
 40
0.4
 40
0.4
 40
0.6
 40
0.6
 40
0.6
 40
0.6
 40
1.0
 40
1.0
 40
1.0
 40
1.0
 10
9.5287
 20
-0.0254
 30
0.0
 10
9.5367
 20
0.1394
 30
0.0
 10
9.7207
 20
0.1577
 30
0.0
 10
9.8429
 20
0.2127
 30
0.0
 10
9.8429
 20
0.2127
 30
0.0
 10
10.108
 20
0.332
 30
0.0
 10
10.3517
 20
0.4986
 30
0.0
 10
10.56
 20
0.7013
 30
0.0
 10
10.56
 20
0.7013
 30
0.0
 10
10.9256
 20
1.057
 30
0.0
 10
11.177
 20
1.5229
 30
0.0
 10
11.2739
 20
2.0237
 30
0.0
 10
11.2739
 20
2.0237
 30
0.0
 10
11.3109
 20
2.2143
 30
0.0
 10
11.3075
 20
2.2638
 30
0.0
 10
11.3192
 20
2.4569
 30
0.0
  0
SPLINE
  5
C7
330
1F
100
AcDbEntity
  8
DEFAULT_1
 62
   250
100
AcDbSpline
210
0.0
220
0.0
230
1.0
 70
     8
 71
     3
 72
    16
 73
    12
 74
     0
 42
0.0000000001
 43
0.0000000001
 40
0.0
 40
0.0
 40
0.0
 40
0.0
 40
0.25
 40
0.25
 40
0.25
 40
0.25
 40
0.5
 40
0.5
 40
0.5
 40
0.5
 40
1.0
 40
1.0
 40
1.0
 40
1.0
 10
9.5312
 20
-0.0254
 30
0.0
 10
9.5312
 20
-0.0254
 30
0.0
 10
9.5298
 20
-0.3601
 30
0.0
 10
9.5298
 20
-0.3601
 30
0.0
 10
9.5298
 20
-0.3601
 30
0.0
 10
9.5298
 20
-0.3601
 30
0.0
 10
9.4956
 20
-8.2104
 30
0.0
 10
9.4956
 20
-8.2104
 30
0.0
 10
9.4956
 20
-8.2104
 30
0.0
 10
9.4956
 20
-8.2104
 30
0.0
 10
9.4941
 20
-8.5452
 30
0.0
 10
9.4941
 20
-8.5452
 30
0.0
  0
SPLINE
  5
C8
330
1F
100
AcDbEntity
  8
DEFAULT_1
 62
   250
100
AcDbSpline
210
0.0
220
0.0
230
1.0
 70
     8
 71
     3
 72
     8
 73
     4
 74
     0
 42
0.0000000001
 43
0.0000000001
 40
0.0
 40
0.0
 40
0.0
 40
0.0
 40
1.0
 40
1.0
 40
1.0
 40
1.0
 10
9.4941
 20
-8.5452
 30
0.0
 10
9.4871
 20
-8.5966
 30
0.0
 10
9.3252
 20
-9.1647
 30
0.0
 10
9.3115
 20
-9.2147
 30
0.0
  0
SPLINE
  5
C9
330
1F
100
AcDbEntity
  8
DEFAULT_1
 62
   250
100
AcDbSpline
210
0.0
220
0.0
230
1.0
 70
     8
 71
     3
 72
     8
 73
     4
 74
     0
 42
0.0000000001
 43
0.0000000001
 40
0.0
 40
0.0
 40
0.0
 40
0.0
 40
1.0
 40
1.0
 40
1.0
 40
1.0
 10
-5.1532
 20
10.1878
 30
0.0
 10
-5.1452
 20
10.2004
 30
0.0
 10
-5.1412
 20
10.2047
 30
0.0
 10
-5.1275
 20
10.213
 30
0.0
  0
SPLINE
  5
CA
330
1F
100
AcDbEntity
  8
DEFAULT_1
 62
   250
100
AcDbSpline
210
0.0
220
0.0
230
1.0
 70
    24
 71
     3
 72
     8
 73
     4
 74
     0
 42
0.0000000001
 43
0.0000000001
 40
0.0
 40
0.0
 40
0.0
 40
0.0
 40
1.0
 40
1.0
 40
1.0
 40
1.0
 10
3.0712
 20
9.7452
 30
0.0
 10
3.0712
 20
9.7452
 30
0.0
 10
3.0711
 20
9.7513
 30
0.0
 10
3.0711
 20
9.7513
 30
0.0
  0
SPLINE
  5
CB
330
1F
100
AcDbEntity
  8
DEFAULT_1
 62
   250
100
AcDbSpline
210
0.0
220
0.0
230
1.0
 70
    24
 71
     3
 72
     8
 73
     4
 74
     0
 42
0.0000000001
 43
0.0000000001
 40
0.0
 40
0.0
 40
0.0
 40
0.0
 40
1.0
 40
1.0
 40
1.0
 40
1.0
 10
3.359
 20
9.7513
 30
0.0
 10
3.359
 20
9.7513
 30
0.0
 10
3.3589
 20
9.7452
 30
0.0
 10
3.3589
 20
9.7452
 30
0.0
  0
SPLINE
  5
CC
330
1F
100
AcDbEntity
  8
DEFAULT_1
 62
   250
100
AcDbSpline
210
0.0
220
0.0
230
1.0
 70
    24
 71
     3
 72
     8
 73
     4
 74
     0
 42
0.0000000001
 43
0.0000000001
 40
0.0
 40
0.0
 40
0.0
 40
0.0
 40
1.0
 40
1.0
 40
1.0
 40
1.0
 10
-6.7085
 20
9.9221
 30
0.0
 10
-6.7085
 20
9.9221
 30
0.0
 10
-6.7519
 20
9.9593
 30
0.0
 10
-6.7519
 20
9.9593
 30
0.0
  0
SPLINE
  5
CD
330
1F
100
AcDbEntity
  8
DEFAULT_1
 62
   250
100
AcDbSpline
210
0.0
220
0.0
230
1.0
 70
     8
 71
     3
 72
    20
 73
    16
 74
     0
 42
0.0000000001
 43
0.0000000001
 40
0.0
 40
0.0
 40
0.0
 40
0.0
 40
0.2
 40
0.2
 40
0.2
 40
0.2
 40
0.4
 40
0.4
 40
0.4
 40
0.4
 40
0.6
 40
0.6
 40
0.6
 40
0.6
 40
1.0
 40
1.0
 40
1.0
 40
1.0
 10
-6.3904
 20
9.7719
 30
0.0
 10
-6.601
 20
9.8053
 30
0.0
 10
-6.8187
 20
9.8909
 30
0.0
 10
-6.9235
 20
10.0913
 30
0.0
 10
-6.9235
 20
10.0913
 30
0.0
 10
-6.9558
 20
10.1532
 30
0.0
 10
-6.993
 20
10.2153
 30
0.0
 10
-7.0078
 20
10.2849
 30
0.0
 10
-7.0078
 20
10.2849
 30
0.0
 10
-7.0469
 20
10.4684
 30
0.0
 10
-7.0399
 20
10.6245
 30
0.0
 10
-7.0433
 20
10.8201
 30
0.0
 10
-7.0433
 20
10.8201
 30
0.0
 10
-7.0501
 20
11.2091
 30
0.0
 10
-7.0697
 20
11.6359
 30
0.0
 10
-7.0627
 20
12.0333
 30
0.0
  0
SPLINE
  5
CE
330
1F
100
AcDbEntity
  8
DEFAULT_1
 62
   250
100
AcDbSpline
210
0.0
220
0.0
230
1.0
 70
     8
 71
     3
 72
    12
 73
     8
 74
     0
 42
0.0000000001
 43
0.0000000001
 40
0.0
 40
0.0
 40
0.0
 40
0.0
 40
0.3333333333333333
 40
0.3333333333333333
 40
0.3333333333333333
 40
0.3333333333333333
 40
1.0
 40
1.0
 40
1.0
 40
1.0
 10
-6.0154
 20
9.7628
 30
0.0
 10
-6.3427
 20
9.7769
 30
0.0
 10
-6.632
 20
9.975
 30
0.0
 10
-6.7236
 20
10.2982
 30
0.0
 10
-6.7236
 20
10.2982
 30
0.0
 10
-6.7705
 20
10.4634
 30
0.0
 10
-6.7545
 20
10.658
 30
0.0
 10
-6.7573
 20
10.821
 30
0.0
  0
SPLINE
  5
CF
330
1F
100
AcDbEntity
  8
DEFAULT_1
 62
   250
100
AcDbSpline
210
0.0
220
0.0
230
1.0
 70
     8
 71
     3
 72
    12
 73
     8
 74
     0
 42
0.0000000001
 43
0.0000000001
 40
0.0
 40
0.0
 40
0.0
 40
0.0
 40
0.3333333333333333
 40
0.3333333333333333
 40
0.3333333333333333
 40
0.3333333333333333
 40
1.0
 40
1.0
 40
1.0
 40
1.0
 10
-6.7573
 20
10.821
 30
0.0
 10
-6.7573
 20
10.821
 30
0.0
 10
-6.7728
 20
11.7078
 30
0.0
 10
-6.7728
 20
11.7078
 30
0.0
 10
-6.7728
 20
11.7078
 30
0.0
 10
-6.7728
 20
11.7078
 30
0.0
 10
-6.7787
 20
12.0425
 30
0.0
 10
-6.7787
 20
12.0425
 30
0.0
  0
SPLINE
  5
D0
330
1F
100
AcDbEntity
  8
DEFAULT_1
 62
   250
100
AcDbSpline
210
0.0
220
0.0
230
1.0
 70
     8
 71
     3
 72
    12
 73
     8
 74
     0
 42
0.0000000001
 43
0.0000000001
 40
0.0
 40
0.0
 40
0.0
 40
0.0
 40
0.3333333333333333
 40
0.3333333333333333
 40
0.3333333333333333
 40
0.3333333333333333
 40
1.0
 40
1.0
 40
1.0
 40
1.0
 10
-6.7787
 20
12.0425
 30
0.0
 10
-6.7791
 20
12.0703
 30
0.0
 10
-6.8012
 20
12.0904
 30
0.0
 10
-6.8282
 20
12.0919
 30
0.0
 10
-6.8282
 20
12.0919
 30
0.0
 10
-6.9057
 20
12.0621
 30
0.0
 10
-6.9783
 20
12.0345
 30
0.0
 10
-7.0628
 20
12.0333
 30
0.0
  0
SPLINE
  5
D1
330
1F
100
AcDbEntity
  8
DEFAULT_1
 62
   250
100
AcDbSpline
210
0.0
220
0.0
230
1.0
 70
    24
 71
     3
 72
     8
 73
     4
 74
     0
 42
0.0000000001
 43
0.0000000001
 40
0.0
 40
0.0
 40
0.0
 40
0.0
 40
1.0
 40
1.0
 40
1.0
 40
1.0
 10
-7.0628
 20
12.0333
 30
0.0
 10
-7.0628
 20
12.0333
 30
0.0
 10
-9.0932
 20
12.0687
 30
0.0
 10
-9.0932
 20
12.0687
 30
0.0
  0
SPLINE
  5
D2
330
1F
100
AcDbEntity
  8
DEFAULT_1
 62
   250
100
AcDbSpline
210
0.0
220
0.0
230
1.0
 70
     8
 71
     3
 72
     8
 73
     4
 74
     0
 42
0.0000000001
 43
0.0000000001
 40
0.0
 40
0.0
 40
0.0
 40
0.0
 40
1.0
 40
1.0
 40
1.0
 40
1.0
 10
-10.5417
 20
12.045
 30
0.0
 10
-10.0489
 20
12.0363
 30
0.0
 10
-9.5563
 20
12.0273
 30
0.0
 10
-9.0637
 20
12.0175
 30
0.0
  0
SPLINE
  5
D3
330
1F
100
AcDbEntity
  8
DEFAULT_1
 62
   250
100
AcDbSpline
210
0.0
220
0.0
230
1.0
 70
     8
 71
     3
 72
     8
 73
     4
 74
     0
 42
0.0000000001
 43
0.0000000001
 40
0.0
 40
0.0
 40
0.0
 40
0.0
 40
1.0
 40
1.0
 40
1.0
 40
1.0
 10
11.5301
 20
12.0469
 30
0.0
 10
11.5461
 20
12.0798
 30
0.0
 10
11.6248
 20
12.0753
 30
0.0
 10
11.6521
 20
12.0763
 30
0.0
  0
SPLINE
  5
D4
330
1F
100
AcDbEntity
  8
DEFAULT_1
 62
   250
100
AcDbSpline
210
0.0
220
0.0
230
1.0
 70
     8
 71
     3
 72
    36
 73
    32
 74
     0
 42
0.0000000001
 43
0.0000000001
 40
0.0
 40
0.0
 40
0.0
 40
0.0
 40
0.1111111111111111
 40
0.1111111111111111
 40
0.1111111111111111
 40
0.1111111111111111
 40
0.2222222222222222
 40
0.2222222222222222
 40
0.2222222222222222
 40
0.2222222222222222
 40
0.3333333333333333
 40
0.3333333333333333
 40
0.3333333333333333
 40
0.3333333333333333
 40
0.4444444444444444
 40
0.4444444444444444
 40
0.4444444444444444
 40
0.4444444444444444
 40
0.5555555555555556
 40
0.5555555555555556
 40
0.5555555555555556
 40
0.5555555555555556
 40
0.6666666666666666
 40
0.6666666666666666
 40
0.6666666666666666
 40
0.6666666666666666
 40
0.7777777777777778
 40
0.7777777777777778
 40
0.7777777777777778
 40
0.7777777777777778
 40
1.0
 40
1.0
 40
1.0
 40
1.0
 10
11.6521
 20
12.0763
 30
0.0
 10
11.6521
 20
12.0763
 30
0.0
 10
11.6973
 20
12.078
 30
0.0
 10
11.6973
 20
12.078
 30
0.0
 10
11.6973
 20
12.078
 30
0.0
 10
11.6973
 20
12.078
 30
0.0
 10
11.7516
 20
12.0796
 30
0.0
 10
11.7516
 20
12.0796
 30
0.0
 10
11.7516
 20
12.0796
 30
0.0
 10
11.7516
 20
12.0796
 30
0.0
 10
11.8172
 20
12.0814
 30
0.0
 10
11.8172
 20
12.0814
 30
0.0
 10
11.8172
 20
12.0814
 30
0.0
 10
11.8172
 20
12.0814
 30
0.0
 10
11.8854
 20
12.0829
 30
0.0
 10
11.8854
 20
12.0829
 30
0.0
 10
11.8854
 20
12.0829
 30
0.0
 10
11.8854
 20
12.0829
 30
0.0
 10
11.9891
 20
12.0851
 30
0.0
 10
11.9891
 20
12.0851
 30
0.0
 10
11.9891
 20
12.0851
 30
0.0
 10
11.9891
 20
12.0851
 30
0.0
 10
12.1344
 20
12.0876
 30
0.0
 10
12.1344
 20
12.0876
 30
0.0
 10
12.1344
 20
12.0876
 30
0.0
 10
12.1344
 20
12.0876
 30
0.0
 10
12.3203
 20
12.0903
 30
0.0
 10
12.3203
 20
12.0903
 30
0.0
 10
12.3203
 20
12.0903
 30
0.0
 10
12.3203
 20
12.0903
 30
0.0
 10
12.5111
 20
12.0926
 30
0.0
 10
12.5111
 20
12.0926
 30
0.0
  0
SPLINE
  5
D5
330
1F
100
AcDbEntity
  8
DEFAULT_1
 62
   250
100
AcDbSpline
210
0.0
220
0.0
230
1.0
 70
     8
 71
     3
 72
    20
 73
    16
 74
     0
 42
0.0000000001
 43
0.0000000001
 40
0.0
 40
0.0
 40
0.0
 40
0.0
 40
0.2
 40
0.2
 40
0.2
 40
0.2
 40
0.4
 40
0.4
 40
0.4
 40
0.4
 40
0.6
 40
0.6
 40
0.6
 40
0.6
 40
1.0
 40
1.0
 40
1.0
 40
1.0
 10
12.5111
 20
12.0926
 30
0.0
 10
12.7552
 20
12.0952
 30
0.0
 10
13.0086
 20
12.114
 30
0.0
 10
13.2528
 20
12.0926
 30
0.0
 10
13.2528
 20
12.0926
 30
0.0
 10
13.2808
 20
12.0901
 30
0.0
 10
13.3111
 20
12.0687
 30
0.0
 10
13.3381
 20
12.0606
 30
0.0
 10
13.3381
 20
12.0606
 30
0.0
 10
13.3872
 20
12.0457
 30
0.0
 10
13.4397
 20
12.0324
 30
0.0
 10
13.493
 20
12.0333
 30
0.0
 10
13.493
 20
12.0333
 30
0.0
 10
14.261
 20
12.0457
 30
0.0
 10
15.0291
 20
12.0601
 30
0.0
 10
15.7971
 20
12.0734
 30
0.0
  0
SPLINE
  5
D6
330
1F
100
AcDbEntity
  8
DEFAULT_1
 62
   250
100
AcDbSpline
210
0.0
220
0.0
230
1.0
 70
     8
 71
     3
 72
    12
 73
     8
 74
     0
 42
0.0000000001
 43
0.0000000001
 40
0.0
 40
0.0
 40
0.0
 40
0.0
 40
0.3333333333333333
 40
0.3333333333333333
 40
0.3333333333333333
 40
0.3333333333333333
 40
1.0
 40
1.0
 40
1.0
 40
1.0
 10
15.7971
 20
12.0734
 30
0.0
 10
15.7971
 20
12.0734
 30
0.0
 10
16.6865
 20
12.0889
 30
0.0
 10
16.6865
 20
12.0889
 30
0.0
 10
16.6865
 20
12.0889
 30
0.0
 10
16.6865
 20
12.0889
 30
0.0
 10
17.0211
 20
12.0947
 30
0.0
 10
17.0211
 20
12.0947
 30
0.0
  0
SPLINE
  5
D7
330
1F
100
AcDbEntity
  8
DEFAULT_1
 62
   250
100
AcDbSpline
210
0.0
220
0.0
230
1.0
 70
     8
 71
     3
 72
     8
 73
     4
 74
     0
 42
0.0000000001
 43
0.0000000001
 40
0.0
 40
0.0
 40
0.0
 40
0.0
 40
1.0
 40
1.0
 40
1.0
 40
1.0
 10
16.9741
 20
12.045
 30
0.0
 10
15.814
 20
12.0245
 30
0.0
 10
14.6539
 20
12.0031
 30
0.0
 10
13.4938
 20
11.983
 30
0.0
  0
SPLINE
  5
D8
330
1F
100
AcDbEntity
  8
DEFAULT_1
 62
   250
100
AcDbSpline
210
0.0
220
0.0
230
1.0
 70
    24
 71
     3
 72
     8
 73
     4
 74
     0
 42
0.0000000001
 43
0.0000000001
 40
0.0
 40
0.0
 40
0.0
 40
0.0
 40
1.0
 40
1.0
 40
1.0
 40
1.0
 10
13.4938
 20
11.983
 30
0.0
 10
13.4938
 20
11.983
 30
0.0
 10
13.447
 20
11.9839
 30
0.0
 10
13.447
 20
11.9839
 30
0.0
  0
SPLINE
  5
D9
330
1F
100
AcDbEntity
  8
DEFAULT_1
 62
   250
100
AcDbSpline
210
0.0
220
0.0
230
1.0
 70
     8
 71
     3
 72
    24
 73
    20
 74
     0
 42
0.0000000001
 43
0.0000000001
 40
0.0
 40
0.0
 40
0.0
 40
0.0
 40
0.1666666666666667
 40
0.1666666666666667
 40
0.1666666666666667
 40
0.1666666666666667
 40
0.3333333333333333
 40
0.3333333333333333
 40
0.3333333333333333
 40
0.3333333333333333
 40
0.5
 40
0.5
 40
0.5
 40
0.5
 40
0.6666666666666666
 40
0.6666666666666666
 40
0.6666666666666666
 40
0.6666666666666666
 40
1.0
 40
1.0
 40
1.0
 40
1.0
 10
13.493
 20
12.0333
 30
0.0
 10
13.493
 20
12.0333
 30
0.0
 10
13.4938
 20
11.983
 30
0.0
 10
13.4938
 20
11.983
 30
0.0
 10
13.4938
 20
11.983
 30
0.0
 10
13.4938
 20
11.983
 30
0.0
 10
13.488
 20
11.6483
 30
0.0
 10
13.488
 20
11.6483
 30
0.0
 10
13.488
 20
11.6483
 30
0.0
 10
13.488
 20
11.6483
 30
0.0
 10
13.4735
 20
10.8201
 30
0.0
 10
13.4735
 20
10.8201
 30
0.0
 10
13.4735
 20
10.8201
 30
0.0
 10
13.4735
 20
10.8201
 30
0.0
 10
13.4677
 20
10.4855
 30
0.0
 10
13.4677
 20
10.4855
 30
0.0
 10
13.4677
 20
10.4855
 30
0.0
 10
13.4677
 20
10.4855
 30
0.0
 10
13.4602
 20
10.3903
 30
0.0
 10
13.4602
 20
10.3903
 30
0.0
  0
SPLINE
  5
DA
330
1F
100
AcDbEntity
  8
DEFAULT_1
 62
   250
100
AcDbSpline
210
0.0
220
0.0
230
1.0
 70
     8
 71
     3
 72
    12
 73
     8
 74
     0
 42
0.0000000001
 43
0.0000000001
 40
0.0
 40
0.0
 40
0.0
 40
0.0
 40
0.3333333333333333
 40
0.3333333333333333
 40
0.3333333333333333
 40
0.3333333333333333
 40
1.0
 40
1.0
 40
1.0
 40
1.0
 10
13.4602
 20
10.3903
 30
0.0
 10
13.4338
 20
10.2109
 30
0.0
 10
13.3497
 20
10.059
 30
0.0
 10
13.2242
 20
9.9302
 30
0.0
 10
13.2242
 20
9.9302
 30
0.0
 10
13.1933
 20
9.8985
 30
0.0
 10
13.143
 20
9.8777
 30
0.0
 10
13.1041
 20
9.8575
 30
0.0
  0
SPLINE
  5
DB
330
1F
100
AcDbEntity
  8
DEFAULT_1
 62
   250
100
AcDbSpline
210
0.0
220
0.0
230
1.0
 70
     8
 71
     3
 72
    12
 73
     8
 74
     0
 42
0.0000000001
 43
0.0000000001
 40
0.0
 40
0.0
 40
0.0
 40
0.0
 40
0.3333333333333333
 40
0.3333333333333333
 40
0.3333333333333333
 40
0.3333333333333333
 40
1.0
 40
1.0
 40
1.0
 40
1.0
 10
12.4457
 20
9.7628
 30
0.0
 10
12.7728
 20
9.7769
 30
0.0
 10
13.0622
 20
9.975
 30
0.0
 10
13.1539
 20
10.2982
 30
0.0
 10
13.1539
 20
10.2982
 30
0.0
 10
13.2007
 20
10.4634
 30
0.0
 10
13.1847
 20
10.658
 30
0.0
 10
13.1875
 20
10.821
 30
0.0
  0
SPLINE
  5
DC
330
1F
100
AcDbEntity
  8
DEFAULT_1
 62
   250
100
AcDbSpline
210
0.0
220
0.0
230
1.0
 70
     8
 71
     3
 72
    12
 73
     8
 74
     0
 42
0.0000000001
 43
0.0000000001
 40
0.0
 40
0.0
 40
0.0
 40
0.0
 40
0.3333333333333333
 40
0.3333333333333333
 40
0.3333333333333333
 40
0.3333333333333333
 40
1.0
 40
1.0
 40
1.0
 40
1.0
 10
13.1875
 20
10.821
 30
0.0
 10
13.1875
 20
10.821
 30
0.0
 10
13.203
 20
11.7078
 30
0.0
 10
13.203
 20
11.7078
 30
0.0
 10
13.203
 20
11.7078
 30
0.0
 10
13.203
 20
11.7078
 30
0.0
 10
13.2088
 20
12.0425
 30
0.0
 10
13.2088
 20
12.0425
 30
0.0
  0
SPLINE
  5
DD
330
1F
100
AcDbEntity
  8
DEFAULT_1
 62
   250
100
AcDbSpline
210
0.0
220
0.0
230
1.0
 70
     8
 71
     3
 72
     8
 73
     4
 74
     0
 42
0.0000000001
 43
0.0000000001
 40
0.0
 40
0.0
 40
0.0
 40
0.0
 40
1.0
 40
1.0
 40
1.0
 40
1.0
 10
13.2088
 20
12.0425
 30
0.0
 10
13.2093
 20
12.0703
 30
0.0
 10
13.2314
 20
12.0904
 30
0.0
 10
13.2583
 20
12.0919
 30
0.0
  0
SPLINE
  5
DE
330
1F
100
AcDbEntity
  8
DEFAULT_1
 62
   250
100
AcDbSpline
210
0.0
220
0.0
230
1.0
 70
     8
 71
     3
 72
    36
 73
    32
 74
     0
 42
0.0000000001
 43
0.0000000001
 40
0.0
 40
0.0
 40
0.0
 40
0.0
 40
0.1111111111111111
 40
0.1111111111111111
 40
0.1111111111111111
 40
0.1111111111111111
 40
0.2222222222222222
 40
0.2222222222222222
 40
0.2222222222222222
 40
0.2222222222222222
 40
0.3333333333333333
 40
0.3333333333333333
 40
0.3333333333333333
 40
0.3333333333333333
 40
0.4444444444444444
 40
0.4444444444444444
 40
0.4444444444444444
 40
0.4444444444444444
 40
0.5555555555555556
 40
0.5555555555555556
 40
0.5555555555555556
 40
0.5555555555555556
 40
0.6666666666666666
 40
0.6666666666666666
 40
0.6666666666666666
 40
0.6666666666666666
 40
0.7777777777777778
 40
0.7777777777777778
 40
0.7777777777777778
 40
0.7777777777777778
 40
1.0
 40
1.0
 40
1.0
 40
1.0
 10
13.493
 20
12.0333
 30
0.0
 10
13.4654
 20
12.0315
 30
0.0
 10
13.445
 20
12.0118
 30
0.0
 10
13.4437
 20
11.9839
 30
0.0
 10
13.4437
 20
11.9839
 30
0.0
 10
13.3591
 20
11.984
 30
0.0
 10
13.287
 20
12.0141
 30
0.0
 10
13.2088
 20
12.0425
 30
0.0
 10
13.2088
 20
12.0425
 30
0.0
 10
13.1886
 20
12.0499
 30
0.0
 10
13.155
 20
12.0452
 30
0.0
 10
13.1347
 20
12.0455
 30
0.0
 10
13.1347
 20
12.0455
 30
0.0
 10
13.0838
 20
12.0462
 30
0.0
 10
13.0327
 20
12.0463
 30
0.0
 10
12.9816
 20
12.0463
 30
0.0
 10
12.9816
 20
12.0463
 30
0.0
 10
12.705
 20
12.046
 30
0.0
 10
12.4284
 20
12.043
 30
0.0
 10
12.1517
 20
12.0384
 30
0.0
 10
12.1517
 20
12.0384
 30
0.0
 10
12.0318
 20
12.0362
 30
0.0
 10
11.9118
 20
12.0339
 30
0.0
 10
11.7918
 20
12.0303
 30
0.0
 10
11.7918
 20
12.0303
 30
0.0
 10
11.7462
 20
12.0288
 30
0.0
 10
11.6676
 20
12.0406
 30
0.0
 10
11.6241
 20
12.0218
 30
0.0
 10
11.6241
 20
12.0218
 30
0.0
 10
11.5821
 20
12.0036
 30
0.0
 10
11.5423
 20
11.9825
 30
0.0
 10
11.4989
 20
11.9675
 30
0.0
  0
SPLINE
  5
DF
330
1F
100
AcDbEntity
  8
DEFAULT_1
 62
   250
100
AcDbSpline
210
0.0
220
0.0
230
1.0
 70
     8
 71
     3
 72
    20
 73
    16
 74
     0
 42
0.0000000001
 43
0.0000000001
 40
0.0
 40
0.0
 40
0.0
 40
0.0
 40
0.2
 40
0.2
 40
0.2
 40
0.2
 40
0.4
 40
0.4
 40
0.4
 40
0.4
 40
0.6
 40
0.6
 40
0.6
 40
0.6
 40
1.0
 40
1.0
 40
1.0
 40
1.0
 10
11.4989
 20
11.9675
 30
0.0
 10
11.4989
 20
11.9675
 30
0.0
 10
11.5044
 20
11.6328
 30
0.0
 10
11.5044
 20
11.6328
 30
0.0
 10
11.5044
 20
11.6328
 30
0.0
 10
11.5044
 20
11.6328
 30
0.0
 10
11.5179
 20
10.821
 30
0.0
 10
11.5179
 20
10.821
 30
0.0
 10
11.5179
 20
10.821
 30
0.0
 10
11.5179
 20
10.821
 30
0.0
 10
11.5235
 20
10.4864
 30
0.0
 10
11.5235
 20
10.4864
 30
0.0
 10
11.5235
 20
10.4864
 30
0.0
 10
11.5235
 20
10.4864
 30
0.0
 10
11.532
 20
10.3842
 30
0.0
 10
11.532
 20
10.3842
 30
0.0
  0
SPLINE
  5
E0
330
1F
100
AcDbEntity
  8
DEFAULT_1
 62
   250
100
AcDbSpline
210
0.0
220
0.0
230
1.0
 70
     8
 71
     3
 72
     8
 73
     4
 74
     0
 42
0.0000000001
 43
0.0000000001
 40
0.0
 40
0.0
 40
0.0
 40
0.0
 40
1.0
 40
1.0
 40
1.0
 40
1.0
 10
11.532
 20
10.3842
 30
0.0
 10
11.5416
 20
10.3155
 30
0.0
 10
11.5727
 20
10.2558
 30
0.0
 10
11.5837
 20
10.1892
 30
0.0
  0
SPLINE
  5
E1
330
1F
100
AcDbEntity
  8
DEFAULT_1
 62
   250
100
AcDbSpline
210
0.0
220
0.0
230
1.0
 70
     8
 71
     3
 72
    12
 73
     8
 74
     0
 42
0.0000000001
 43
0.0000000001
 40
0.0
 40
0.0
 40
0.0
 40
0.0
 40
0.3333333333333333
 40
0.3333333333333333
 40
0.3333333333333333
 40
0.3333333333333333
 40
1.0
 40
1.0
 40
1.0
 40
1.0
 10
12.3869
 20
9.7628
 30
0.0
 10
12.0596
 20
9.7769
 30
0.0
 10
11.7702
 20
9.975
 30
0.0
 10
11.6787
 20
10.2982
 30
0.0
 10
11.6787
 20
10.2982
 30
0.0
 10
11.6319
 20
10.4634
 30
0.0
 10
11.6478
 20
10.658
 30
0.0
 10
11.645
 20
10.821
 30
0.0
  0
SPLINE
  5
E2
330
1F
100
AcDbEntity
  8
DEFAULT_1
 62
   250
100
AcDbSpline
210
0.0
220
0.0
230
1.0
 70
    24
 71
     3
 72
     8
 73
     4
 74
     0
 42
0.0000000001
 43
0.0000000001
 40
0.0
 40
0.0
 40
0.0
 40
0.0
 40
1.0
 40
1.0
 40
1.0
 40
1.0
 10
11.645
 20
10.821
 30
0.0
 10
11.645
 20
10.821
 30
0.0
 10
11.6299
 20
11.6868
 30
0.0
 10
11.6299
 20
11.6868
 30
0.0
  0
SPLINE
  5
E3
330
1F
100
AcDbEntity
  8
DEFAULT_1
 62
   250
100
AcDbSpline
210
0.0
220
0.0
230
1.0
 70
     8
 71
     3
 72
     8
 73
     4
 74
     0
 42
0.0000000001
 43
0.0000000001
 40
0.0
 40
0.0
 40
0.0
 40
0.0
 40
1.0
 40
1.0
 40
1.0
 40
1.0
 10
11.6299
 20
11.6868
 30
0.0
 10
11.6291
 20
11.7316
 30
0.0
 10
11.6989
 20
12.0155
 30
0.0
 10
11.5784
 20
12.0709
 30
0.0
  0
SPLINE
  5
E4
330
1F
100
AcDbEntity
  8
DEFAULT_1
 62
   250
100
AcDbSpline
210
0.0
220
0.0
230
1.0
 70
     8
 71
     3
 72
     8
 73
     4
 74
     0
 42
0.0000000001
 43
0.0000000001
 40
0.0
 40
0.0
 40
0.0
 40
0.0
 40
1.0
 40
1.0
 40
1.0
 40
1.0
 10
11.468
 20
12.0202
 30
0.0
 10
11.3135
 20
11.9952
 30
0.0
 10
11.4087
 20
11.7071
 30
0.0
 10
11.4099
 20
11.6319
 30
0.0
  0
SPLINE
  5
E5
330
1F
100
AcDbEntity
  8
DEFAULT_1
 62
   250
100
AcDbSpline
210
0.0
220
0.0
230
1.0
 70
     8
 71
     3
 72
    12
 73
     8
 74
     0
 42
0.0000000001
 43
0.0000000001
 40
0.0
 40
0.0
 40
0.0
 40
0.0
 40
0.3333333333333333
 40
0.3333333333333333
 40
0.3333333333333333
 40
0.3333333333333333
 40
1.0
 40
1.0
 40
1.0
 40
1.0
 10
11.4099
 20
11.6319
 30
0.0
 10
11.4099
 20
11.6319
 30
0.0
 10
11.4234
 20
10.8201
 30
0.0
 10
11.4234
 20
10.8201
 30
0.0
 10
11.4234
 20
10.8201
 30
0.0
 10
11.4234
 20
10.8201
 30
0.0
 10
11.4289
 20
10.4855
 30
0.0
 10
11.4289
 20
10.4855
 30
0.0
  0
SPLINE
  5
E6
330
1F
100
AcDbEntity
  8
DEFAULT_1
 62
   250
100
AcDbSpline
210
0.0
220
0.0
230
1.0
 70
     8
 71
     3
 72
     8
 73
     4
 74
     0
 42
0.0000000001
 43
0.0000000001
 40
0.0
 40
0.0
 40
0.0
 40
0.0
 40
1.0
 40
1.0
 40
1.0
 40
1.0
 10
11.4289
 20
10.4855
 30
0.0
 10
11.4318
 20
10.3977
 30
0.0
 10
11.4201
 20
10.2578
 30
0.0
 10
11.521
 20
10.22
 30
0.0
  0
SPLINE
  5
E7
330
1F
100
AcDbEntity
  8
DEFAULT_1
 62
   250
100
AcDbSpline
210
0.0
220
0.0
230
1.0
 70
    24
 71
     3
 72
     8
 73
     4
 74
     0
 42
0.0000000001
 43
0.0000000001
 40
0.0
 40
0.0
 40
0.0
 40
0.0
 40
1.0
 40
1.0
 40
1.0
 40
1.0
 10
3.3596
 20
9.7628
 30
0.0
 10
3.3596
 20
9.7628
 30
0.0
 10
3.5228
 20
9.7811
 30
0.0
 10
3.5228
 20
9.7811
 30
0.0
  0
SPLINE
  5
E8
330
1F
100
AcDbEntity
  8
DEFAULT_1
 62
   250
100
AcDbSpline
210
0.0
220
0.0
230
1.0
 70
     8
 71
     3
 72
    16
 73
    12
 74
     0
 42
0.0000000001
 43
0.0000000001
 40
0.0
 40
0.0
 40
0.0
 40
0.0
 40
0.25
 40
0.25
 40
0.25
 40
0.25
 40
0.5
 40
0.5
 40
0.5
 40
0.5
 40
1.0
 40
1.0
 40
1.0
 40
1.0
 10
3.5228
 20
9.7811
 30
0.0
 10
3.6494
 20
9.7975
 30
0.0
 10
3.7878
 20
9.8858
 30
0.0
 10
3.8766
 20
9.974
 30
0.0
 10
3.8766
 20
9.974
 30
0.0
 10
3.928
 20
10.0252
 30
0.0
 10
3.9545
 20
10.0611
 30
0.0
 10
3.994
 20
10.1236
 30
0.0
 10
3.994
 20
10.1236
 30
0.0
 10
4.0091
 20
10.1475
 30
0.0
 10
4.0198
 20
10.1907
 30
0.0
 10
4.0512
 20
10.203
 30
0.0
  0
SPLINE
  5
E9
330
1F
100
AcDbEntity
  8
DEFAULT_1
 62
   250
100
AcDbSpline
210
0.0
220
0.0
230
1.0
 70
     8
 71
     3
 72
    24
 73
    20
 74
     0
 42
0.0000000001
 43
0.0000000001
 40
0.0
 40
0.0
 40
0.0
 40
0.0
 40
0.1666666666666667
 40
0.1666666666666667
 40
0.1666666666666667
 40
0.1666666666666667
 40
0.3333333333333333
 40
0.3333333333333333
 40
0.3333333333333333
 40
0.3333333333333333
 40
0.5
 40
0.5
 40
0.5
 40
0.5
 40
0.6666666666666666
 40
0.6666666666666666
 40
0.6666666666666666
 40
0.6666666666666666
 40
1.0
 40
1.0
 40
1.0
 40
1.0
 10
4.0512
 20
10.203
 30
0.0
 10
4.0512
 20
10.203
 30
0.0
 10
4.0683
 20
10.2061
 30
0.0
 10
4.0683
 20
10.2061
 30
0.0
 10
4.0683
 20
10.2061
 30
0.0
 10
4.0683
 20
10.2061
 30
0.0
 10
4.4031
 20
10.2061
 30
0.0
 10
4.4031
 20
10.2061
 30
0.0
 10
4.4031
 20
10.2061
 30
0.0
 10
4.4031
 20
10.2061
 30
0.0
 10
11.1652
 20
10.2061
 30
0.0
 10
11.1652
 20
10.2061
 30
0.0
 10
11.1652
 20
10.2061
 30
0.0
 10
11.1652
 20
10.2061
 30
0.0
 10
11.5
 20
10.2061
 30
0.0
 10
11.5
 20
10.2061
 30
0.0
 10
11.5
 20
10.2061
 30
0.0
 10
11.5
 20
10.2061
 30
0.0
 10
11.5185
 20
10.2028
 30
0.0
 10
11.5185
 20
10.2028
 30
0.0
  0
SPLINE
  5
EA
330
1F
100
AcDbEntity
  8
DEFAULT_1
 62
   250
100
AcDbSpline
210
0.0
220
0.0
230
1.0
 70
     8
 71
     3
 72
    16
 73
    12
 74
     0
 42
0.0000000001
 43
0.0000000001
 40
0.0
 40
0.0
 40
0.0
 40
0.0
 40
0.25
 40
0.25
 40
0.25
 40
0.25
 40
0.5
 40
0.5
 40
0.5
 40
0.5
 40
1.0
 40
1.0
 40
1.0
 40
1.0
 10
11.5185
 20
10.2028
 30
0.0
 10
11.5613
 20
10.186
 30
0.0
 10
11.5856
 20
10.0978
 30
0.0
 10
11.6099
 20
10.061
 30
0.0
 10
11.6099
 20
10.061
 30
0.0
 10
11.6503
 20
9.9996
 30
0.0
 10
11.7005
 20
9.9447
 30
0.0
 10
11.7568
 20
9.8975
 30
0.0
 10
11.7568
 20
9.8975
 30
0.0
 10
11.787
 20
9.8723
 30
0.0
 10
11.8269
 20
9.8524
 30
0.0
 10
11.8543
 20
9.8243
 30
0.0
  0
SPLINE
  5
EB
330
1F
100
AcDbEntity
  8
DEFAULT_1
 62
   250
100
AcDbSpline
210
0.0
220
0.0
230
1.0
 70
     8
 71
     3
 72
    20
 73
    16
 74
     0
 42
0.0000000001
 43
0.0000000001
 40
0.0
 40
0.0
 40
0.0
 40
0.0
 40
0.2
 40
0.2
 40
0.2
 40
0.2
 40
0.4
 40
0.4
 40
0.4
 40
0.4
 40
0.6
 40
0.6
 40
0.6
 40
0.6
 40
1.0
 40
1.0
 40
1.0
 40
1.0
 10
11.462
 20
10.267
 30
0.0
 10
11.462
 20
10.267
 30
0.0
 10
11.1273
 20
10.267
 30
0.0
 10
11.1273
 20
10.267
 30
0.0
 10
11.1273
 20
10.267
 30
0.0
 10
11.1273
 20
10.267
 30
0.0
 10
4.4235
 20
10.267
 30
0.0
 10
4.4235
 20
10.267
 30
0.0
 10
4.4235
 20
10.267
 30
0.0
 10
4.4235
 20
10.267
 30
0.0
 10
4.0889
 20
10.267
 30
0.0
 10
4.0889
 20
10.267
 30
0.0
 10
4.0889
 20
10.267
 30
0.0
 10
4.0889
 20
10.267
 30
0.0
 10
4.068
 20
10.2737
 30
0.0
 10
4.068
 20
10.2737
 30
0.0
  0
SPLINE
  5
EC
330
1F
100
AcDbEntity
  8
DEFAULT_1
 62
   250
100
AcDbSpline
210
0.0
220
0.0
230
1.0
 70
     8
 71
     3
 72
    16
 73
    12
 74
     0
 42
0.0000000001
 43
0.0000000001
 40
0.0
 40
0.0
 40
0.0
 40
0.0
 40
0.25
 40
0.25
 40
0.25
 40
0.25
 40
0.5
 40
0.5
 40
0.5
 40
0.5
 40
1.0
 40
1.0
 40
1.0
 40
1.0
 10
11.7849
 20
9.7774
 30
0.0
 10
11.7572
 20
9.8094
 30
0.0
 10
11.7112
 20
9.8301
 30
0.0
 10
11.6784
 20
9.8574
 30
0.0
 10
11.6784
 20
9.8574
 30
0.0
 10
11.6056
 20
9.9179
 30
0.0
 10
11.5469
 20
9.9897
 30
0.0
 10
11.4978
 20
10.0704
 30
0.0
 10
11.4978
 20
10.0704
 30
0.0
 10
11.4759
 20
10.1065
 30
0.0
 10
11.4204
 20
10.1797
 30
0.0
 10
11.4858
 20
10.2035
 30
0.0
  0
SPLINE
  5
ED
330
1F
100
AcDbEntity
  8
DEFAULT_1
 62
   250
100
AcDbSpline
210
0.0
220
0.0
230
1.0
 70
     8
 71
     3
 72
     8
 73
     4
 74
     0
 42
0.0000000001
 43
0.0000000001
 40
0.0
 40
0.0
 40
0.0
 40
0.0
 40
1.0
 40
1.0
 40
1.0
 40
1.0
 10
13.4677
 20
10.4855
 30
0.0
 10
12.8125
 20
10.4969
 30
0.0
 10
12.1567
 20
10.4758
 30
0.0
 10
11.5015
 20
10.4872
 30
0.0
  0
SPLINE
  5
EE
330
1F
100
AcDbEntity
  8
DEFAULT_1
 62
   250
100
AcDbSpline
210
0.0
220
0.0
230
1.0
 70
    24
 71
     3
 72
     8
 73
     4
 74
     0
 42
0.0000000001
 43
0.0000000001
 40
0.0
 40
0.0
 40
0.0
 40
0.0
 40
1.0
 40
1.0
 40
1.0
 40
1.0
 10
11.5015
 20
10.4872
 30
0.0
 10
11.5015
 20
10.4872
 30
0.0
 10
11.4289
 20
10.4855
 30
0.0
 10
11.4289
 20
10.4855
 30
0.0
  0
SPLINE
  5
EF
330
1F
100
AcDbEntity
  8
DEFAULT_1
 62
   250
100
AcDbSpline
210
0.0
220
0.0
230
1.0
 70
     8
 71
     3
 72
     8
 73
     4
 74
     0
 42
0.0000000001
 43
0.0000000001
 40
0.0
 40
0.0
 40
0.0
 40
0.0
 40
1.0
 40
1.0
 40
1.0
 40
1.0
 10
4.0119
 20
10.1878
 30
0.0
 10
4.112
 20
10.0999
 30
0.0
 10
4.2988
 20
10.1567
 30
0.0
 10
4.3981
 20
10.1567
 30
0.0
  0
SPLINE
  5
F0
330
1F
100
AcDbEntity
  8
DEFAULT_1
 62
   250
100
AcDbSpline
210
0.0
220
0.0
230
1.0
 70
    24
 71
     3
 72
    12
 73
     8
 74
     0
 42
0.0000000001
 43
0.0000000001
 40
0.0
 40
0.0
 40
0.0
 40
0.0
 40
0.3333333333333333
 40
0.3333333333333333
 40
0.3333333333333333
 40
0.3333333333333333
 40
1.0
 40
1.0
 40
1.0
 40
1.0
 10
4.3981
 20
10.1567
 30
0.0
 10
4.3981
 20
10.1567
 30
0.0
 10
11.1178
 20
10.1567
 30
0.0
 10
11.1178
 20
10.1567
 30
0.0
 10
11.1178
 20
10.1567
 30
0.0
 10
11.1178
 20
10.1567
 30
0.0
 10
11.4526
 20
10.1567
 30
0.0
 10
11.4526
 20
10.1567
 30
0.0
  0
SPLINE
  5
F1
330
1F
100
AcDbEntity
  8
DEFAULT_1
 62
   250
100
AcDbSpline
210
0.0
220
0.0
230
1.0
 70
     8
 71
     3
 72
     8
 73
     4
 74
     0
 42
0.0000000001
 43
0.0000000001
 40
0.0
 40
0.0
 40
0.0
 40
0.0
 40
1.0
 40
1.0
 40
1.0
 40
1.0
 10
11.546
 20
10.1777
 30
0.0
 10
11.5586
 20
10.1806
 30
0.0
 10
11.5711
 20
10.1839
 30
0.0
 10
11.5834
 20
10.1878
 30
0.0
  0
SPLINE
  5
F2
330
1F
100
AcDbEntity
  8
DEFAULT_1
 62
   250
100
AcDbSpline
210
0.0
220
0.0
230
1.0
 70
     8
 71
     3
 72
    12
 73
     8
 74
     0
 42
0.0000000001
 43
0.0000000001
 40
0.0
 40
0.0
 40
0.0
 40
0.0
 40
0.3333333333333333
 40
0.3333333333333333
 40
0.3333333333333333
 40
0.3333333333333333
 40
1.0
 40
1.0
 40
1.0
 40
1.0
 10
-5.9566
 20
9.7628
 30
0.0
 10
-5.6518
 20
9.7759
 30
0.0
 10
-5.3791
 20
9.9459
 30
0.0
 10
-5.2684
 20
10.238
 30
0.0
 10
-5.2684
 20
10.238
 30
0.0
 10
-5.1986
 20
10.4218
 30
0.0
 10
-5.2181
 20
10.6305
 30
0.0
 10
-5.2148
 20
10.821
 30
0.0
  0
SPLINE
  5
F3
330
1F
100
AcDbEntity
  8
DEFAULT_1
 62
   250
100
AcDbSpline
210
0.0
220
0.0
230
1.0
 70
     8
 71
     3
 72
    12
 73
     8
 74
     0
 42
0.0000000001
 43
0.0000000001
 40
0.0
 40
0.0
 40
0.0
 40
0.0
 40
0.3333333333333333
 40
0.3333333333333333
 40
0.3333333333333333
 40
0.3333333333333333
 40
1.0
 40
1.0
 40
1.0
 40
1.0
 10
-5.2148
 20
10.821
 30
0.0
 10
-5.2148
 20
10.821
 30
0.0
 10
-5.1997
 20
11.6868
 30
0.0
 10
-5.1997
 20
11.6868
 30
0.0
 10
-5.1997
 20
11.6868
 30
0.0
 10
-5.1997
 20
11.6868
 30
0.0
 10
-5.1935
 20
12.0267
 30
0.0
 10
-5.1935
 20
12.0267
 30
0.0
  0
SPLINE
  5
F4
330
1F
100
AcDbEntity
  8
DEFAULT_1
 62
   250
100
AcDbSpline
210
0.0
220
0.0
230
1.0
 70
     8
 71
     3
 72
     8
 73
     4
 74
     0
 42
0.0000000001
 43
0.0000000001
 40
0.0
 40
0.0
 40
0.0
 40
0.0
 40
1.0
 40
1.0
 40
1.0
 40
1.0
 10
-5.1935
 20
12.0267
 30
0.0
 10
-5.1797
 20
12.0587
 30
0.0
 10
-5.1244
 20
12.0945
 30
0.0
 10
-5.0998
 20
12.0469
 30
0.0
  0
SPLINE
  5
F5
330
1F
100
AcDbEntity
  8
DEFAULT_1
 62
   250
100
AcDbSpline
210
0.0
220
0.0
230
1.0
 70
     8
 71
     3
 72
     8
 73
     4
 74
     0
 42
0.0000000001
 43
0.0000000001
 40
0.0
 40
0.0
 40
0.0
 40
0.0
 40
1.0
 40
1.0
 40
1.0
 40
1.0
 10
-5.09
 20
10.2203
 30
0.0
 10
-4.9906
 20
10.259
 30
0.0
 10
-5.0016
 20
10.3977
 30
0.0
 10
-4.9988
 20
10.4855
 30
0.0
  0
SPLINE
  5
F6
330
1F
100
AcDbEntity
  8
DEFAULT_1
 62
   250
100
AcDbSpline
210
0.0
220
0.0
230
1.0
 70
     8
 71
     3
 72
    12
 73
     8
 74
     0
 42
0.0000000001
 43
0.0000000001
 40
0.0
 40
0.0
 40
0.0
 40
0.0
 40
0.3333333333333333
 40
0.3333333333333333
 40
0.3333333333333333
 40
0.3333333333333333
 40
1.0
 40
1.0
 40
1.0
 40
1.0
 10
-4.9988
 20
10.4855
 30
0.0
 10
-4.9988
 20
10.4855
 30
0.0
 10
-4.9932
 20
10.8201
 30
0.0
 10
-4.9932
 20
10.8201
 30
0.0
 10
-4.9932
 20
10.8201
 30
0.0
 10
-4.9932
 20
10.8201
 30
0.0
 10
-4.9797
 20
11.632
 30
0.0
 10
-4.9797
 20
11.632
 30
0.0
  0
SPLINE
  5
F7
330
1F
100
AcDbEntity
  8
DEFAULT_1
 62
   250
100
AcDbSpline
210
0.0
220
0.0
230
1.0
 70
     8
 71
     3
 72
     8
 73
     4
 74
     0
 42
0.0000000001
 43
0.0000000001
 40
0.0
 40
0.0
 40
0.0
 40
0.0
 40
1.0
 40
1.0
 40
1.0
 40
1.0
 10
-4.9797
 20
11.632
 30
0.0
 10
-4.9785
 20
11.7081
 30
0.0
 10
-4.8833
 20
11.9954
 30
0.0
 10
-5.0379
 20
12.0202
 30
0.0
  0
SPLINE
  5
F8
330
1F
100
AcDbEntity
  8
DEFAULT_1
 62
   250
100
AcDbSpline
210
0.0
220
0.0
230
1.0
 70
     8
 71
     3
 72
    16
 73
    12
 74
     0
 42
0.0000000001
 43
0.0000000001
 40
0.0
 40
0.0
 40
0.0
 40
0.0
 40
0.25
 40
0.25
 40
0.25
 40
0.25
 40
0.5
 40
0.5
 40
0.5
 40
0.5
 40
1.0
 40
1.0
 40
1.0
 40
1.0
 10
-5.1486
 20
12.0721
 30
0.0
 10
-5.3325
 20
12.0887
 30
0.0
 10
-5.5199
 20
12.0846
 30
0.0
 10
-5.7042
 20
12.0876
 30
0.0
 10
-5.7042
 20
12.0876
 30
0.0
 10
-5.9984
 20
12.0923
 30
0.0
 10
-6.2925
 20
12.0953
 30
0.0
 10
-6.5866
 20
12.0957
 30
0.0
 10
-6.5866
 20
12.0957
 30
0.0
 10
-6.6648
 20
12.0955
 30
0.0
 10
-6.7504
 20
12.1035
 30
0.0
 10
-6.8282
 20
12.0919
 30
0.0
  0
SPLINE
  5
F9
330
1F
100
AcDbEntity
  8
DEFAULT_1
 62
   250
100
AcDbSpline
210
0.0
220
0.0
230
1.0
 70
     8
 71
     3
 72
     8
 73
     4
 74
     0
 42
0.0000000001
 43
0.0000000001
 40
0.0
 40
0.0
 40
0.0
 40
0.0
 40
1.0
 40
1.0
 40
1.0
 40
1.0
 10
-5.1535
 20
10.1894
 30
0.0
 10
-5.1387
 20
10.2558
 30
0.0
 10
-5.1115
 20
10.3145
 30
0.0
 10
-5.1018
 20
10.3837
 30
0.0
  0
SPLINE
  5
FA
330
1F
100
AcDbEntity
  8
DEFAULT_1
 62
   250
100
AcDbSpline
210
0.0
220
0.0
230
1.0
 70
     8
 71
     3
 72
    12
 73
     8
 74
     0
 42
0.0000000001
 43
0.0000000001
 40
0.0
 40
0.0
 40
0.0
 40
0.0
 40
0.3333333333333333
 40
0.3333333333333333
 40
0.3333333333333333
 40
0.3333333333333333
 40
1.0
 40
1.0
 40
1.0
 40
1.0
 10
-5.1018
 20
10.3837
 30
0.0
 10
-5.1018
 20
10.3837
 30
0.0
 10
-5.0933
 20
10.4864
 30
0.0
 10
-5.0933
 20
10.4864
 30
0.0
 10
-5.0933
 20
10.4864
 30
0.0
 10
-5.0933
 20
10.4864
 30
0.0
 10
-5.0878
 20
10.821
 30
0.0
 10
-5.0878
 20
10.821
 30
0.0
  0
SPLINE
  5
FB
330
1F
100
AcDbEntity
  8
DEFAULT_1
 62
   250
100
AcDbSpline
210
0.0
220
0.0
230
1.0
 70
     8
 71
     3
 72
    24
 73
    20
 74
     0
 42
0.0000000001
 43
0.0000000001
 40
0.0
 40
0.0
 40
0.0
 40
0.0
 40
0.1666666666666667
 40
0.1666666666666667
 40
0.1666666666666667
 40
0.1666666666666667
 40
0.3333333333333333
 40
0.3333333333333333
 40
0.3333333333333333
 40
0.3333333333333333
 40
0.5
 40
0.5
 40
0.5
 40
0.5
 40
0.6666666666666666
 40
0.6666666666666666
 40
0.6666666666666666
 40
0.6666666666666666
 40
1.0
 40
1.0
 40
1.0
 40
1.0
 10
-5.0878
 20
10.821
 30
0.0
 10
-5.0814
 20
11.2029
 30
0.0
 10
-5.0754
 20
11.5847
 30
0.0
 10
-5.0681
 20
11.9665
 30
0.0
 10
-5.0681
 20
11.9665
 30
0.0
 10
-5.1109
 20
11.9833
 30
0.0
 10
-5.1517
 20
12.0035
 30
0.0
 10
-5.1939
 20
12.0218
 30
0.0
 10
-5.1939
 20
12.0218
 30
0.0
 10
-5.2374
 20
12.0406
 30
0.0
 10
-5.316
 20
12.0288
 30
0.0
 10
-5.3617
 20
12.0303
 30
0.0
 10
-5.3617
 20
12.0303
 30
0.0
 10
-5.4816
 20
12.0339
 30
0.0
 10
-5.6016
 20
12.0363
 30
0.0
 10
-5.7215
 20
12.0384
 30
0.0
 10
-5.7215
 20
12.0384
 30
0.0
 10
-5.9982
 20
12.0429
 30
0.0
 10
-6.2749
 20
12.046
 30
0.0
 10
-6.5515
 20
12.0463
 30
0.0
  0
SPLINE
  5
FC
330
1F
100
AcDbEntity
  8
DEFAULT_1
 62
   250
100
AcDbSpline
210
0.0
220
0.0
230
1.0
 70
    24
 71
     3
 72
     8
 73
     4
 74
     0
 42
0.0000000001
 43
0.0000000001
 40
0.0
 40
0.0
 40
0.0
 40
0.0
 40
1.0
 40
1.0
 40
1.0
 40
1.0
 10
-6.5515
 20
12.0463
 30
0.0
 10
-6.5515
 20
12.0463
 30
0.0
 10
-6.7045
 20
12.0455
 30
0.0
 10
-6.7045
 20
12.0455
 30
0.0
  0
SPLINE
  5
FD
330
1F
100
AcDbEntity
  8
DEFAULT_1
 62
   250
100
AcDbSpline
210
0.0
220
0.0
230
1.0
 70
     8
 71
     3
 72
    12
 73
     8
 74
     0
 42
0.0000000001
 43
0.0000000001
 40
0.0
 40
0.0
 40
0.0
 40
0.0
 40
0.3333333333333333
 40
0.3333333333333333
 40
0.3333333333333333
 40
0.3333333333333333
 40
1.0
 40
1.0
 40
1.0
 40
1.0
 10
-6.7045
 20
12.0455
 30
0.0
 10
-6.7249
 20
12.0452
 30
0.0
 10
-6.7583
 20
12.0499
 30
0.0
 10
-6.7787
 20
12.0425
 30
0.0
 10
-6.7787
 20
12.0425
 30
0.0
 10
-6.8526
 20
12.0156
 30
0.0
 10
-6.9192
 20
11.9892
 30
0.0
 10
-6.9986
 20
11.9839
 30
0.0
  0
SPLINE
  5
FE
330
1F
100
AcDbEntity
  8
DEFAULT_1
 62
   250
100
AcDbSpline
210
0.0
220
0.0
230
1.0
 70
     8
 71
     3
 72
    16
 73
    12
 74
     0
 42
0.0000000001
 43
0.0000000001
 40
0.0
 40
0.0
 40
0.0
 40
0.0
 40
0.25
 40
0.25
 40
0.25
 40
0.25
 40
0.5
 40
0.5
 40
0.5
 40
0.5
 40
1.0
 40
1.0
 40
1.0
 40
1.0
 10
-6.9986
 20
11.9839
 30
0.0
 10
-6.9986
 20
11.9839
 30
0.0
 10
-7.0144
 20
11.984
 30
0.0
 10
-7.0144
 20
11.984
 30
0.0
 10
-7.0144
 20
11.984
 30
0.0
 10
-7.0144
 20
11.984
 30
0.0
 10
-7.0636
 20
11.983
 30
0.0
 10
-7.0636
 20
11.983
 30
0.0
 10
-7.0636
 20
11.983
 30
0.0
 10
-7.0636
 20
11.983
 30
0.0
 10
-8.6876
 20
12.0114
 30
0.0
 10
-8.6876
 20
12.0114
 30
0.0
  0
SPLINE
  5
FF
330
1F
100
AcDbEntity
  8
DEFAULT_1
 62
   250
100
AcDbSpline
210
0.0
220
0.0
230
1.0
 70
     8
 71
     3
 72
     8
 73
     4
 74
     0
 42
0.0000000001
 43
0.0000000001
 40
0.0
 40
0.0
 40
0.0
 40
0.0
 40
1.0
 40
1.0
 40
1.0
 40
1.0
 10
-6.7355
 20
9.9447
 30
0.0
 10
-6.8951
 20
10.0906
 30
0.0
 10
-6.9734
 20
10.2724
 30
0.0
 10
-6.9873
 20
10.4864
 30
0.0
  0
SPLINE
  5
100
330
1F
100
AcDbEntity
  8
DEFAULT_1
 62
   250
100
AcDbSpline
210
0.0
220
0.0
230
1.0
 70
     8
 71
     3
 72
    16
 73
    12
 74
     0
 42
0.0000000001
 43
0.0000000001
 40
0.0
 40
0.0
 40
0.0
 40
0.0
 40
0.25
 40
0.25
 40
0.25
 40
0.25
 40
0.5
 40
0.5
 40
0.5
 40
0.5
 40
1.0
 40
1.0
 40
1.0
 40
1.0
 10
-6.9873
 20
10.4864
 30
0.0
 10
-6.9873
 20
10.4864
 30
0.0
 10
-6.9931
 20
10.821
 30
0.0
 10
-6.9931
 20
10.821
 30
0.0
 10
-6.9931
 20
10.821
 30
0.0
 10
-6.9931
 20
10.821
 30
0.0
 10
-7.0076
 20
11.6492
 30
0.0
 10
-7.0076
 20
11.6492
 30
0.0
 10
-7.0076
 20
11.6492
 30
0.0
 10
-7.0076
 20
11.6492
 30
0.0
 10
-7.0137
 20
11.9884
 30
0.0
 10
-7.0137
 20
11.9884
 30
0.0
  0
SPLINE
  5
101
330
1F
100
AcDbEntity
  8
DEFAULT_1
 62
   250
100
AcDbSpline
210
0.0
220
0.0
230
1.0
 70
     8
 71
     3
 72
     8
 73
     4
 74
     0
 42
0.0000000001
 43
0.0000000001
 40
0.0
 40
0.0
 40
0.0
 40
0.0
 40
1.0
 40
1.0
 40
1.0
 40
1.0
 10
-7.0137
 20
11.9884
 30
0.0
 10
-7.0247
 20
12.0143
 30
0.0
 10
-7.03
 20
12.0311
 30
0.0
 10
-7.0627
 20
12.0333
 30
0.0
  0
SPLINE
  5
102
330
1F
100
AcDbEntity
  8
DEFAULT_1
 62
   250
100
AcDbSpline
210
0.0
220
0.0
230
1.0
 70
     8
 71
     3
 72
     8
 73
     4
 74
     0
 42
0.0000000001
 43
0.0000000001
 40
0.0
 40
0.0
 40
0.0
 40
0.0
 40
1.0
 40
1.0
 40
1.0
 40
1.0
 10
-6.3974
 20
9.7768
 30
0.0
 10
-6.4671
 20
9.7932
 30
0.0
 10
-6.5317
 20
9.816
 30
0.0
 10
-6.5958
 20
9.848
 30
0.0
  0
SPLINE
  5
103
330
1F
100
AcDbEntity
  8
DEFAULT_1
 62
   250
100
AcDbSpline
210
0.0
220
0.0
230
1.0
 70
     8
 71
     3
 72
     8
 73
     4
 74
     0
 42
0.0000000001
 43
0.0000000001
 40
0.0
 40
0.0
 40
0.0
 40
0.0
 40
1.0
 40
1.0
 40
1.0
 40
1.0
 10
-9.7972
 20
9.7628
 30
0.0
 10
-9.6972
 20
9.7684
 30
0.0
 10
-9.6055
 20
9.7877
 30
0.0
 10
-9.5151
 20
9.8324
 30
0.0
  0
SPLINE
  5
104
330
1F
100
AcDbEntity
  8
DEFAULT_1
 62
   250
100
AcDbSpline
210
0.0
220
0.0
230
1.0
 70
     8
 71
     3
 72
     8
 73
     4
 74
     0
 42
0.0000000001
 43
0.0000000001
 40
0.0
 40
0.0
 40
0.0
 40
0.0
 40
1.0
 40
1.0
 40
1.0
 40
1.0
 10
-6.7085
 20
9.9221
 30
0.0
 10
-6.6488
 20
9.877
 30
0.0
 10
-6.5869
 20
9.8412
 30
0.0
 10
-6.5179
 20
9.8121
 30
0.0
  0
SPLINE
  5
105
330
1F
100
AcDbEntity
  8
DEFAULT_1
 62
   250
100
AcDbSpline
210
0.0
220
0.0
230
1.0
 70
     8
 71
     3
 72
    12
 73
     8
 74
     0
 42
0.0000000001
 43
0.0000000001
 40
0.0
 40
0.0
 40
0.0
 40
0.0
 40
0.3333333333333333
 40
0.3333333333333333
 40
0.3333333333333333
 40
0.3333333333333333
 40
1.0
 40
1.0
 40
1.0
 40
1.0
 10
-7.0375
 20
10.4855
 30
0.0
 10
-6.5047
 20
10.4948
 30
0.0
 10
-5.9526
 20
10.4863
 30
0.0
 10
-5.428
 20
10.4863
 30
0.0
 10
-5.428
 20
10.4863
 30
0.0
 10
-5.302
 20
10.4863
 30
0.0
 10
-5.1375
 20
10.494
 30
0.0
 10
-4.9988
 20
10.4855
 30
0.0
  0
SPLINE
  5
106
330
1F
100
AcDbEntity
  8
DEFAULT_1
 62
   250
100
AcDbSpline
210
0.0
220
0.0
230
1.0
 70
     8
 71
     3
 72
     8
 73
     4
 74
     0
 42
0.0000000001
 43
0.0000000001
 40
0.0
 40
0.0
 40
0.0
 40
0.0
 40
1.0
 40
1.0
 40
1.0
 40
1.0
 10
-5.1468
 20
10.198
 30
0.0
 10
-5.1325
 20
10.2092
 30
0.0
 10
-5.1252
 20
10.2167
 30
0.0
 10
-5.107
 20
10.2168
 30
0.0
  0
SPLINE
  5
107
330
1F
100
AcDbEntity
  8
DEFAULT_1
 62
   250
100
AcDbSpline
210
0.0
220
0.0
230
1.0
 70
    24
 71
     3
 72
    16
 73
    12
 74
     0
 42
0.0000000001
 43
0.0000000001
 40
0.0
 40
0.0
 40
0.0
 40
0.0
 40
0.25
 40
0.25
 40
0.25
 40
0.25
 40
0.5
 40
0.5
 40
0.5
 40
0.5
 40
1.0
 40
1.0
 40
1.0
 40
1.0
 10
-5.107
 20
10.2168
 30
0.0
 10
-5.107
 20
10.2168
 30
0.0
 10
-4.7722
 20
10.2168
 30
0.0
 10
-4.7722
 20
10.2168
 30
0.0
 10
-4.7722
 20
10.2168
 30
0.0
 10
-4.7722
 20
10.2168
 30
0.0
 10
2.0383
 20
10.2168
 30
0.0
 10
2.0383
 20
10.2168
 30
0.0
 10
2.0383
 20
10.2168
 30
0.0
 10
2.0383
 20
10.2168
 30
0.0
 10
2.3729
 20
10.2168
 30
0.0
 10
2.3729
 20
10.2168
 30
0.0
  0
SPLINE
  5
108
330
1F
100
AcDbEntity
  8
DEFAULT_1
 62
   250
100
AcDbSpline
210
0.0
220
0.0
230
1.0
 70
     8
 71
     3
 72
     8
 73
     4
 74
     0
 42
0.0000000001
 43
0.0000000001
 40
0.0
 40
0.0
 40
0.0
 40
0.0
 40
1.0
 40
1.0
 40
1.0
 40
1.0
 10
2.3729
 20
10.2168
 30
0.0
 10
2.3979
 20
10.2168
 30
0.0
 10
2.4062
 20
10.2042
 30
0.0
 10
2.4183
 20
10.1878
 30
0.0
  0
SPLINE
  5
109
330
1F
100
AcDbEntity
  8
DEFAULT_1
 62
   250
100
AcDbSpline
210
0.0
220
0.0
230
1.0
 70
     8
 71
     3
 72
    20
 73
    16
 74
     0
 42
0.0000000001
 43
0.0000000001
 40
0.0
 40
0.0
 40
0.0
 40
0.0
 40
0.2
 40
0.2
 40
0.2
 40
0.2
 40
0.4
 40
0.4
 40
0.4
 40
0.4
 40
0.6
 40
0.6
 40
0.6
 40
0.6
 40
1.0
 40
1.0
 40
1.0
 40
1.0
 10
-5.0319
 20
10.267
 30
0.0
 10
-5.0319
 20
10.267
 30
0.0
 10
-4.6971
 20
10.267
 30
0.0
 10
-4.6971
 20
10.267
 30
0.0
 10
-4.6971
 20
10.267
 30
0.0
 10
-4.6971
 20
10.267
 30
0.0
 10
2.0066
 20
10.267
 30
0.0
 10
2.0066
 20
10.267
 30
0.0
 10
2.0066
 20
10.267
 30
0.0
 10
2.0066
 20
10.267
 30
0.0
 10
2.3413
 20
10.267
 30
0.0
 10
2.3413
 20
10.267
 30
0.0
 10
2.3413
 20
10.267
 30
0.0
 10
2.3413
 20
10.267
 30
0.0
 10
2.3622
 20
10.2737
 30
0.0
 10
2.3622
 20
10.2737
 30
0.0
  0
SPLINE
  5
10A
330
1F
100
AcDbEntity
  8
DEFAULT_1
 62
   250
100
AcDbSpline
210
0.0
220
0.0
230
1.0
 70
    24
 71
     3
 72
     8
 73
     4
 74
     0
 42
0.0000000001
 43
0.0000000001
 40
0.0
 40
0.0
 40
0.0
 40
0.0
 40
1.0
 40
1.0
 40
1.0
 40
1.0
 10
3.0707
 20
9.7628
 30
0.0
 10
3.0707
 20
9.7628
 30
0.0
 10
2.908
 20
9.7809
 30
0.0
 10
2.908
 20
9.7809
 30
0.0
  0
SPLINE
  5
10B
330
1F
100
AcDbEntity
  8
DEFAULT_1
 62
   250
100
AcDbSpline
210
0.0
220
0.0
230
1.0
 70
     8
 71
     3
 72
    28
 73
    24
 74
     0
 42
0.0000000001
 43
0.0000000001
 40
0.0
 40
0.0
 40
0.0
 40
0.0
 40
0.1428571428571428
 40
0.1428571428571428
 40
0.1428571428571428
 40
0.1428571428571428
 40
0.2857142857142857
 40
0.2857142857142857
 40
0.2857142857142857
 40
0.2857142857142857
 40
0.4285714285714285
 40
0.4285714285714285
 40
0.4285714285714285
 40
0.4285714285714285
 40
0.5714285714285714
 40
0.5714285714285714
 40
0.5714285714285714
 40
0.5714285714285714
 40
0.7142857142857143
 40
0.7142857142857143
 40
0.7142857142857143
 40
0.7142857142857143
 40
1.0
 40
1.0
 40
1.0
 40
1.0
 10
2.908
 20
9.7809
 30
0.0
 10
2.7811
 20
9.7975
 30
0.0
 10
2.6427
 20
9.8855
 30
0.0
 10
2.5537
 20
9.9739
 30
0.0
 10
2.5537
 20
9.9739
 30
0.0
 10
2.5023
 20
10.025
 30
0.0
 10
2.4757
 20
10.0612
 30
0.0
 10
2.4361
 20
10.1236
 30
0.0
 10
2.4361
 20
10.1236
 30
0.0
 10
2.4178
 20
10.1526
 30
0.0
 10
2.4061
 20
10.2057
 30
0.0
 10
2.3619
 20
10.2061
 30
0.0
 10
2.3619
 20
10.2061
 30
0.0
 10
-0.1151
 20
10.2277
 30
0.0
 10
-2.5926
 20
10.2061
 30
0.0
 10
-5.0698
 20
10.2061
 30
0.0
 10
-5.0698
 20
10.2061
 30
0.0
 10
-5.1303
 20
10.1957
 30
0.0
 10
-5.1471
 20
10.111
 30
0.0
 10
-5.1773
 20
10.0646
 30
0.0
 10
-5.1773
 20
10.0646
 30
0.0
 10
-5.2422
 20
9.9649
 30
0.0
 10
-5.3296
 20
9.8985
 30
0.0
 10
-5.422
 20
9.8266
 30
0.0
  0
SPLINE
  5
10C
330
1F
100
AcDbEntity
  8
DEFAULT_1
 62
   250
100
AcDbSpline
210
0.0
220
0.0
230
1.0
 70
    24
 71
     3
 72
     8
 73
     4
 74
     0
 42
0.0000000001
 43
0.0000000001
 40
0.0
 40
0.0
 40
0.0
 40
0.0
 40
1.0
 40
1.0
 40
1.0
 40
1.0
 10
-5.422
 20
9.8266
 30
0.0
 10
-5.422
 20
9.8266
 30
0.0
 10
-5.4149
 20
9.8323
 30
0.0
 10
-5.4149
 20
9.8323
 30
0.0
  0
SPLINE
  5
10D
330
1F
100
AcDbEntity
  8
DEFAULT_1
 62
   250
100
AcDbSpline
210
0.0
220
0.0
230
1.0
 70
     8
 71
     3
 72
    12
 73
     8
 74
     0
 42
0.0000000001
 43
0.0000000001
 40
0.0
 40
0.0
 40
0.0
 40
0.0
 40
0.3333333333333333
 40
0.3333333333333333
 40
0.3333333333333333
 40
0.3333333333333333
 40
1.0
 40
1.0
 40
1.0
 40
1.0
 10
-5.3547
 20
9.7774
 30
0.0
 10
-5.3421
 20
9.8023
 30
0.0
 10
-5.2946
 20
9.8209
 30
0.0
 10
-5.2733
 20
9.8373
 30
0.0
 10
-5.2733
 20
9.8373
 30
0.0
 10
-5.2012
 20
9.8931
 30
0.0
 10
-5.1387
 20
9.9596
 30
0.0
 10
-5.0882
 20
10.0358
 30
0.0
  0
SPLINE
  5
10E
330
1F
100
AcDbEntity
  8
DEFAULT_1
 62
   250
100
AcDbSpline
210
0.0
220
0.0
230
1.0
 70
     8
 71
     3
 72
    12
 73
     8
 74
     0
 42
0.0000000001
 43
0.0000000001
 40
0.0
 40
0.0
 40
0.0
 40
0.0
 40
0.3333333333333333
 40
0.3333333333333333
 40
0.3333333333333333
 40
0.3333333333333333
 40
1.0
 40
1.0
 40
1.0
 40
1.0
 10
-5.0882
 20
10.0358
 30
0.0
 10
-5.0882
 20
10.0358
 30
0.0
 10
-5.0542
 20
10.0923
 30
0.0
 10
-5.0542
 20
10.0923
 30
0.0
 10
-5.0542
 20
10.0923
 30
0.0
 10
-5.0542
 20
10.0923
 30
0.0
 10
-5.0224
 20
10.1567
 30
0.0
 10
-5.0224
 20
10.1567
 30
0.0
  0
SPLINE
  5
10F
330
1F
100
AcDbEntity
  8
DEFAULT_1
 62
   250
100
AcDbSpline
210
0.0
220
0.0
230
1.0
 70
     8
 71
     3
 72
     8
 73
     4
 74
     0
 42
0.0000000001
 43
0.0000000001
 40
0.0
 40
0.0
 40
0.0
 40
0.0
 40
1.0
 40
1.0
 40
1.0
 40
1.0
 10
-5.0224
 20
10.1567
 30
0.0
 10
-5.0031
 20
10.1989
 30
0.0
 10
-5.0897
 20
10.2102
 30
0.0
 10
-5.107
 20
10.2168
 30
0.0
  0
SPLINE
  5
110
330
1F
100
AcDbEntity
  8
DEFAULT_1
 62
   250
100
AcDbSpline
210
0.0
220
0.0
230
1.0
 70
    24
 71
     3
 72
    12
 73
     8
 74
     0
 42
0.0000000001
 43
0.0000000001
 40
0.0
 40
0.0
 40
0.0
 40
0.0
 40
0.3333333333333333
 40
0.3333333333333333
 40
0.3333333333333333
 40
0.3333333333333333
 40
1.0
 40
1.0
 40
1.0
 40
1.0
 10
-5.0224
 20
10.1567
 30
0.0
 10
-5.0224
 20
10.1567
 30
0.0
 10
-4.6876
 20
10.1567
 30
0.0
 10
-4.6876
 20
10.1567
 30
0.0
 10
-4.6876
 20
10.1567
 30
0.0
 10
-4.6876
 20
10.1567
 30
0.0
 10
2.032
 20
10.1567
 30
0.0
 10
2.032
 20
10.1567
 30
0.0
  0
SPLINE
  5
111
330
1F
100
AcDbEntity
  8
DEFAULT_1
 62
   250
100
AcDbSpline
210
0.0
220
0.0
230
1.0
 70
     8
 71
     3
 72
     8
 73
     4
 74
     0
 42
0.0000000001
 43
0.0000000001
 40
0.0
 40
0.0
 40
0.0
 40
0.0
 40
1.0
 40
1.0
 40
1.0
 40
1.0
 10
2.032
 20
10.1567
 30
0.0
 10
2.117
 20
10.1567
 30
0.0
 10
2.3184
 20
10.1001
 30
0.0
 10
2.4168
 20
10.1865
 30
0.0
  0
SPLINE
  5
112
330
1F
100
AcDbEntity
  8
DEFAULT_1
 62
   250
100
AcDbSpline
210
0.0
220
0.0
230
1.0
 70
     8
 71
     3
 72
    24
 73
    20
 74
     0
 42
0.0000000001
 43
0.0000000001
 40
0.0
 40
0.0
 40
0.0
 40
0.0
 40
0.1666666666666667
 40
0.1666666666666667
 40
0.1666666666666667
 40
0.1666666666666667
 40
0.3333333333333333
 40
0.3333333333333333
 40
0.3333333333333333
 40
0.3333333333333333
 40
0.5
 40
0.5
 40
0.5
 40
0.5
 40
0.6666666666666666
 40
0.6666666666666666
 40
0.6666666666666666
 40
0.6666666666666666
 40
1.0
 40
1.0
 40
1.0
 40
1.0
 10
2.3627
 20
10.2051
 30
0.0
 10
2.3679
 20
10.1906
 30
0.0
 10
2.3607
 20
10.1696
 30
0.0
 10
2.3668
 20
10.1567
 30
0.0
 10
2.3668
 20
10.1567
 30
0.0
 10
2.4662
 20
9.9446
 30
0.0
 10
2.6707
 20
9.7826
 30
0.0
 10
2.8995
 20
9.7327
 30
0.0
 10
2.8995
 20
9.7327
 30
0.0
 10
3.0469
 20
9.7005
 30
0.0
 10
3.2127
 20
9.7111
 30
0.0
 10
3.3587
 20
9.7135
 30
0.0
 10
3.3587
 20
9.7135
 30
0.0
 10
3.6547
 20
9.7183
 30
0.0
 10
3.9361
 20
9.8852
 30
0.0
 10
4.0635
 20
10.1567
 30
0.0
 10
4.0635
 20
10.1567
 30
0.0
 10
4.0692
 20
10.1688
 30
0.0
 10
4.0634
 20
10.1903
 30
0.0
 10
4.0671
 20
10.2042
 30
0.0
  0
SPLINE
  5
113
330
1F
100
AcDbEntity
  8
DEFAULT_1
 62
   250
100
AcDbSpline
210
0.0
220
0.0
230
1.0
 70
     8
 71
     3
 72
     8
 73
     4
 74
     0
 42
0.0000000001
 43
0.0000000001
 40
0.0
 40
0.0
 40
0.0
 40
0.0
 40
1.0
 40
1.0
 40
1.0
 40
1.0
 10
4.0603
 20
10.2237
 30
0.0
 10
4.1102
 20
10.3022
 30
0.0
 10
4.1216
 20
10.3917
 30
0.0
 10
4.1237
 20
10.4855
 30
0.0
  0
SPLINE
  5
114
330
1F
100
AcDbEntity
  8
DEFAULT_1
 62
   250
100
AcDbSpline
210
0.0
220
0.0
230
1.0
 70
     8
 71
     3
 72
    16
 73
    12
 74
     0
 42
0.0000000001
 43
0.0000000001
 40
0.0
 40
0.0
 40
0.0
 40
0.0
 40
0.25
 40
0.25
 40
0.25
 40
0.25
 40
0.5
 40
0.5
 40
0.5
 40
0.5
 40
1.0
 40
1.0
 40
1.0
 40
1.0
 10
4.1237
 20
10.4855
 30
0.0
 10
4.1237
 20
10.4855
 30
0.0
 10
4.1296
 20
10.8201
 30
0.0
 10
4.1296
 20
10.8201
 30
0.0
 10
4.1296
 20
10.8201
 30
0.0
 10
4.1296
 20
10.8201
 30
0.0
 10
4.1437
 20
11.6319
 30
0.0
 10
4.1437
 20
11.6319
 30
0.0
 10
4.1437
 20
11.6319
 30
0.0
 10
4.1437
 20
11.6319
 30
0.0
 10
4.1494
 20
11.9666
 30
0.0
 10
4.1494
 20
11.9666
 30
0.0
  0
SPLINE
  5
115
330
1F
100
AcDbEntity
  8
DEFAULT_1
 62
   250
100
AcDbSpline
210
0.0
220
0.0
230
1.0
 70
     8
 71
     3
 72
     8
 73
     4
 74
     0
 42
0.0000000001
 43
0.0000000001
 40
0.0
 40
0.0
 40
0.0
 40
0.0
 40
1.0
 40
1.0
 40
1.0
 40
1.0
 10
4.1494
 20
11.9666
 30
0.0
 10
4.1497
 20
11.9822
 30
0.0
 10
4.1492
 20
11.9983
 30
0.0
 10
4.1528
 20
12.0135
 30
0.0
  0
SPLINE
  5
116
330
1F
100
AcDbEntity
  8
DEFAULT_1
 62
   250
100
AcDbSpline
210
0.0
220
0.0
230
1.0
 70
     8
 71
     3
 72
     8
 73
     4
 74
     0
 42
0.0000000001
 43
0.0000000001
 40
0.0
 40
0.0
 40
0.0
 40
0.0
 40
1.0
 40
1.0
 40
1.0
 40
1.0
 10
11.4971
 20
11.9663
 30
0.0
 10
11.4938
 20
11.9667
 30
0.0
 10
11.4908
 20
11.9673
 30
0.0
 10
11.4877
 20
11.9683
 30
0.0
  0
SPLINE
  5
117
330
1F
100
AcDbEntity
  8
DEFAULT_1
 62
   250
100
AcDbSpline
210
0.0
220
0.0
230
1.0
 70
     8
 71
     3
 72
    32
 73
    28
 74
     0
 42
0.0000000001
 43
0.0000000001
 40
0.0
 40
0.0
 40
0.0
 40
0.0
 40
0.125
 40
0.125
 40
0.125
 40
0.125
 40
0.25
 40
0.25
 40
0.25
 40
0.25
 40
0.375
 40
0.375
 40
0.375
 40
0.375
 40
0.5
 40
0.5
 40
0.5
 40
0.5
 40
0.625
 40
0.625
 40
0.625
 40
0.625
 40
0.75
 40
0.75
 40
0.75
 40
0.75
 40
1.0
 40
1.0
 40
1.0
 40
1.0
 10
11.4877
 20
11.9683
 30
0.0
 10
11.4877
 20
11.9683
 30
0.0
 10
11.4807
 20
11.9681
 30
0.0
 10
11.4807
 20
11.9681
 30
0.0
 10
11.4807
 20
11.9681
 30
0.0
 10
11.4807
 20
11.9681
 30
0.0
 10
11.4678
 20
11.9683
 30
0.0
 10
11.4678
 20
11.9683
 30
0.0
 10
11.4678
 20
11.9683
 30
0.0
 10
11.4678
 20
11.9683
 30
0.0
 10
11.4645
 20
11.9683
 30
0.0
 10
11.4645
 20
11.9683
 30
0.0
 10
11.4645
 20
11.9683
 30
0.0
 10
11.4645
 20
11.9683
 30
0.0
 10
11.4445
 20
11.9692
 30
0.0
 10
11.4445
 20
11.9692
 30
0.0
 10
11.4445
 20
11.9692
 30
0.0
 10
11.4445
 20
11.9692
 30
0.0
 10
11.428
 20
11.9677
 30
0.0
 10
11.428
 20
11.9677
 30
0.0
 10
11.428
 20
11.9677
 30
0.0
 10
11.428
 20
11.9677
 30
0.0
 10
11.4166
 20
11.9696
 30
0.0
 10
11.4166
 20
11.9696
 30
0.0
 10
11.4166
 20
11.9696
 30
0.0
 10
11.4166
 20
11.9696
 30
0.0
 10
11.4044
 20
11.9666
 30
0.0
 10
11.4044
 20
11.9666
 30
0.0
  0
SPLINE
  5
118
330
1F
100
AcDbEntity
  8
DEFAULT_1
 62
   250
100
AcDbSpline
210
0.0
220
0.0
230
1.0
 70
     8
 71
     3
 72
     8
 73
     4
 74
     0
 42
0.0000000001
 43
0.0000000001
 40
0.0
 40
0.0
 40
0.0
 40
0.0
 40
1.0
 40
1.0
 40
1.0
 40
1.0
 10
11.4044
 20
11.9666
 30
0.0
 10
8.9861
 20
11.9666
 30
0.0
 10
6.5678
 20
11.9618
 30
0.0
 10
4.1494
 20
11.9666
 30
0.0
  0
SPLINE
  5
119
330
1F
100
AcDbEntity
  8
DEFAULT_1
 62
   250
100
AcDbSpline
210
0.0
220
0.0
230
1.0
 70
    24
 71
     3
 72
     8
 73
     4
 74
     0
 42
0.0000000001
 43
0.0000000001
 40
0.0
 40
0.0
 40
0.0
 40
0.0
 40
1.0
 40
1.0
 40
1.0
 40
1.0
 10
4.1494
 20
11.9666
 30
0.0
 10
4.1494
 20
11.9666
 30
0.0
 10
4.1043
 20
11.9675
 30
0.0
 10
4.1043
 20
11.9675
 30
0.0
  0
SPLINE
  5
11A
330
1F
100
AcDbEntity
  8
DEFAULT_1
 62
   250
100
AcDbSpline
210
0.0
220
0.0
230
1.0
 70
     8
 71
     3
 72
    20
 73
    16
 74
     0
 42
0.0000000001
 43
0.0000000001
 40
0.0
 40
0.0
 40
0.0
 40
0.0
 40
0.2
 40
0.2
 40
0.2
 40
0.2
 40
0.4
 40
0.4
 40
0.4
 40
0.4
 40
0.6
 40
0.6
 40
0.6
 40
0.6
 40
1.0
 40
1.0
 40
1.0
 40
1.0
 10
4.1043
 20
11.9675
 30
0.0
 10
4.0633
 20
11.9877
 30
0.0
 10
4.0346
 20
12.0318
 30
0.0
 10
3.9866
 20
12.0354
 30
0.0
 10
3.9866
 20
12.0354
 30
0.0
 10
3.7309
 20
12.0544
 30
0.0
 10
3.4712
 20
12.046
 30
0.0
 10
3.215
 20
12.0463
 30
0.0
 10
3.215
 20
12.0463
 30
0.0
 10
2.9589
 20
12.046
 30
0.0
 10
2.6993
 20
12.0544
 30
0.0
 10
2.4436
 20
12.0354
 30
0.0
 10
2.4436
 20
12.0354
 30
0.0
 10
2.3947
 20
12.0318
 30
0.0
 10
2.3687
 20
11.9754
 30
0.0
 10
2.3258
 20
11.9674
 30
0.0
  0
SPLINE
  5
11B
330
1F
100
AcDbEntity
  8
DEFAULT_1
 62
   250
100
AcDbSpline
210
0.0
220
0.0
230
1.0
 70
     8
 71
     3
 72
    52
 73
    48
 74
     0
 42
0.0000000001
 43
0.0000000001
 40
0.0
 40
0.0
 40
0.0
 40
0.0
 40
0.0769230769230769
 40
0.0769230769230769
 40
0.0769230769230769
 40
0.0769230769230769
 40
0.1538461538461539
 40
0.1538461538461539
 40
0.1538461538461539
 40
0.1538461538461539
 40
0.2307692307692308
 40
0.2307692307692308
 40
0.2307692307692308
 40
0.2307692307692308
 40
0.3076923076923077
 40
0.3076923076923077
 40
0.3076923076923077
 40
0.3076923076923077
 40
0.3846153846153846
 40
0.3846153846153846
 40
0.3846153846153846
 40
0.3846153846153846
 40
0.4615384615384616
 40
0.4615384615384616
 40
0.4615384615384616
 40
0.4615384615384616
 40
0.5384615384615384
 40
0.5384615384615384
 40
0.5384615384615384
 40
0.5384615384615384
 40
0.6153846153846154
 40
0.6153846153846154
 40
0.6153846153846154
 40
0.6153846153846154
 40
0.6923076923076923
 40
0.6923076923076923
 40
0.6923076923076923
 40
0.6923076923076923
 40
0.7692307692307693
 40
0.7692307692307693
 40
0.7692307692307693
 40
0.7692307692307693
 40
0.8461538461538461
 40
0.8461538461538461
 40
0.8461538461538461
 40
0.8461538461538461
 40
1.0
 40
1.0
 40
1.0
 40
1.0
 10
2.3258
 20
11.9674
 30
0.0
 10
2.3258
 20
11.9674
 30
0.0
 10
2.2807
 20
11.9666
 30
0.0
 10
2.2807
 20
11.9666
 30
0.0
 10
2.2807
 20
11.9666
 30
0.0
 10
2.2807
 20
11.9666
 30
0.0
 10
1.9459
 20
11.9666
 30
0.0
 10
1.9459
 20
11.9666
 30
0.0
 10
1.9459
 20
11.9666
 30
0.0
 10
1.9459
 20
11.9666
 30
0.0
 10
-4.6395
 20
11.9666
 30
0.0
 10
-4.6395
 20
11.9666
 30
0.0
 10
-4.6395
 20
11.9666
 30
0.0
 10
-4.6395
 20
11.9666
 30
0.0
 10
-4.9742
 20
11.9666
 30
0.0
 10
-4.9742
 20
11.9666
 30
0.0
 10
-4.9742
 20
11.9666
 30
0.0
 10
-4.9742
 20
11.9666
 30
0.0
 10
-4.9865
 20
11.9697
 30
0.0
 10
-4.9865
 20
11.9697
 30
0.0
 10
-4.9865
 20
11.9697
 30
0.0
 10
-4.9865
 20
11.9697
 30
0.0
 10
-4.9979
 20
11.9678
 30
0.0
 10
-4.9979
 20
11.9678
 30
0.0
 10
-4.9979
 20
11.9678
 30
0.0
 10
-4.9979
 20
11.9678
 30
0.0
 10
-5.0141
 20
11.9693
 30
0.0
 10
-5.0141
 20
11.9693
 30
0.0
 10
-5.0141
 20
11.9693
 30
0.0
 10
-5.0141
 20
11.9693
 30
0.0
 10
-5.0342
 20
11.9684
 30
0.0
 10
-5.0342
 20
11.9684
 30
0.0
 10
-5.0342
 20
11.9684
 30
0.0
 10
-5.0342
 20
11.9684
 30
0.0
 10
-5.0377
 20
11.9684
 30
0.0
 10
-5.0377
 20
11.9684
 30
0.0
 10
-5.0377
 20
11.9684
 30
0.0
 10
-5.0377
 20
11.9684
 30
0.0
 10
-5.0504
 20
11.9681
 30
0.0
 10
-5.0504
 20
11.9681
 30
0.0
 10
-5.0504
 20
11.9681
 30
0.0
 10
-5.0504
 20
11.9681
 30
0.0
 10
-5.0575
 20
11.9683
 30
0.0
 10
-5.0575
 20
11.9683
 30
0.0
 10
-5.0575
 20
11.9683
 30
0.0
 10
-5.0575
 20
11.9683
 30
0.0
 10
-5.0663
 20
11.9663
 30
0.0
 10
-5.0663
 20
11.9663
 30
0.0
  0
SPLINE
  5
11C
330
1F
100
AcDbEntity
  8
DEFAULT_1
 62
   250
100
AcDbSpline
210
0.0
220
0.0
230
1.0
 70
     8
 71
     3
 72
     8
 73
     4
 74
     0
 42
0.0000000001
 43
0.0000000001
 40
0.0
 40
0.0
 40
0.0
 40
0.0
 40
1.0
 40
1.0
 40
1.0
 40
1.0
 10
2.389
 20
10.2678
 30
0.0
 10
2.3316
 20
10.4441
 30
0.0
 10
2.349
 20
10.641
 30
0.0
 10
2.3459
 20
10.821
 30
0.0
  0
SPLINE
  5
11D
330
1F
100
AcDbEntity
  8
DEFAULT_1
 62
   250
100
AcDbSpline
210
0.0
220
0.0
230
1.0
 70
     8
 71
     3
 72
    12
 73
     8
 74
     0
 42
0.0000000001
 43
0.0000000001
 40
0.0
 40
0.0
 40
0.0
 40
0.0
 40
0.3333333333333333
 40
0.3333333333333333
 40
0.3333333333333333
 40
0.3333333333333333
 40
1.0
 40
1.0
 40
1.0
 40
1.0
 10
2.3459
 20
10.821
 30
0.0
 10
2.3459
 20
10.821
 30
0.0
 10
2.3317
 20
11.6328
 30
0.0
 10
2.3317
 20
11.6328
 30
0.0
 10
2.3317
 20
11.6328
 30
0.0
 10
2.3317
 20
11.6328
 30
0.0
 10
2.3258
 20
11.9675
 30
0.0
 10
2.3258
 20
11.9675
 30
0.0
  0
SPLINE
  5
11E
330
1F
100
AcDbEntity
  8
DEFAULT_1
 62
   250
100
AcDbSpline
210
0.0
220
0.0
230
1.0
 70
     8
 71
     3
 72
     8
 73
     4
 74
     0
 42
0.0000000001
 43
0.0000000001
 40
0.0
 40
0.0
 40
0.0
 40
0.0
 40
1.0
 40
1.0
 40
1.0
 40
1.0
 10
2.3258
 20
11.9675
 30
0.0
 10
2.3253
 20
11.9996
 30
0.0
 10
2.3052
 20
12.0064
 30
0.0
 10
2.2806
 20
12.0165
 30
0.0
  0
SPLINE
  5
11F
330
1F
100
AcDbEntity
  8
DEFAULT_1
 62
   250
100
AcDbSpline
210
0.0
220
0.0
230
1.0
 70
     8
 71
     3
 72
    16
 73
    12
 74
     0
 42
0.0000000001
 43
0.0000000001
 40
0.0
 40
0.0
 40
0.0
 40
0.0
 40
0.25
 40
0.25
 40
0.25
 40
0.25
 40
0.5
 40
0.5
 40
0.5
 40
0.5
 40
1.0
 40
1.0
 40
1.0
 40
1.0
 10
2.2806
 20
12.0165
 30
0.0
 10
2.2806
 20
12.0165
 30
0.0
 10
1.941
 20
12.0168
 30
0.0
 10
1.941
 20
12.0168
 30
0.0
 10
1.941
 20
12.0168
 30
0.0
 10
1.941
 20
12.0168
 30
0.0
 10
-4.683
 20
12.0168
 30
0.0
 10
-4.683
 20
12.0168
 30
0.0
 10
-4.683
 20
12.0168
 30
0.0
 10
-4.683
 20
12.0168
 30
0.0
 10
-5.0177
 20
12.0168
 30
0.0
 10
-5.0177
 20
12.0168
 30
0.0
  0
SPLINE
  5
120
330
1F
100
AcDbEntity
  8
DEFAULT_1
 62
   250
100
AcDbSpline
210
0.0
220
0.0
230
1.0
 70
     8
 71
     3
 72
     8
 73
     4
 74
     0
 42
0.0000000001
 43
0.0000000001
 40
0.0
 40
0.0
 40
0.0
 40
0.0
 40
1.0
 40
1.0
 40
1.0
 40
1.0
 10
-5.0177
 20
12.0168
 30
0.0
 10
-5.0463
 20
12.0158
 30
0.0
 10
-5.0667
 20
11.9961
 30
0.0
 10
-5.0686
 20
11.9676
 30
0.0
  0
SPLINE
  5
121
330
1F
100
AcDbEntity
  8
DEFAULT_1
 62
   250
100
AcDbSpline
210
0.0
220
0.0
230
1.0
 70
     8
 71
     3
 72
     8
 73
     4
 74
     0
 42
0.0000000001
 43
0.0000000001
 40
0.0
 40
0.0
 40
0.0
 40
0.0
 40
1.0
 40
1.0
 40
1.0
 40
1.0
 10
-5.0998
 20
12.0469
 30
0.0
 10
-5.079
 20
12.0411
 30
0.0
 10
-5.0621
 20
12.0288
 30
0.0
 10
-5.041
 20
12.025
 30
0.0
  0
SPLINE
  5
122
330
1F
100
AcDbEntity
  8
DEFAULT_1
 62
   250
100
AcDbSpline
210
0.0
220
0.0
230
1.0
 70
     8
 71
     3
 72
     8
 73
     4
 74
     0
 42
0.0000000001
 43
0.0000000001
 40
0.0
 40
0.0
 40
0.0
 40
0.0
 40
1.0
 40
1.0
 40
1.0
 40
1.0
 10
2.4183
 20
10.1878
 30
0.0
 10
2.4114
 20
10.2102
 30
0.0
 10
2.4016
 20
10.2318
 30
0.0
 10
2.3937
 20
10.2539
 30
0.0
  0
SPLINE
  5
123
330
1F
100
AcDbEntity
  8
DEFAULT_1
 62
   250
100
AcDbSpline
210
0.0
220
0.0
230
1.0
 70
     8
 71
     3
 72
     8
 73
     4
 74
     0
 42
0.0000000001
 43
0.0000000001
 40
0.0
 40
0.0
 40
0.0
 40
0.0
 40
1.0
 40
1.0
 40
1.0
 40
1.0
 10
2.3733
 20
10.2173
 30
0.0
 10
2.3689
 20
10.2271
 30
0.0
 10
2.3619
 20
10.2356
 30
0.0
 10
2.356
 20
10.2444
 30
0.0
  0
SPLINE
  5
124
330
1F
100
AcDbEntity
  8
DEFAULT_1
 62
   250
100
AcDbSpline
210
0.0
220
0.0
230
1.0
 70
     8
 71
     3
 72
    16
 73
    12
 74
     0
 42
0.0000000001
 43
0.0000000001
 40
0.0
 40
0.0
 40
0.0
 40
0.0
 40
0.25
 40
0.25
 40
0.25
 40
0.25
 40
0.5
 40
0.5
 40
0.5
 40
0.5
 40
1.0
 40
1.0
 40
1.0
 40
1.0
 10
2.4164
 20
12.0561
 30
0.0
 10
2.4164
 20
12.0561
 30
0.0
 10
2.4227
 20
12.0324
 30
0.0
 10
2.4227
 20
12.0324
 30
0.0
 10
2.4227
 20
12.0324
 30
0.0
 10
2.4227
 20
12.0324
 30
0.0
 10
2.4286
 20
11.6978
 30
0.0
 10
2.4286
 20
11.6978
 30
0.0
 10
2.4286
 20
11.6978
 30
0.0
 10
2.4286
 20
11.6978
 30
0.0
 10
2.4438
 20
10.821
 30
0.0
 10
2.4438
 20
10.821
 30
0.0
  0
SPLINE
  5
125
330
1F
100
AcDbEntity
  8
DEFAULT_1
 62
   250
100
AcDbSpline
210
0.0
220
0.0
230
1.0
 70
     8
 71
     3
 72
    12
 73
     8
 74
     0
 42
0.0000000001
 43
0.0000000001
 40
0.0
 40
0.0
 40
0.0
 40
0.0
 40
0.3333333333333333
 40
0.3333333333333333
 40
0.3333333333333333
 40
0.3333333333333333
 40
1.0
 40
1.0
 40
1.0
 40
1.0
 10
2.4438
 20
10.821
 30
0.0
 10
2.4467
 20
10.658
 30
0.0
 10
2.4307
 20
10.4634
 30
0.0
 10
2.4775
 20
10.2982
 30
0.0
 10
2.4775
 20
10.2982
 30
0.0
 10
2.5692
 20
9.975
 30
0.0
 10
2.8585
 20
9.7769
 30
0.0
 10
3.1857
 20
9.7628
 30
0.0
  0
SPLINE
  5
126
330
1F
100
AcDbEntity
  8
DEFAULT_1
 62
   250
100
AcDbSpline
210
0.0
220
0.0
230
1.0
 70
     8
 71
     3
 72
    12
 73
     8
 74
     0
 42
0.0000000001
 43
0.0000000001
 40
0.0
 40
0.0
 40
0.0
 40
0.0
 40
0.3333333333333333
 40
0.3333333333333333
 40
0.3333333333333333
 40
0.3333333333333333
 40
1.0
 40
1.0
 40
1.0
 40
1.0
 10
3.2445
 20
9.7628
 30
0.0
 10
3.5717
 20
9.7769
 30
0.0
 10
3.8611
 20
9.975
 30
0.0
 10
3.9527
 20
10.2982
 30
0.0
 10
3.9527
 20
10.2982
 30
0.0
 10
3.9995
 20
10.4634
 30
0.0
 10
3.9835
 20
10.6579
 30
0.0
 10
3.9863
 20
10.821
 30
0.0
  0
SPLINE
  5
127
330
1F
100
AcDbEntity
  8
DEFAULT_1
 62
   250
100
AcDbSpline
210
0.0
220
0.0
230
1.0
 70
     8
 71
     3
 72
    16
 73
    12
 74
     0
 42
0.0000000001
 43
0.0000000001
 40
0.0
 40
0.0
 40
0.0
 40
0.0
 40
0.25
 40
0.25
 40
0.25
 40
0.25
 40
0.5
 40
0.5
 40
0.5
 40
0.5
 40
1.0
 40
1.0
 40
1.0
 40
1.0
 10
3.9863
 20
10.821
 30
0.0
 10
3.9863
 20
10.821
 30
0.0
 10
4.0017
 20
11.6978
 30
0.0
 10
4.0017
 20
11.6978
 30
0.0
 10
4.0017
 20
11.6978
 30
0.0
 10
4.0017
 20
11.6978
 30
0.0
 10
4.0075
 20
12.0324
 30
0.0
 10
4.0075
 20
12.0324
 30
0.0
 10
4.0075
 20
12.0324
 30
0.0
 10
4.0075
 20
12.0324
 30
0.0
 10
4.0139
 20
12.0561
 30
0.0
 10
4.0139
 20
12.0561
 30
0.0
  0
SPLINE
  5
128
330
1F
100
AcDbEntity
  8
DEFAULT_1
 62
   250
100
AcDbSpline
210
0.0
220
0.0
230
1.0
 70
    24
 71
     3
 72
     8
 73
     4
 74
     0
 42
0.0000000001
 43
0.0000000001
 40
0.0
 40
0.0
 40
0.0
 40
0.0
 40
1.0
 40
1.0
 40
1.0
 40
1.0
 10
2.2758
 20
12.0168
 30
0.0
 10
2.2758
 20
12.0168
 30
0.0
 10
2.3725
 20
12.0818
 30
0.0
 10
2.3725
 20
12.0818
 30
0.0
  0
SPLINE
  5
129
330
1F
100
AcDbEntity
  8
DEFAULT_1
 62
   250
100
AcDbSpline
210
0.0
220
0.0
230
1.0
 70
     8
 71
     3
 72
    28
 73
    24
 74
     0
 42
0.0000000001
 43
0.0000000001
 40
0.0
 40
0.0
 40
0.0
 40
0.0
 40
0.1428571428571428
 40
0.1428571428571428
 40
0.1428571428571428
 40
0.1428571428571428
 40
0.2857142857142857
 40
0.2857142857142857
 40
0.2857142857142857
 40
0.2857142857142857
 40
0.4285714285714285
 40
0.4285714285714285
 40
0.4285714285714285
 40
0.4285714285714285
 40
0.5714285714285714
 40
0.5714285714285714
 40
0.5714285714285714
 40
0.5714285714285714
 40
0.7142857142857143
 40
0.7142857142857143
 40
0.7142857142857143
 40
0.7142857142857143
 40
1.0
 40
1.0
 40
1.0
 40
1.0
 10
2.3725
 20
12.0818
 30
0.0
 10
2.389
 20
12.0923
 30
0.0
 10
2.4508
 20
12.0875
 30
0.0
 10
2.4656
 20
12.088
 30
0.0
 10
2.4656
 20
12.088
 30
0.0
 10
2.5548
 20
12.091
 30
0.0
 10
2.6439
 20
12.0921
 30
0.0
 10
2.7331
 20
12.0931
 30
0.0
 10
2.7331
 20
12.0931
 30
0.0
 10
3.0252
 20
12.0965
 30
0.0
 10
3.3174
 20
12.0967
 30
0.0
 10
3.6095
 20
12.094
 30
0.0
 10
3.6095
 20
12.094
 30
0.0
 10
3.7121
 20
12.093
 30
0.0
 10
3.8146
 20
12.0923
 30
0.0
 10
3.9171
 20
12.0894
 30
0.0
 10
3.9171
 20
12.0894
 30
0.0
 10
3.9458
 20
12.0886
 30
0.0
 10
4.0289
 20
12.1002
 30
0.0
 10
4.0576
 20
12.0818
 30
0.0
 10
4.0576
 20
12.0818
 30
0.0
 10
4.2555
 20
11.9546
 30
0.0
 10
4.0917
 20
12.0168
 30
0.0
 10
4.4892
 20
12.0168
 30
0.0
  0
SPLINE
  5
12A
330
1F
100
AcDbEntity
  8
DEFAULT_1
 62
   250
100
AcDbSpline
210
0.0
220
0.0
230
1.0
 70
     8
 71
     3
 72
    12
 73
     8
 74
     0
 42
0.0000000001
 43
0.0000000001
 40
0.0
 40
0.0
 40
0.0
 40
0.0
 40
0.3333333333333333
 40
0.3333333333333333
 40
0.3333333333333333
 40
0.3333333333333333
 40
1.0
 40
1.0
 40
1.0
 40
1.0
 10
4.4892
 20
12.0168
 30
0.0
 10
4.4892
 20
12.0168
 30
0.0
 10
11.1132
 20
12.0168
 30
0.0
 10
11.1132
 20
12.0168
 30
0.0
 10
11.1132
 20
12.0168
 30
0.0
 10
11.1132
 20
12.0168
 30
0.0
 10
11.453
 20
12.0166
 30
0.0
 10
11.453
 20
12.0166
 30
0.0
  0
SPLINE
  5
12B
330
1F
100
AcDbEntity
  8
DEFAULT_1
 62
   250
100
AcDbSpline
210
0.0
220
0.0
230
1.0
 70
     8
 71
     3
 72
     8
 73
     4
 74
     0
 42
0.0000000001
 43
0.0000000001
 40
0.0
 40
0.0
 40
0.0
 40
0.0
 40
1.0
 40
1.0
 40
1.0
 40
1.0
 10
11.453
 20
12.0166
 30
0.0
 10
11.4794
 20
12.0061
 30
0.0
 10
11.4966
 20
12.0003
 30
0.0
 10
11.4989
 20
11.9676
 30
0.0
  0
SPLINE
  5
12C
330
1F
100
AcDbEntity
  8
DEFAULT_1
 62
   250
100
AcDbSpline
210
0.0
220
0.0
230
1.0
 70
     8
 71
     3
 72
     8
 73
     4
 74
     0
 42
0.0000000001
 43
0.0000000001
 40
0.0
 40
0.0
 40
0.0
 40
0.0
 40
1.0
 40
1.0
 40
1.0
 40
1.0
 10
11.4709
 20
12.0249
 30
0.0
 10
11.4922
 20
12.0288
 30
0.0
 10
11.5091
 20
12.0411
 30
0.0
 10
11.5301
 20
12.0469
 30
0.0
  0
SPLINE
  5
12D
330
1F
100
AcDbEntity
  8
DEFAULT_1
 62
   250
100
AcDbSpline
210
0.0
220
0.0
230
1.0
 70
     8
 71
     3
 72
     8
 73
     4
 74
     0
 42
0.0000000001
 43
0.0000000001
 40
0.0
 40
0.0
 40
0.0
 40
0.0
 40
1.0
 40
1.0
 40
1.0
 40
1.0
 10
4.1545
 20
12.0168
 30
0.0
 10
4.1219
 20
12.0151
 30
0.0
 10
4.116
 20
11.9982
 30
0.0
 10
4.1047
 20
11.9723
 30
0.0
  0
SPLINE
  5
12E
330
1F
100
AcDbEntity
  8
DEFAULT_1
 62
   250
100
AcDbSpline
210
0.0
220
0.0
230
1.0
 70
     8
 71
     3
 72
    12
 73
     8
 74
     0
 42
0.0000000001
 43
0.0000000001
 40
0.0
 40
0.0
 40
0.0
 40
0.0
 40
0.3333333333333333
 40
0.3333333333333333
 40
0.3333333333333333
 40
0.3333333333333333
 40
1.0
 40
1.0
 40
1.0
 40
1.0
 10
4.1047
 20
11.9723
 30
0.0
 10
4.1047
 20
11.9723
 30
0.0
 10
4.0985
 20
11.6329
 30
0.0
 10
4.0985
 20
11.6329
 30
0.0
 10
4.0985
 20
11.6329
 30
0.0
 10
4.0985
 20
11.6329
 30
0.0
 10
4.0843
 20
10.821
 30
0.0
 10
4.0843
 20
10.821
 30
0.0
  0
SPLINE
  5
12F
330
1F
100
AcDbEntity
  8
DEFAULT_1
 62
   250
100
AcDbSpline
210
0.0
220
0.0
230
1.0
 70
     8
 71
     3
 72
     8
 73
     4
 74
     0
 42
0.0000000001
 43
0.0000000001
 40
0.0
 40
0.0
 40
0.0
 40
0.0
 40
1.0
 40
1.0
 40
1.0
 40
1.0
 10
4.0843
 20
10.821
 30
0.0
 10
4.0811
 20
10.6401
 30
0.0
 10
4.0974
 20
10.4443
 30
0.0
 10
4.0411
 20
10.2677
 30
0.0
  0
SPLINE
  5
130
330
1F
100
AcDbEntity
  8
DEFAULT_1
 62
   250
100
AcDbSpline
210
0.0
220
0.0
230
1.0
 70
     8
 71
     3
 72
     8
 73
     4
 74
     0
 42
0.0000000001
 43
0.0000000001
 40
0.0
 40
0.0
 40
0.0
 40
0.0
 40
1.0
 40
1.0
 40
1.0
 40
1.0
 10
4.0366
 20
10.2542
 30
0.0
 10
4.0288
 20
10.2322
 30
0.0
 10
4.0178
 20
10.2104
 30
0.0
 10
4.0119
 20
10.1878
 30
0.0
  0
SPLINE
  5
131
330
1F
100
AcDbEntity
  8
DEFAULT_1
 62
   250
100
AcDbSpline
210
0.0
220
0.0
230
1.0
 70
     8
 71
     3
 72
     8
 73
     4
 74
     0
 42
0.0000000001
 43
0.0000000001
 40
0.0
 40
0.0
 40
0.0
 40
0.0
 40
1.0
 40
1.0
 40
1.0
 40
1.0
 10
4.1237
 20
10.4855
 30
0.0
 10
3.5333
 20
10.4965
 30
0.0
 10
2.9423
 20
10.4864
 30
0.0
 10
2.3518
 20
10.4864
 30
0.0
  0
SPLINE
  5
132
330
1F
100
AcDbEntity
  8
DEFAULT_1
 62
   250
100
AcDbSpline
210
0.0
220
0.0
230
1.0
 70
    24
 71
     3
 72
     8
 73
     4
 74
     0
 42
0.0000000001
 43
0.0000000001
 40
0.0
 40
0.0
 40
0.0
 40
0.0
 40
1.0
 40
1.0
 40
1.0
 40
1.0
 10
2.3518
 20
10.4864
 30
0.0
 10
2.3518
 20
10.4864
 30
0.0
 10
2.3064
 20
10.4855
 30
0.0
 10
2.3064
 20
10.4855
 30
0.0
  0
SPLINE
  5
133
330
1F
100
AcDbEntity
  8
DEFAULT_1
 62
   250
100
AcDbSpline
210
0.0
220
0.0
230
1.0
 70
     8
 71
     3
 72
     8
 73
     4
 74
     0
 42
0.0000000001
 43
0.0000000001
 40
0.0
 40
0.0
 40
0.0
 40
0.0
 40
1.0
 40
1.0
 40
1.0
 40
1.0
 10
2.277
 20
12.0149
 30
0.0
 10
2.2811
 20
11.9993
 30
0.0
 10
2.2804
 20
11.9826
 30
0.0
 10
2.2807
 20
11.9666
 30
0.0
  0
SPLINE
  5
134
330
1F
100
AcDbEntity
  8
DEFAULT_1
 62
   250
100
AcDbSpline
210
0.0
220
0.0
230
1.0
 70
     8
 71
     3
 72
    16
 73
    12
 74
     0
 42
0.0000000001
 43
0.0000000001
 40
0.0
 40
0.0
 40
0.0
 40
0.0
 40
0.25
 40
0.25
 40
0.25
 40
0.25
 40
0.5
 40
0.5
 40
0.5
 40
0.5
 40
1.0
 40
1.0
 40
1.0
 40
1.0
 10
2.2807
 20
11.9666
 30
0.0
 10
2.2807
 20
11.9666
 30
0.0
 10
2.2865
 20
11.6319
 30
0.0
 10
2.2865
 20
11.6319
 30
0.0
 10
2.2865
 20
11.6319
 30
0.0
 10
2.2865
 20
11.6319
 30
0.0
 10
2.3007
 20
10.8201
 30
0.0
 10
2.3007
 20
10.8201
 30
0.0
 10
2.3007
 20
10.8201
 30
0.0
 10
2.3007
 20
10.8201
 30
0.0
 10
2.3064
 20
10.4855
 30
0.0
 10
2.3064
 20
10.4855
 30
0.0
  0
SPLINE
  5
135
330
1F
100
AcDbEntity
  8
DEFAULT_1
 62
   250
100
AcDbSpline
210
0.0
220
0.0
230
1.0
 70
     8
 71
     3
 72
     8
 73
     4
 74
     0
 42
0.0000000001
 43
0.0000000001
 40
0.0
 40
0.0
 40
0.0
 40
0.0
 40
1.0
 40
1.0
 40
1.0
 40
1.0
 10
2.3064
 20
10.4855
 30
0.0
 10
2.3081
 20
10.4118
 30
0.0
 10
2.3113
 20
10.3101
 30
0.0
 10
2.3542
 20
10.2471
 30
0.0
  0
SPLINE
  5
136
330
1F
100
AcDbEntity
  8
DEFAULT_1
 62
   250
100
AcDbSpline
210
0.0
220
0.0
230
1.0
 70
     8
 71
     3
 72
     8
 73
     4
 74
     0
 42
0.0000000001
 43
0.0000000001
 40
0.0
 40
0.0
 40
0.0
 40
0.0
 40
1.0
 40
1.0
 40
1.0
 40
1.0
 10
3.3587
 20
9.7135
 30
0.0
 10
3.3587
 20
9.7241
 30
0.0
 10
3.3588
 20
9.7346
 30
0.0
 10
3.3589
 20
9.7452
 30
0.0
  0
SPLINE
  5
137
330
1F
100
AcDbEntity
  8
DEFAULT_1
 62
   250
100
AcDbSpline
210
0.0
220
0.0
230
1.0
 70
     8
 71
     3
 72
     8
 73
     4
 74
     0
 42
0.0000000001
 43
0.0000000001
 40
0.0
 40
0.0
 40
0.0
 40
0.0
 40
1.0
 40
1.0
 40
1.0
 40
1.0
 10
3.0712
 20
9.7452
 30
0.0
 10
3.0714
 20
9.7346
 30
0.0
 10
3.0715
 20
9.7241
 30
0.0
 10
3.0715
 20
9.7135
 30
0.0
  0
SPLINE
  5
138
330
1F
100
AcDbEntity
  8
DEFAULT_1
 62
   250
100
AcDbSpline
210
0.0
220
0.0
230
1.0
 70
     8
 71
     3
 72
    12
 73
     8
 74
     0
 42
0.0000000001
 43
0.0000000001
 40
0.0
 40
0.0
 40
0.0
 40
0.0
 40
0.3333333333333333
 40
0.3333333333333333
 40
0.3333333333333333
 40
0.3333333333333333
 40
1.0
 40
1.0
 40
1.0
 40
1.0
 10
-5.0319
 20
10.267
 30
0.0
 10
-5.0489
 20
10.2865
 30
0.0
 10
-5.0728
 20
10.292
 30
0.0
 10
-5.0978
 20
10.294
 30
0.0
 10
-5.0978
 20
10.294
 30
0.0
 10
-5.1097
 20
10.2924
 30
0.0
 10
-5.1173
 20
10.2921
 30
0.0
 10
-5.1243
 20
10.2819
 30
0.0
  0
SPLINE
  5
139
330
1F
100
AcDbEntity
  8
DEFAULT_1
 62
   250
100
AcDbSpline
210
0.0
220
0.0
230
1.0
 70
     8
 71
     3
 72
     8
 73
     4
 74
     0
 42
0.0000000001
 43
0.0000000001
 40
0.0
 40
0.0
 40
0.0
 40
0.0
 40
1.0
 40
1.0
 40
1.0
 40
1.0
 10
-5.1532
 20
10.1878
 30
0.0
 10
-5.1408
 20
10.1839
 30
0.0
 10
-5.1284
 20
10.1806
 30
0.0
 10
-5.1158
 20
10.1777
 30
0.0
  0
SPLINE
  5
13A
330
1F
100
AcDbEntity
  8
DEFAULT_1
 62
   250
100
AcDbSpline
210
0.0
220
0.0
230
1.0
 70
     8
 71
     3
 72
     8
 73
     4
 74
     0
 42
0.0000000001
 43
0.0000000001
 40
0.0
 40
0.0
 40
0.0
 40
0.0
 40
1.0
 40
1.0
 40
1.0
 40
1.0
 10
11.462
 20
10.267
 30
0.0
 10
11.4799
 20
10.2874
 30
0.0
 10
11.5348
 20
10.3107
 30
0.0
 10
11.5545
 20
10.2818
 30
0.0
  0
SPLINE
  5
13B
330
1F
100
AcDbEntity
  8
DEFAULT_1
 62
   250
100
AcDbSpline
210
0.0
220
0.0
230
1.0
 70
     8
 71
     3
 72
     8
 73
     4
 74
     0
 42
0.0000000001
 43
0.0000000001
 40
0.0
 40
0.0
 40
0.0
 40
0.0
 40
1.0
 40
1.0
 40
1.0
 40
1.0
 10
11.5369
 20
10.2167
 30
0.0
 10
11.5209
 20
10.2106
 30
0.0
 10
11.5042
 20
10.2086
 30
0.0
 10
11.4878
 20
10.2042
 30
0.0
  0
SPLINE
  5
13C
330
1F
100
AcDbEntity
  8
DEFAULT_1
 62
   250
100
AcDbSpline
210
0.0
220
0.0
230
1.0
 70
     8
 71
     3
 72
    12
 73
     8
 74
     0
 42
0.0000000001
 43
0.0000000001
 40
0.0
 40
0.0
 40
0.0
 40
0.0
 40
0.3333333333333333
 40
0.3333333333333333
 40
0.3333333333333333
 40
0.3333333333333333
 40
1.0
 40
1.0
 40
1.0
 40
1.0
 10
11.5214
 20
10.1966
 30
0.0
 10
11.5159
 20
10.1974
 30
0.0
 10
11.5103
 20
10.1979
 30
0.0
 10
11.5047
 20
10.1979
 30
0.0
 10
11.5047
 20
10.1979
 30
0.0
 10
11.4834
 20
10.1972
 30
0.0
 10
11.4635
 20
10.1851
 30
0.0
 10
11.4547
 20
10.1654
 30
0.0
  0
SPLINE
  5
13D
330
1F
100
AcDbEntity
  8
DEFAULT_1
 62
   250
100
AcDbSpline
210
0.0
220
0.0
230
1.0
 70
     8
 71
     3
 72
     8
 73
     4
 74
     0
 42
0.0000000001
 43
0.0000000001
 40
0.0
 40
0.0
 40
0.0
 40
0.0
 40
1.0
 40
1.0
 40
1.0
 40
1.0
 10
12.9553
 20
9.8151
 30
0.0
 10
13.0923
 20
9.8763
 30
0.0
 10
13.2519
 20
9.9806
 30
0.0
 10
13.3145
 20
10.1235
 30
0.0
  0
SPLINE
  5
13E
330
1F
100
AcDbEntity
  8
DEFAULT_1
 62
   250
100
AcDbSpline
210
0.0
220
0.0
230
1.0
 70
    24
 71
     3
 72
     8
 73
     4
 74
     0
 42
0.0000000001
 43
0.0000000001
 40
0.0
 40
0.0
 40
0.0
 40
0.0
 40
1.0
 40
1.0
 40
1.0
 40
1.0
 10
13.3145
 20
10.1235
 30
0.0
 10
13.3145
 20
10.1235
 30
0.0
 10
13.3896
 20
10.2982
 30
0.0
 10
13.3896
 20
10.2982
 30
0.0
  0
SPLINE
  5
13F
330
1F
100
AcDbEntity
  8
DEFAULT_1
 62
   250
100
AcDbSpline
210
0.0
220
0.0
230
1.0
 70
     8
 71
     3
 72
     8
 73
     4
 74
     0
 42
0.0000000001
 43
0.0000000001
 40
0.0
 40
0.0
 40
0.0
 40
0.0
 40
1.0
 40
1.0
 40
1.0
 40
1.0
 10
13.3896
 20
10.2982
 30
0.0
 10
13.4338
 20
10.592
 30
0.0
 10
13.4166
 20
10.4314
 30
0.0
 10
13.4233
 20
10.821
 30
0.0
  0
SPLINE
  5
140
330
1F
100
AcDbEntity
  8
DEFAULT_1
 62
   250
100
AcDbSpline
210
0.0
220
0.0
230
1.0
 70
     8
 71
     3
 72
    12
 73
     8
 74
     0
 42
0.0000000001
 43
0.0000000001
 40
0.0
 40
0.0
 40
0.0
 40
0.0
 40
0.3333333333333333
 40
0.3333333333333333
 40
0.3333333333333333
 40
0.3333333333333333
 40
1.0
 40
1.0
 40
1.0
 40
1.0
 10
13.4233
 20
10.821
 30
0.0
 10
13.4233
 20
10.821
 30
0.0
 10
13.4378
 20
11.6492
 30
0.0
 10
13.4378
 20
11.6492
 30
0.0
 10
13.4378
 20
11.6492
 30
0.0
 10
13.4378
 20
11.6492
 30
0.0
 10
13.4437
 20
11.9839
 30
0.0
 10
13.4437
 20
11.9839
 30
0.0
  0
SPLINE
  5
141
330
1F
100
AcDbEntity
  8
DEFAULT_1
 62
   250
100
AcDbSpline
210
0.0
220
0.0
230
1.0
 70
     8
 71
     3
 72
     8
 73
     4
 74
     0
 42
0.0000000001
 43
0.0000000001
 40
0.0
 40
0.0
 40
0.0
 40
0.0
 40
1.0
 40
1.0
 40
1.0
 40
1.0
 10
13.1343
 20
9.8731
 30
0.0
 10
13.0375
 20
9.8239
 30
0.0
 10
12.9395
 20
9.7921
 30
0.0
 10
12.8324
 20
9.7735
 30
0.0
  0
SPLINE
  5
142
330
1F
100
AcDbEntity
  8
DEFAULT_1
 62
   250
100
AcDbSpline
210
0.0
220
0.0
230
1.0
 70
     8
 71
     3
 72
     8
 73
     4
 74
     0
 42
0.0000000001
 43
0.0000000001
 40
0.0
 40
0.0
 40
0.0
 40
0.0
 40
1.0
 40
1.0
 40
1.0
 40
1.0
 10
15.9451
 20
9.8325
 30
0.0
 10
16.0358
 20
9.7875
 30
0.0
 10
16.1271
 20
9.7678
 30
0.0
 10
16.2275
 20
9.7628
 30
0.0
  0
SPLINE
  5
143
330
1F
100
AcDbEntity
  8
DEFAULT_1
 62
   250
100
AcDbSpline
210
0.0
220
0.0
230
1.0
 70
     8
 71
     3
 72
     8
 73
     4
 74
     0
 42
0.0000000001
 43
0.0000000001
 40
0.0
 40
0.0
 40
0.0
 40
0.0
 40
1.0
 40
1.0
 40
1.0
 40
1.0
 10
11.4817
 20
12.004
 30
0.0
 10
11.478
 20
12.0071
 30
0.0
 10
11.4742
 20
12.0098
 30
0.0
 10
11.4698
 20
12.0121
 30
0.0
  0
SPLINE
  5
144
330
1F
100
AcDbEntity
  8
DEFAULT_1
 62
   250
100
AcDbSpline
210
0.0
220
0.0
230
1.0
 70
    24
 71
     3
 72
     8
 73
     4
 74
     0
 42
0.0000000001
 43
0.0000000001
 40
0.0
 40
0.0
 40
0.0
 40
0.0
 40
1.0
 40
1.0
 40
1.0
 40
1.0
 10
2.3961
 20
10.172
 30
0.0
 10
2.3961
 20
10.172
 30
0.0
 10
2.3899
 20
10.1686
 30
0.0
 10
2.3899
 20
10.1686
 30
0.0
  0
SPLINE
  5
145
330
1F
100
AcDbEntity
  8
DEFAULT_1
 62
   250
100
AcDbSpline
210
0.0
220
0.0
230
1.0
 70
    24
 71
     3
 72
     8
 73
     4
 74
     0
 42
0.0000000001
 43
0.0000000001
 40
0.0
 40
0.0
 40
0.0
 40
0.0
 40
1.0
 40
1.0
 40
1.0
 40
1.0
 10
4.0403
 20
10.1686
 30
0.0
 10
4.0403
 20
10.1686
 30
0.0
 10
4.0341
 20
10.1722
 30
0.0
 10
4.0341
 20
10.1722
 30
0.0
  0
SPLINE
  5
146
330
1F
100
AcDbEntity
  8
DEFAULT_1
 62
   250
100
AcDbSpline
210
0.0
220
0.0
230
1.0
 70
    24
 71
     3
 72
     8
 73
     4
 74
     0
 42
0.0000000001
 43
0.0000000001
 40
0.0
 40
0.0
 40
0.0
 40
0.0
 40
1.0
 40
1.0
 40
1.0
 40
1.0
 10
4.1243
 20
12.0066
 30
0.0
 10
4.1243
 20
12.0066
 30
0.0
 10
4.1153
 20
11.9977
 30
0.0
 10
4.1153
 20
11.9977
 30
0.0
  0
SPLINE
  5
147
330
1F
100
AcDbEntity
  8
DEFAULT_1
 62
   250
100
AcDbSpline
210
0.0
220
0.0
230
1.0
 70
    24
 71
     3
 72
     8
 73
     4
 74
     0
 42
0.0000000001
 43
0.0000000001
 40
0.0
 40
0.0
 40
0.0
 40
0.0
 40
1.0
 40
1.0
 40
1.0
 40
1.0
 10
2.315
 20
11.9976
 30
0.0
 10
2.315
 20
11.9976
 30
0.0
 10
2.306
 20
12.0066
 30
0.0
 10
2.306
 20
12.0066
 30
0.0
  0
SPLINE
  5
148
330
1F
100
AcDbEntity
  8
DEFAULT_1
 62
   250
100
AcDbSpline
210
0.0
220
0.0
230
1.0
 70
     8
 71
     3
 72
     8
 73
     4
 74
     0
 42
0.0000000001
 43
0.0000000001
 40
0.0
 40
0.0
 40
0.0
 40
0.0
 40
1.0
 40
1.0
 40
1.0
 40
1.0
 10
-5.0396
 20
12.0121
 30
0.0
 10
-5.0499
 20
12.0067
 30
0.0
 10
-5.0582
 20
11.9987
 30
0.0
 10
-5.0636
 20
11.9884
 30
0.0
  0
SPLINE
  5
149
330
1F
100
AcDbEntity
  8
DEFAULT_1
 62
   250
100
AcDbSpline
210
0.0
220
0.0
230
1.0
 70
     8
 71
     3
 72
     8
 73
     4
 74
     0
 42
0.0000000001
 43
0.0000000001
 40
0.0
 40
0.0
 40
0.0
 40
0.0
 40
1.0
 40
1.0
 40
1.0
 40
1.0
 10
-9.0444
 20
12.0599
 30
0.0
 10
-9.0565
 20
12.0485
 30
0.0
 10
-9.0635
 20
12.0351
 30
0.0
 10
-9.0637
 20
12.0175
 30
0.0
  0
SPLINE
  5
14A
330
1F
100
AcDbEntity
  8
DEFAULT_1
 62
   250
100
AcDbSpline
210
0.0
220
0.0
230
1.0
 70
     8
 71
     3
 72
    20
 73
    16
 74
     0
 42
0.0000000001
 43
0.0000000001
 40
0.0
 40
0.0
 40
0.0
 40
0.0
 40
0.2
 40
0.2
 40
0.2
 40
0.2
 40
0.4
 40
0.4
 40
0.4
 40
0.4
 40
0.6
 40
0.6
 40
0.6
 40
0.6
 40
1.0
 40
1.0
 40
1.0
 40
1.0
 10
-9.0637
 20
12.0175
 30
0.0
 10
-9.0637
 20
12.0175
 30
0.0
 10
-9.0666
 20
11.6828
 30
0.0
 10
-9.0666
 20
11.6828
 30
0.0
 10
-9.0666
 20
11.6828
 30
0.0
 10
-9.0666
 20
11.6828
 30
0.0
 10
-9.0743
 20
10.8303
 30
0.0
 10
-9.0743
 20
10.8303
 30
0.0
 10
-9.0743
 20
10.8303
 30
0.0
 10
-9.0743
 20
10.8303
 30
0.0
 10
-9.0773
 20
10.4956
 30
0.0
 10
-9.0773
 20
10.4956
 30
0.0
 10
-9.0773
 20
10.4956
 30
0.0
 10
-9.0773
 20
10.4956
 30
0.0
 10
-9.0852
 20
10.3953
 30
0.0
 10
-9.0852
 20
10.3953
 30
0.0
  0
SPLINE
  5
14B
330
1F
100
AcDbEntity
  8
DEFAULT_1
 62
   250
100
AcDbSpline
210
0.0
220
0.0
230
1.0
 70
     8
 71
     3
 72
     8
 73
     4
 74
     0
 42
0.0000000001
 43
0.0000000001
 40
0.0
 40
0.0
 40
0.0
 40
0.0
 40
1.0
 40
1.0
 40
1.0
 40
1.0
 10
-9.0852
 20
10.3953
 30
0.0
 10
-9.1223
 20
10.1384
 30
0.0
 10
-9.2935
 20
9.9502
 30
0.0
 10
-9.5151
 20
9.8324
 30
0.0
  0
SPLINE
  5
14C
330
1F
100
AcDbEntity
  8
DEFAULT_1
 62
   250
100
AcDbSpline
210
0.0
220
0.0
230
1.0
 70
     8
 71
     3
 72
    12
 73
     8
 74
     0
 42
0.0000000001
 43
0.0000000001
 40
0.0
 40
0.0
 40
0.0
 40
0.0
 40
0.3333333333333333
 40
0.3333333333333333
 40
0.3333333333333333
 40
0.3333333333333333
 40
1.0
 40
1.0
 40
1.0
 40
1.0
 10
21.5755
 20
12.7926
 30
0.0
 10
20.6322
 20
12.7761
 30
0.0
 10
19.6888
 20
12.7597
 30
0.0
 10
18.7454
 20
12.7432
 30
0.0
 10
18.7454
 20
12.7432
 30
0.0
 10
7.4426
 20
12.7432
 30
0.0
 10
-3.8493
 20
12.5954
 30
0.0
 10
-15.1453
 20
12.7926
 30
0.0
  0
SPLINE
  5
14D
330
1F
100
AcDbEntity
  8
DEFAULT_1
 62
   250
100
AcDbSpline
210
0.0
220
0.0
230
1.0
 70
     8
 71
     3
 72
     8
 73
     4
 74
     0
 42
0.0000000001
 43
0.0000000001
 40
0.0
 40
0.0
 40
0.0
 40
0.0
 40
1.0
 40
1.0
 40
1.0
 40
1.0
 10
15.9451
 20
9.8325
 30
0.0
 10
15.7242
 20
9.9513
 30
0.0
 10
15.5526
 20
10.1374
 30
0.0
 10
15.5154
 20
10.3953
 30
0.0
  0
SPLINE
  5
14E
330
1F
100
AcDbEntity
  8
DEFAULT_1
 62
   250
100
AcDbSpline
210
0.0
220
0.0
230
1.0
 70
     8
 71
     3
 72
    20
 73
    16
 74
     0
 42
0.0000000001
 43
0.0000000001
 40
0.0
 40
0.0
 40
0.0
 40
0.0
 40
0.2
 40
0.2
 40
0.2
 40
0.2
 40
0.4
 40
0.4
 40
0.4
 40
0.4
 40
0.6
 40
0.6
 40
0.6
 40
0.6
 40
1.0
 40
1.0
 40
1.0
 40
1.0
 10
15.5154
 20
10.3953
 30
0.0
 10
15.5154
 20
10.3953
 30
0.0
 10
15.5075
 20
10.4956
 30
0.0
 10
15.5075
 20
10.4956
 30
0.0
 10
15.5075
 20
10.4956
 30
0.0
 10
15.5075
 20
10.4956
 30
0.0
 10
15.5045
 20
10.8303
 30
0.0
 10
15.5045
 20
10.8303
 30
0.0
 10
15.5045
 20
10.8303
 30
0.0
 10
15.5045
 20
10.8303
 30
0.0
 10
15.4968
 20
11.6828
 30
0.0
 10
15.4968
 20
11.6828
 30
0.0
 10
15.4968
 20
11.6828
 30
0.0
 10
15.4968
 20
11.6828
 30
0.0
 10
15.4938
 20
12.0175
 30
0.0
 10
15.4938
 20
12.0175
 30
0.0
  0
SPLINE
  5
14F
330
1F
100
AcDbEntity
  8
DEFAULT_1
 62
   250
100
AcDbSpline
210
0.0
220
0.0
230
1.0
 70
     8
 71
     3
 72
     8
 73
     4
 74
     0
 42
0.0000000001
 43
0.0000000001
 40
0.0
 40
0.0
 40
0.0
 40
0.0
 40
1.0
 40
1.0
 40
1.0
 40
1.0
 10
15.4938
 20
12.0175
 30
0.0
 10
15.4937
 20
12.0362
 30
0.0
 10
15.4863
 20
12.0492
 30
0.0
 10
15.4733
 20
12.0608
 30
0.0
  0
SPLINE
  5
150
330
1F
100
AcDbEntity
  8
DEFAULT_1
 62
   250
100
AcDbSpline
210
0.0
220
0.0
230
1.0
 70
    24
 71
     3
 72
     8
 73
     4
 74
     0
 42
0.0000000001
 43
0.0000000001
 40
0.0
 40
0.0
 40
0.0
 40
0.0
 40
1.0
 40
1.0
 40
1.0
 40
1.0
 10
3.4254
 20
13.2725
 30
0.0
 10
3.4254
 20
13.2725
 30
0.0
 10
9.3287
 20
13.2725
 30
0.0
 10
9.3287
 20
13.2725
 30
0.0
  0
SPLINE
  5
151
330
1F
100
AcDbEntity
  8
DEFAULT_1
 62
   250
100
AcDbSpline
210
0.0
220
0.0
230
1.0
 70
    24
 71
     3
 72
     8
 73
     4
 74
     0
 42
0.0000000001
 43
0.0000000001
 40
0.0
 40
0.0
 40
0.0
 40
0.0
 40
1.0
 40
1.0
 40
1.0
 40
1.0
 10
-2.8984
 20
13.2725
 30
0.0
 10
-2.8984
 20
13.2725
 30
0.0
 10
3.0047
 20
13.2725
 30
0.0
 10
3.0047
 20
13.2725
 30
0.0
  0
SPLINE
  5
152
330
1F
100
AcDbEntity
  8
DEFAULT_1
 62
   250
100
AcDbSpline
210
0.0
220
0.0
230
1.0
 70
    24
 71
     3
 72
     8
 73
     4
 74
     0
 42
0.0000000001
 43
0.0000000001
 40
0.0
 40
0.0
 40
0.0
 40
0.0
 40
1.0
 40
1.0
 40
1.0
 40
1.0
 10
-1.0344
 20
-14.0431
 30
0.0
 10
-1.0344
 20
-14.0431
 30
0.0
 10
-1.0344
 20
-9.6195
 30
0.0
 10
-1.0344
 20
-9.6195
 30
0.0
  0
SPLINE
  5
153
330
1F
100
AcDbEntity
  8
DEFAULT_1
 62
   250
100
AcDbSpline
210
0.0
220
0.0
230
1.0
 70
    24
 71
     3
 72
     8
 73
     4
 74
     0
 42
0.0000000001
 43
0.0000000001
 40
0.0
 40
0.0
 40
0.0
 40
0.0
 40
1.0
 40
1.0
 40
1.0
 40
1.0
 10
7.0744
 20
-13.9599
 30
0.0
 10
7.0744
 20
-13.9599
 30
0.0
 10
7.0744
 20
-9.5363
 30
0.0
 10
7.0744
 20
-9.5363
 30
0.0
  0
SPLINE
  5
154
330
1F
100
AcDbEntity
  8
DEFAULT_1
 62
   250
100
AcDbSpline
210
0.0
220
0.0
230
1.0
 70
    24
 71
     3
 72
     8
 73
     4
 74
     0
 42
0.0000000001
 43
0.0000000001
 40
0.0
 40
0.0
 40
0.0
 40
0.0
 40
1.0
 40
1.0
 40
1.0
 40
1.0
 10
6.7643
 20
-13.684
 30
0.0
 10
6.7643
 20
-13.684
 30
0.0
 10
-0.8425
 20
-13.684
 30
0.0
 10
-0.8425
 20
-13.684
 30
0.0
  0
SPLINE
  5
155
330
1F
100
AcDbEntity
  8
DEFAULT_1
 62
   250
100
AcDbSpline
210
0.0
220
0.0
230
1.0
 70
    11
 71
     3
 72
    84
 73
    80
 74
     0
 42
0.0000000001
 43
0.0000000001
 40
0.0
 40
0.0
 40
0.0
 40
0.0
 40
0.0476190476190476
 40
0.0476190476190476
 40
0.0476190476190476
 40
0.0476190476190476
 40
0.0952380952380952
 40
0.0952380952380952
 40
0.0952380952380952
 40
0.0952380952380952
 40
0.1428571428571428
 40
0.1428571428571428
 40
0.1428571428571428
 40
0.1428571428571428
 40
0.1904761904761905
 40
0.1904761904761905
 40
0.1904761904761905
 40
0.1904761904761905
 40
0.2380952380952381
 40
0.2380952380952381
 40
0.2380952380952381
 40
0.2380952380952381
 40
0.2857142857142857
 40
0.2857142857142857
 40
0.2857142857142857
 40
0.2857142857142857
 40
0.3333333333333333
 40
0.3333333333333333
 40
0.3333333333333333
 40
0.3333333333333333
 40
0.3809523809523809
 40
0.3809523809523809
 40
0.3809523809523809
 40
0.3809523809523809
 40
0.4285714285714285
 40
0.4285714285714285
 40
0.4285714285714285
 40
0.4285714285714285
 40
0.4761904761904762
 40
0.4761904761904762
 40
0.4761904761904762
 40
0.4761904761904762
 40
0.5238095238095238
 40
0.5238095238095238
 40
0.5238095238095238
 40
0.5238095238095238
 40
0.5714285714285714
 40
0.5714285714285714
 40
0.5714285714285714
 40
0.5714285714285714
 40
0.6190476190476191
 40
0.6190476190476191
 40
0.6190476190476191
 40
0.6190476190476191
 40
0.6666666666666666
 40
0.6666666666666666
 40
0.6666666666666666
 40
0.6666666666666666
 40
0.7142857142857143
 40
0.7142857142857143
 40
0.7142857142857143
 40
0.7142857142857143
 40
0.7619047619047619
 40
0.7619047619047619
 40
0.7619047619047619
 40
0.7619047619047619
 40
0.8095238095238095
 40
0.8095238095238095
 40
0.8095238095238095
 40
0.8095238095238095
 40
0.8571428571428571
 40
0.8571428571428571
 40
0.8571428571428571
 40
0.8571428571428571
 40
0.9047619047619048
 40
0.9047619047619048
 40
0.9047619047619048
 40
0.9047619047619048
 40
1.0
 40
1.0
 40
1.0
 40
1.0
 10
2.3568
 20
-11.2295
 30
0.0
 10
2.3568
 20
-11.2295
 30
0.0
 10
2.5882
 20
-10.9704
 30
0.0
 10
2.5882
 20
-10.9704
 30
0.0
 10
2.5882
 20
-10.9704
 30
0.0
 10
2.5882
 20
-10.9704
 30
0.0
 10
2.7246
 20
-11.0861
 30
0.0
 10
2.7246
 20
-11.0861
 30
0.0
 10
2.7246
 20
-11.0861
 30
0.0
 10
2.7246
 20
-11.0861
 30
0.0
 10
2.4824
 20
-11.3589
 30
0.0
 10
2.4824
 20
-11.3589
 30
0.0
 10
2.4824
 20
-11.3589
 30
0.0
 10
2.5614
 20
-11.4765
 30
0.0
 10
2.6145
 20
-11.5795
 30
0.0
 10
2.6423
 20
-11.6674
 30
0.0
 10
2.6423
 20
-11.6674
 30
0.0
 10
2.679
 20
-11.7832
 30
0.0
 10
2.6973
 20
-11.913
 30
0.0
 10
2.6973
 20
-12.056
 30
0.0
 10
2.6973
 20
-12.056
 30
0.0
 10
2.6973
 20
-12.2629
 30
0.0
 10
2.6555
 20
-12.4473
 30
0.0
 10
2.5717
 20
-12.6086
 30
0.0
 10
2.5717
 20
-12.6086
 30
0.0
 10
2.488
 20
-12.7705
 30
0.0
 10
2.3709
 20
-12.8927
 30
0.0
 10
2.2199
 20
-12.9755
 30
0.0
 10
2.2199
 20
-12.9755
 30
0.0
 10
2.0684
 20
-13.0578
 30
0.0
 10
1.9081
 20
-13.0992
 30
0.0
 10
1.7383
 20
-13.0992
 30
0.0
 10
1.7383
 20
-13.0992
 30
0.0
 10
1.6113
 20
-13.0992
 30
0.0
 10
1.4965
 20
-13.0814
 30
0.0
 10
1.3935
 20
-13.0456
 30
0.0
 10
1.3935
 20
-13.0456
 30
0.0
 10
1.3145
 20
-13.0179
 30
0.0
 10
1.2223
 20
-12.9652
 30
0.0
 10
1.1164
 20
-12.8871
 30
0.0
 10
1.1164
 20
-12.8871
 30
0.0
 10
1.1164
 20
-12.8871
 30
0.0
 10
0.885
 20
-13.1463
 30
0.0
 10
0.885
 20
-13.1463
 30
0.0
 10
0.885
 20
-13.1463
 30
0.0
 10
0.885
 20
-13.1463
 30
0.0
 10
0.7486
 20
-13.0306
 30
0.0
 10
0.7486
 20
-13.0306
 30
0.0
 10
0.7486
 20
-13.0306
 30
0.0
 10
0.7486
 20
-13.0306
 30
0.0
 10
0.9913
 20
-12.7592
 30
0.0
 10
0.9913
 20
-12.7592
 30
0.0
 10
0.9913
 20
-12.7592
 30
0.0
 10
0.901
 20
-12.6223
 30
0.0
 10
0.8408
 20
-12.5052
 30
0.0
 10
0.8107
 20
-12.4083
 30
0.0
 10
0.8107
 20
-12.4083
 30
0.0
 10
0.7806
 20
-12.3114
 30
0.0
 10
0.7651
 20
-12.1947
 30
0.0
 10
0.7651
 20
-12.0588
 30
0.0
 10
0.7651
 20
-12.0588
 30
0.0
 10
0.7651
 20
-11.8514
 30
0.0
 10
0.8065
 20
-11.6665
 30
0.0
 10
0.8892
 20
-11.5042
 30
0.0
 10
0.8892
 20
-11.5042
 30
0.0
 10
0.972
 20
-11.3419
 30
0.0
 10
1.0877
 20
-11.2192
 30
0.0
 10
1.2373
 20
-11.1355
 30
0.0
 10
1.2373
 20
-11.1355
 30
0.0
 10
1.3864
 20
-11.0522
 30
0.0
 10
1.5525
 20
-11.0103
 30
0.0
 10
1.7354
 20
-11.0103
 30
0.0
 10
1.7354
 20
-11.0103
 30
0.0
 10
1.8587
 20
-11.0103
 30
0.0
 10
1.9664
 20
-11.0263
 30
0.0
 10
2.0586
 20
-11.0593
 30
0.0
 10
2.0586
 20
-11.0593
 30
0.0
 10
2.1508
 20
-11.0917
 30
0.0
 10
2.2505
 20
-11.1486
 30
0.0
 10
2.3568
 20
-11.2295
 30
0.0
  0
SPLINE
  5
156
330
1F
100
AcDbEntity
  8
DEFAULT_1
 62
   250
100
AcDbSpline
210
0.0
220
0.0
230
1.0
 70
    11
 71
     3
 72
    32
 73
    28
 74
     0
 42
0.0000000001
 43
0.0000000001
 40
0.0
 40
0.0
 40
0.0
 40
0.0
 40
0.125
 40
0.125
 40
0.125
 40
0.125
 40
0.25
 40
0.25
 40
0.25
 40
0.25
 40
0.375
 40
0.375
 40
0.375
 40
0.375
 40
0.5
 40
0.5
 40
0.5
 40
0.5
 40
0.625
 40
0.625
 40
0.625
 40
0.625
 40
0.75
 40
0.75
 40
0.75
 40
0.75
 40
1.0
 40
1.0
 40
1.0
 40
1.0
 10
2.1917
 20
-11.4153
 30
0.0
 10
2.1051
 20
-11.3476
 30
0.0
 10
2.0294
 20
-11.301
 30
0.0
 10
1.965
 20
-11.2761
 30
0.0
 10
1.965
 20
-11.2761
 30
0.0
 10
1.9001
 20
-11.2516
 30
0.0
 10
1.8239
 20
-11.2389
 30
0.0
 10
1.7368
 20
-11.2389
 30
0.0
 10
1.7368
 20
-11.2389
 30
0.0
 10
1.5355
 20
-11.2389
 30
0.0
 10
1.3695
 20
-11.3071
 30
0.0
 10
1.2378
 20
-11.4435
 30
0.0
 10
1.2378
 20
-11.4435
 30
0.0
 10
1.1065
 20
-11.58
 30
0.0
 10
1.0407
 20
-11.7836
 30
0.0
 10
1.0407
 20
-12.055
 30
0.0
 10
1.0407
 20
-12.055
 30
0.0
 10
1.0407
 20
-12.1613
 30
0.0
 10
1.051
 20
-12.2559
 30
0.0
 10
1.0713
 20
-12.3387
 30
0.0
 10
1.0713
 20
-12.3387
 30
0.0
 10
1.0859
 20
-12.4003
 30
0.0
 10
1.1164
 20
-12.476
 30
0.0
 10
1.1635
 20
-12.5658
 30
0.0
 10
1.1635
 20
-12.5658
 30
0.0
 10
1.1635
 20
-12.5658
 30
0.0
 10
2.1917
 20
-11.4153
 30
0.0
 10
2.1917
 20
-11.4153
 30
0.0
  0
SPLINE
  5
157
330
1F
100
AcDbEntity
  8
DEFAULT_1
 62
   250
100
AcDbSpline
210
0.0
220
0.0
230
1.0
 70
    11
 71
     3
 72
    28
 73
    24
 74
     0
 42
0.0000000001
 43
0.0000000001
 40
0.0
 40
0.0
 40
0.0
 40
0.0
 40
0.1428571428571428
 40
0.1428571428571428
 40
0.1428571428571428
 40
0.1428571428571428
 40
0.2857142857142857
 40
0.2857142857142857
 40
0.2857142857142857
 40
0.2857142857142857
 40
0.4285714285714285
 40
0.4285714285714285
 40
0.4285714285714285
 40
0.4285714285714285
 40
0.5714285714285714
 40
0.5714285714285714
 40
0.5714285714285714
 40
0.5714285714285714
 40
0.7142857142857143
 40
0.7142857142857143
 40
0.7142857142857143
 40
0.7142857142857143
 40
1.0
 40
1.0
 40
1.0
 40
1.0
 10
2.3046
 20
-11.5574
 30
0.0
 10
2.3046
 20
-11.5574
 30
0.0
 10
1.2806
 20
-12.7037
 30
0.0
 10
1.2806
 20
-12.7037
 30
0.0
 10
1.2806
 20
-12.7037
 30
0.0
 10
1.3511
 20
-12.7615
 30
0.0
 10
1.4165
 20
-12.802
 30
0.0
 10
1.4763
 20
-12.825
 30
0.0
 10
1.4763
 20
-12.825
 30
0.0
 10
1.5543
 20
-12.8556
 30
0.0
 10
1.639
 20
-12.8706
 30
0.0
 10
1.7298
 20
-12.8706
 30
0.0
 10
1.7298
 20
-12.8706
 30
0.0
 10
1.9302
 20
-12.8706
 30
0.0
 10
2.0953
 20
-12.8001
 30
0.0
 10
2.226
 20
-12.6585
 30
0.0
 10
2.226
 20
-12.6585
 30
0.0
 10
2.3563
 20
-12.5169
 30
0.0
 10
2.4217
 20
-12.3184
 30
0.0
 10
2.4217
 20
-12.063
 30
0.0
 10
2.4217
 20
-12.063
 30
0.0
 10
2.4217
 20
-11.8721
 30
0.0
 10
2.3827
 20
-11.7032
 30
0.0
 10
2.3046
 20
-11.5574
 30
0.0
  0
SPLINE
  5
158
330
1F
100
AcDbEntity
  8
DEFAULT_1
 62
   250
100
AcDbSpline
210
0.0
220
0.0
230
1.0
 70
    11
 71
     3
 72
    92
 73
    88
 74
     0
 42
0.0000000001
 43
0.0000000001
 40
0.0
 40
0.0
 40
0.0
 40
0.0
 40
0.0434782608695652
 40
0.0434782608695652
 40
0.0434782608695652
 40
0.0434782608695652
 40
0.0869565217391304
 40
0.0869565217391304
 40
0.0869565217391304
 40
0.0869565217391304
 40
0.1304347826086956
 40
0.1304347826086956
 40
0.1304347826086956
 40
0.1304347826086956
 40
0.1739130434782609
 40
0.1739130434782609
 40
0.1739130434782609
 40
0.1739130434782609
 40
0.2173913043478261
 40
0.2173913043478261
 40
0.2173913043478261
 40
0.2173913043478261
 40
0.2608695652173913
 40
0.2608695652173913
 40
0.2608695652173913
 40
0.2608695652173913
 40
0.3043478260869565
 40
0.3043478260869565
 40
0.3043478260869565
 40
0.3043478260869565
 40
0.3478260869565217
 40
0.3478260869565217
 40
0.3478260869565217
 40
0.3478260869565217
 40
0.391304347826087
 40
0.391304347826087
 40
0.391304347826087
 40
0.391304347826087
 40
0.4347826086956522
 40
0.4347826086956522
 40
0.4347826086956522
 40
0.4347826086956522
 40
0.4782608695652174
 40
0.4782608695652174
 40
0.4782608695652174
 40
0.4782608695652174
 40
0.5217391304347826
 40
0.5217391304347826
 40
0.5217391304347826
 40
0.5217391304347826
 40
0.5652173913043478
 40
0.5652173913043478
 40
0.5652173913043478
 40
0.5652173913043478
 40
0.6086956521739131
 40
0.6086956521739131
 40
0.6086956521739131
 40
0.6086956521739131
 40
0.6521739130434783
 40
0.6521739130434783
 40
0.6521739130434783
 40
0.6521739130434783
 40
0.6956521739130435
 40
0.6956521739130435
 40
0.6956521739130435
 40
0.6956521739130435
 40
0.7391304347826086
 40
0.7391304347826086
 40
0.7391304347826086
 40
0.7391304347826086
 40
0.782608695652174
 40
0.782608695652174
 40
0.782608695652174
 40
0.782608695652174
 40
0.8260869565217391
 40
0.8260869565217391
 40
0.8260869565217391
 40
0.8260869565217391
 40
0.8695652173913043
 40
0.8695652173913043
 40
0.8695652173913043
 40
0.8695652173913043
 40
0.9130434782608695
 40
0.9130434782608695
 40
0.9130434782608695
 40
0.9130434782608695
 40
1.0
 40
1.0
 40
1.0
 40
1.0
 10
2.9466
 20
-12.5357
 30
0.0
 10
2.9466
 20
-12.5357
 30
0.0
 10
3.2072
 20
-12.5136
 30
0.0
 10
3.2072
 20
-12.5136
 30
0.0
 10
3.2072
 20
-12.5136
 30
0.0
 10
3.2265
 20
-12.6406
 30
0.0
 10
3.2712
 20
-12.7356
 30
0.0
 10
3.3413
 20
-12.7996
 30
0.0
 10
3.3413
 20
-12.7996
 30
0.0
 10
3.4118
 20
-12.8636
 30
0.0
 10
3.4965
 20
-12.8956
 30
0.0
 10
3.5957
 20
-12.8956
 30
0.0
 10
3.5957
 20
-12.8956
 30
0.0
 10
3.7152
 20
-12.8956
 30
0.0
 10
3.8163
 20
-12.8504
 30
0.0
 10
3.8986
 20
-12.7606
 30
0.0
 10
3.8986
 20
-12.7606
 30
0.0
 10
3.9814
 20
-12.6703
 30
0.0
 10
4.0228
 20
-12.5508
 30
0.0
 10
4.0228
 20
-12.4022
 30
0.0
 10
4.0228
 20
-12.4022
 30
0.0
 10
4.0228
 20
-12.2606
 30
0.0
 10
3.9833
 20
-12.1491
 30
0.0
 10
3.9038
 20
-12.0673
 30
0.0
 10
3.9038
 20
-12.0673
 30
0.0
 10
3.8243
 20
-11.9854
 30
0.0
 10
3.7204
 20
-11.9445
 30
0.0
 10
3.5915
 20
-11.9445
 30
0.0
 10
3.5915
 20
-11.9445
 30
0.0
 10
3.5115
 20
-11.9445
 30
0.0
 10
3.4396
 20
-11.9628
 30
0.0
 10
3.3751
 20
-11.999
 30
0.0
 10
3.3751
 20
-11.999
 30
0.0
 10
3.3107
 20
-12.0353
 30
0.0
 10
3.2604
 20
-12.0823
 30
0.0
 10
3.2237
 20
-12.1402
 30
0.0
 10
3.2237
 20
-12.1402
 30
0.0
 10
3.2237
 20
-12.1402
 30
0.0
 10
2.9908
 20
-12.1101
 30
0.0
 10
2.9908
 20
-12.1101
 30
0.0
 10
2.9908
 20
-12.1101
 30
0.0
 10
2.9908
 20
-12.1101
 30
0.0
 10
3.1865
 20
-11.0724
 30
0.0
 10
3.1865
 20
-11.0724
 30
0.0
 10
3.1865
 20
-11.0724
 30
0.0
 10
3.1865
 20
-11.0724
 30
0.0
 10
4.1912
 20
-11.0724
 30
0.0
 10
4.1912
 20
-11.0724
 30
0.0
 10
4.1912
 20
-11.0724
 30
0.0
 10
4.1912
 20
-11.0724
 30
0.0
 10
4.1912
 20
-11.3095
 30
0.0
 10
4.1912
 20
-11.3095
 30
0.0
 10
4.1912
 20
-11.3095
 30
0.0
 10
4.1912
 20
-11.3095
 30
0.0
 10
3.385
 20
-11.3095
 30
0.0
 10
3.385
 20
-11.3095
 30
0.0
 10
3.385
 20
-11.3095
 30
0.0
 10
3.385
 20
-11.3095
 30
0.0
 10
3.2759
 20
-11.8523
 30
0.0
 10
3.2759
 20
-11.8523
 30
0.0
 10
3.2759
 20
-11.8523
 30
0.0
 10
3.3972
 20
-11.7676
 30
0.0
 10
3.5247
 20
-11.7253
 30
0.0
 10
3.6578
 20
-11.7253
 30
0.0
 10
3.6578
 20
-11.7253
 30
0.0
 10
3.8342
 20
-11.7253
 30
0.0
 10
3.9828
 20
-11.7864
 30
0.0
 10
4.1042
 20
-11.9087
 30
0.0
 10
4.1042
 20
-11.9087
 30
0.0
 10
4.2255
 20
-12.031
 30
0.0
 10
4.2862
 20
-12.1881
 30
0.0
 10
4.2862
 20
-12.38
 30
0.0
 10
4.2862
 20
-12.38
 30
0.0
 10
4.2862
 20
-12.563
 30
0.0
 10
4.2326
 20
-12.7211
 30
0.0
 10
4.1263
 20
-12.8542
 30
0.0
 10
4.1263
 20
-12.8542
 30
0.0
 10
3.9965
 20
-13.0174
 30
0.0
 10
3.8196
 20
-13.0992
 30
0.0
 10
3.5957
 20
-13.0992
 30
0.0
 10
3.5957
 20
-13.0992
 30
0.0
 10
3.4118
 20
-13.0992
 30
0.0
 10
3.2618
 20
-13.048
 30
0.0
 10
3.1456
 20
-12.945
 30
0.0
 10
3.1456
 20
-12.945
 30
0.0
 10
3.0294
 20
-12.8419
 30
0.0
 10
2.9631
 20
-12.7055
 30
0.0
 10
2.9466
 20
-12.5357
 30
0.0
  0
SPLINE
  5
159
330
1F
100
AcDbEntity
  8
DEFAULT_1
 62
   250
100
AcDbSpline
210
0.0
220
0.0
230
1.0
 70
    11
 71
     3
 72
    52
 73
    48
 74
     0
 42
0.0000000001
 43
0.0000000001
 40
0.0
 40
0.0
 40
0.0
 40
0.0
 40
0.0769230769230769
 40
0.0769230769230769
 40
0.0769230769230769
 40
0.0769230769230769
 40
0.1538461538461539
 40
0.1538461538461539
 40
0.1538461538461539
 40
0.1538461538461539
 40
0.2307692307692308
 40
0.2307692307692308
 40
0.2307692307692308
 40
0.2307692307692308
 40
0.3076923076923077
 40
0.3076923076923077
 40
0.3076923076923077
 40
0.3076923076923077
 40
0.3846153846153846
 40
0.3846153846153846
 40
0.3846153846153846
 40
0.3846153846153846
 40
0.4615384615384616
 40
0.4615384615384616
 40
0.4615384615384616
 40
0.4615384615384616
 40
0.5384615384615384
 40
0.5384615384615384
 40
0.5384615384615384
 40
0.5384615384615384
 40
0.6153846153846154
 40
0.6153846153846154
 40
0.6153846153846154
 40
0.6153846153846154
 40
0.6923076923076923
 40
0.6923076923076923
 40
0.6923076923076923
 40
0.6923076923076923
 40
0.7692307692307693
 40
0.7692307692307693
 40
0.7692307692307693
 40
0.7692307692307693
 40
0.8461538461538461
 40
0.8461538461538461
 40
0.8461538461538461
 40
0.8461538461538461
 40
1.0
 40
1.0
 40
1.0
 40
1.0
 10
4.5162
 20
-12.0687
 30
0.0
 10
4.5162
 20
-11.8297
 30
0.0
 10
4.5407
 20
-11.6373
 30
0.0
 10
4.5901
 20
-11.492
 30
0.0
 10
4.5901
 20
-11.492
 30
0.0
 10
4.639
 20
-11.3462
 30
0.0
 10
4.7124
 20
-11.2338
 30
0.0
 10
4.8093
 20
-11.1547
 30
0.0
 10
4.8093
 20
-11.1547
 30
0.0
 10
4.9062
 20
-11.0757
 30
0.0
 10
5.028
 20
-11.0362
 30
0.0
 10
5.1747
 20
-11.0362
 30
0.0
 10
5.1747
 20
-11.0362
 30
0.0
 10
5.2834
 20
-11.0362
 30
0.0
 10
5.3784
 20
-11.0583
 30
0.0
 10
5.4602
 20
-11.1021
 30
0.0
 10
5.4602
 20
-11.1021
 30
0.0
 10
5.5421
 20
-11.1453
 30
0.0
 10
5.6094
 20
-11.2084
 30
0.0
 10
5.663
 20
-11.2907
 30
0.0
 10
5.663
 20
-11.2907
 30
0.0
 10
5.7161
 20
-11.373
 30
0.0
 10
5.758
 20
-11.4732
 30
0.0
 10
5.7881
 20
-11.5912
 30
0.0
 10
5.7881
 20
-11.5912
 30
0.0
 10
5.8187
 20
-11.7093
 30
0.0
 10
5.8337
 20
-11.8683
 30
0.0
 10
5.8337
 20
-12.0687
 30
0.0
 10
5.8337
 20
-12.0687
 30
0.0
 10
5.8337
 20
-12.3057
 30
0.0
 10
5.8093
 20
-12.4967
 30
0.0
 10
5.7608
 20
-12.6425
 30
0.0
 10
5.7608
 20
-12.6425
 30
0.0
 10
5.7119
 20
-12.7883
 30
0.0
 10
5.639
 20
-12.9007
 30
0.0
 10
5.5421
 20
-12.9802
 30
0.0
 10
5.5421
 20
-12.9802
 30
0.0
 10
5.4452
 20
-13.0597
 30
0.0
 10
5.3229
 20
-13.0992
 30
0.0
 10
5.1747
 20
-13.0992
 30
0.0
 10
5.1747
 20
-13.0992
 30
0.0
 10
4.98
 20
-13.0992
 30
0.0
 10
4.8271
 20
-13.0296
 30
0.0
 10
4.7161
 20
-12.8899
 30
0.0
 10
4.7161
 20
-12.8899
 30
0.0
 10
4.583
 20
-12.722
 30
0.0
 10
4.5162
 20
-12.4478
 30
0.0
 10
4.5162
 20
-12.0687
 30
0.0
  0
SPLINE
  5
15A
330
1F
100
AcDbEntity
  8
DEFAULT_1
 62
   250
100
AcDbSpline
210
0.0
220
0.0
230
1.0
 70
    11
 71
     3
 72
    36
 73
    32
 74
     0
 42
0.0000000001
 43
0.0000000001
 40
0.0
 40
0.0
 40
0.0
 40
0.0
 40
0.1111111111111111
 40
0.1111111111111111
 40
0.1111111111111111
 40
0.1111111111111111
 40
0.2222222222222222
 40
0.2222222222222222
 40
0.2222222222222222
 40
0.2222222222222222
 40
0.3333333333333333
 40
0.3333333333333333
 40
0.3333333333333333
 40
0.3333333333333333
 40
0.4444444444444444
 40
0.4444444444444444
 40
0.4444444444444444
 40
0.4444444444444444
 40
0.5555555555555556
 40
0.5555555555555556
 40
0.5555555555555556
 40
0.5555555555555556
 40
0.6666666666666666
 40
0.6666666666666666
 40
0.6666666666666666
 40
0.6666666666666666
 40
0.7777777777777778
 40
0.7777777777777778
 40
0.7777777777777778
 40
0.7777777777777778
 40
1.0
 40
1.0
 40
1.0
 40
1.0
 10
4.7712
 20
-12.0687
 30
0.0
 10
4.7712
 20
-12.4003
 30
0.0
 10
4.8102
 20
-12.6209
 30
0.0
 10
4.8878
 20
-12.7309
 30
0.0
 10
4.8878
 20
-12.7309
 30
0.0
 10
4.9654
 20
-12.8405
 30
0.0
 10
5.0609
 20
-12.8956
 30
0.0
 10
5.1747
 20
-12.8956
 30
0.0
 10
5.1747
 20
-12.8956
 30
0.0
 10
5.289
 20
-12.8956
 30
0.0
 10
5.3845
 20
-12.8401
 30
0.0
 10
5.4621
 20
-12.73
 30
0.0
 10
5.4621
 20
-12.73
 30
0.0
 10
5.5397
 20
-12.6199
 30
0.0
 10
5.5788
 20
-12.3993
 30
0.0
 10
5.5788
 20
-12.0687
 30
0.0
 10
5.5788
 20
-12.0687
 30
0.0
 10
5.5788
 20
-11.7361
 30
0.0
 10
5.5397
 20
-11.515
 30
0.0
 10
5.4621
 20
-11.4059
 30
0.0
 10
5.4621
 20
-11.4059
 30
0.0
 10
5.3845
 20
-11.2963
 30
0.0
 10
5.2881
 20
-11.2418
 30
0.0
 10
5.1724
 20
-11.2418
 30
0.0
 10
5.1724
 20
-11.2418
 30
0.0
 10
5.0581
 20
-11.2418
 30
0.0
 10
4.9673
 20
-11.2902
 30
0.0
 10
4.8991
 20
-11.3866
 30
0.0
 10
4.8991
 20
-11.3866
 30
0.0
 10
4.814
 20
-11.5094
 30
0.0
 10
4.7712
 20
-11.7371
 30
0.0
 10
4.7712
 20
-12.0687
 30
0.0
  0
SPLINE
  5
15B
330
1F
100
AcDbEntity
  8
DEFAULT_1
 62
   250
100
AcDbSpline
210
0.0
220
0.0
230
1.0
 70
    11
 71
     3
 72
    20
 73
    16
 74
     0
 42
0.0000000001
 43
0.0000000001
 40
0.0
 40
0.0
 40
0.0
 40
0.0
 40
0.2
 40
0.2
 40
0.2
 40
0.2
 40
0.4
 40
0.4
 40
0.4
 40
0.4
 40
0.6
 40
0.6
 40
0.6
 40
0.6
 40
1.0
 40
1.0
 40
1.0
 40
1.0
 10
4.422
 20
-13.2604
 30
0.0
 10
4.422
 20
-13.2604
 30
0.0
 10
6.922
 20
-13.6133
 30
0.0
 10
6.922
 20
-13.6133
 30
0.0
 10
6.922
 20
-13.6133
 30
0.0
 10
6.922
 20
-13.6133
 30
0.0
 10
6.922
 20
-13.6916
 30
0.0
 10
6.922
 20
-13.6916
 30
0.0
 10
6.922
 20
-13.6916
 30
0.0
 10
6.922
 20
-13.6916
 30
0.0
 10
4.422
 20
-14.0679
 30
0.0
 10
4.422
 20
-14.0679
 30
0.0
 10
4.422
 20
-14.0679
 30
0.0
 10
4.422
 20
-14.0679
 30
0.0
 10
4.422
 20
-13.2604
 30
0.0
 10
4.422
 20
-13.2604
 30
0.0
  0
SPLINE
  5
15C
330
1F
100
AcDbEntity
  8
DEFAULT_1
 62
   250
100
AcDbSpline
210
0.0
220
0.0
230
1.0
 70
    11
 71
     3
 72
    20
 73
    16
 74
     0
 42
0.0000000001
 43
0.0000000001
 40
0.0
 40
0.0
 40
0.0
 40
0.0
 40
0.2
 40
0.2
 40
0.2
 40
0.2
 40
0.4
 40
0.4
 40
0.4
 40
0.4
 40
0.6
 40
0.6
 40
0.6
 40
0.6
 40
1.0
 40
1.0
 40
1.0
 40
1.0
 10
1.517
 20
-14.075
 30
0.0
 10
1.517
 20
-14.075
 30
0.0
 10
-0.983
 20
-13.7221
 30
0.0
 10
-0.983
 20
-13.7221
 30
0.0
 10
-0.983
 20
-13.7221
 30
0.0
 10
-0.983
 20
-13.7221
 30
0.0
 10
-0.983
 20
-13.6438
 30
0.0
 10
-0.983
 20
-13.6438
 30
0.0
 10
-0.983
 20
-13.6438
 30
0.0
 10
-0.983
 20
-13.6438
 30
0.0
 10
1.517
 20
-13.2675
 30
0.0
 10
1.517
 20
-13.2675
 30
0.0
 10
1.517
 20
-13.2675
 30
0.0
 10
1.517
 20
-13.2675
 30
0.0
 10
1.517
 20
-14.075
 30
0.0
 10
1.517
 20
-14.075
 30
0.0
  0
ENDSEC
  0
SECTION
  2
OBJECTS
  0
DICTIONARY
  5
C
330
0
100
AcDbDictionary
  3
ACAD_GROUP
350
D
  3
ACAD_LAYOUT
350
1A
  3
ACAD_MATERIAL
350
3B
  3
ACAD_MLEADERSTYLE
350
17F
  3
ACAD_MLINESTYLE
350
17
  3
ACAD_PLOTSETTINGS
350
19
  3
ACAD_VISUALSTYLE
350
2A
  3
ACDBHEADERROUNDTRIPXREC
350
15D
  3
ACDBVARIABLEDICTIONARY
350
17D
  0
DICTIONARY
  5
D
102
{ACAD_REACTORS
330
C
102
}
330
C
100
AcDbDictionary
  0
DICTIONARY
  5
1A
102
{ACAD_REACTORS
330
C
102
}
330
C
100
AcDbDictionary
  0
DICTIONARY
  5
3B
102
{ACAD_REACTORS
330
C
102
}
330
C
100
AcDbDictionary
  3
BYBLOCK
350
3D
  3
BYLAYER
350
3C
  3
GLOBAL
350
3E
  0
DICTIONARY
  5
17F
102
{ACAD_REACTORS
330
C
102
}
330
C
100
AcDbDictionary
  0
DICTIONARY
  5
17
102
{ACAD_REACTORS
330
C
102
}
330
C
100
AcDbDictionary
  3
STANDARD
350
18
  0
DICTIONARY
  5
19
102
{ACAD_REACTORS
330
C
102
}
330
C
100
AcDbDictionary
  0
DICTIONARY
  5
2A
102
{ACAD_REACTORS
330
C
102
}
330
C
100
AcDbDictionary
  3
2DWIREFRAME
350
2F
  3
3D_HIDDEN
350
31
  3
3DWIREFRAME
350
30
  3
BASIC
350
32
  3
BRIGHTEN
350
36
  3
COLORCHANGE
350
3A
  3
CONCEPTUAL
350
34
  3
DIM
350
35
  3
FACEPATTERN
350
39
  3
FLAT
350
2B
  3
FLATWITHEDGES
350
2C
  3
GOURAUD
350
2D
  3
GOURAUDWITHEDGES
350
2E
  3
LINEPATTERN
350
38
  3
REALISTIC
350
33
  3
THICKEN
350
37
  0
DICTIONARY
  5
15D
102
{ACAD_REACTORS
330
C
102
}
330
C
100
AcDbDictionary
  3
CEPSNTYPE
350
166
  3
DIMSTYLEDATA
350
17C
  3
FINGERPRINTGUID
350
167
  3
HYPERLINKBASE
350
160
  3
INSUNITS
350
165
  3
LAYOUTDICT
350
162
  3
LWETCUNION
350
164
  3
PLOTSETDICT
350
163
  3
PSVPSCALE
350
169
  3
PUCSBASE
350
16C
  3
PUCSORGBACK
350
172
  3
PUCSORGBOTTOM
350
16E
  3
PUCSORGFRONT
350
171
  3
PUCSORGLEFT
350
16F
  3
PUCSORGRIGHT
350
170
  3
PUCSORGTOP
350
16D
  3
PUCSORTHOREF
350
16A
  3
PUCSORTHOVIEW
350
16B
  3
STYLESHEET
350
161
  3
TSTACKALIGN
350
15E
  3
TSTACKSIZE
350
15F
  3
UCSBASE
350
175
  3
UCSORGBACK
350
17B
  3
UCSORGBOTTOM
350
177
  3
UCSORGFRONT
350
17A
  3
UCSORGLEFT
350
178
  3
UCSORGRIGHT
350
179
  3
UCSORGTOP
350
176
  3
UCSORTHOREF
350
173
  3
UCSORTHOVIEW
350
174
  3
VERSIONGUID
350
168
  0
DICTIONARY
  5
17D
102
{ACAD_REACTORS
330
C
102
}
330
C
100
AcDbDictionary
  3
DIMASSOC
350
180
  3
HIDETEXT
350
181
  0
MATERIAL
  5
3D
102
{ACAD_REACTORS
330
3B
102
}
102
{ACAD_XDICTIONARY
360
184
102
}
330
3B
100
AcDbMaterial
  1
ByBlock
  0
MATERIAL
  5
3C
102
{ACAD_REACTORS
330
3B
102
}
102
{ACAD_XDICTIONARY
360
182
102
}
330
3B
100
AcDbMaterial
  1
ByLayer
  0
MATERIAL
  5
3E
102
{ACAD_REACTORS
330
3B
102
}
102
{ACAD_XDICTIONARY
360
186
102
}
330
3B
100
AcDbMaterial
  1
Global
  0
MLINESTYLE
  5
18
102
{ACAD_REACTORS
330
17
102
}
330
17
100
AcDbMlineStyle
  2
Standard
 70
     0
  3

 62
   256
 51
90.0
 52
90.0
 71
     2
 49
0.5
 62
   256
  6
BYLAYER
 49
-0.5
 62
   256
  6
BYLAYER
  0
ACAD_PROXY_OBJECT
  5
2F
102
{ACAD_REACTORS
330
2A
102
}
330
2A
100
AcDbProxyObject
 90
      499
 91
      501
 93
      436
310
42CC9915DA5C99599C985B595049028333333333333E3BF0000000000000FB0107901411070040501600405405064090741402480A0340
1001
ACAD
1000
AcDbSavedByObjectVersion
1070
     0
  0
ACAD_PROXY_OBJECT
  5
31
102
{ACAD_REACTORS
330
2A
102
}
330
2A
100
AcDbProxyObject
 90
      499
 91
      501
 93
      500
310
424CD108121A5919195B90640502408333333333333E3BF0000000000000FB01079024090700405020000000000001110200405405064090740C02480A0340
1001
ACAD
1000
AcDbSavedByObjectVersion
1070
     0
  0
ACAD_PROXY_OBJECT
  5
30
102
{ACAD_REACTORS
330
2A
102
}
330
2A
100
AcDbProxyObject
 90
      499
 91
      501
 93
      436
310
42CCD915DA5C99599C985B595059028333333333333E3BF0000000000000FB0107901411070040501600405405064090741402480A0340
1001
ACAD
1000
AcDbSavedByObjectVersion
1070
     0
  0
ACAD_PROXY_OBJECT
  5
32
102
{ACAD_REACTORS
330
2A
102
}
330
2A
100
AcDbProxyObject
 90
      499
 91
      501
 93
      388
310
4150985CDA58D07406404333333333333E3BF0000000000000FB0107A41107004050150841D405064090741402480A0350
1001
ACAD
1000
AcDbSavedByObjectVersion
1070
     0
  0
ACAD_PROXY_OBJECT
  5
36
102
{ACAD_REACTORS
330
2A
102
}
330
2A
100
AcDbProxyObject
 90
      499
 91
      501
 93
      428
310
42109C9A59DA1D195B90C409028333333333333E3BF0000000000000FB010790141107004050150841D405064090741402480A029950
1001
ACAD
1000
AcDbSavedByObjectVersion
1070
     0
  0
ACAD_PROXY_OBJECT
  5
3A
102
{ACAD_REACTORS
330
2A
102
}
330
2A
100
AcDbProxyObject
 90
      499
 91
      501
 93
      452
310
42D0DBDB1BDC90DA185B99D95104090240C333333333333E3BF0000000000000FB0108901411070040501508421405064090741402480A0350
1001
ACAD
1000
AcDbSavedByObjectVersion
1070
     0
  0
ACAD_PROXY_OBJECT
  5
34
102
{ACAD_REACTORS
330
2A
102
}
330
2A
100
AcDbProxyObject
 90
      499
 91
      501
 93
      500
310
4290DBDB98D95C1D1D585B10940D028333333333333E3BF0000000000000FB0107902409070040501000000000000111010841D405064090740C02480A0340
1001
ACAD
1000
AcDbSavedByObjectVersion
1070
     0
  0
ACAD_PROXY_OBJECT
  5
35
102
{ACAD_REACTORS
330
2A
102
}
330
2A
100
AcDbProxyObject
 90
      499
 91
      501
 93
      412
310
40D11A5B50B409028333333333333E3BF0000000000000FB010790141107004050150841D405064090741402480A02677FFFFFD0
1001
ACAD
1000
AcDbSavedByObjectVersion
1070
     0
  0
ACAD_PROXY_OBJECT
  5
39
102
{ACAD_REACTORS
330
2A
102
}
330
2A
100
AcDbProxyObject
 90
      499
 91
      501
 93
      444
310
42D19858D95C185D1D195C9B90F409028333333333333E3BF0000000000000FB010790141107004050150841D405064090741402480A0350
1001
ACAD
1000
AcDbSavedByObjectVersion
1070
     0
  0
ACAD_PROXY_OBJECT
  5
2B
102
{ACAD_REACTORS
330
2A
102
}
330
2A
100
AcDbProxyObject
 90
      499
 91
      501
 93
      388
310
41119B185D240901404333333333333E3BF0000000000000F9010740A41107004050150841D405064090741402480A1B50
1001
ACAD
1000
AcDbSavedByObjectVersion
1070
     0
  0
ACAD_PROXY_OBJECT
  5
2C
102
{ACAD_REACTORS
330
2A
102
}
330
2A
100
AcDbProxyObject
 90
      499
 91
      501
 93
      476
310
43519B185D15DA5D1A115919D95CD0140901404333333333333E3BF0000000000000F9010740901411070040501600405405064090741402480A1B50
1001
ACAD
1000
AcDbSavedByObjectVersion
1070
     0
  0
ACAD_PROXY_OBJECT
  5
2D
102
{ACAD_REACTORS
330
2A
102
}
330
2A
100
AcDbProxyObject
 90
      499
 91
      501
 93
      412
310
41D1DBDD5C985D5910240902404333333333333E3BF0000000000000F9010740A411070040501641D405064090741402480A1B50
1001
ACAD
1000
AcDbSavedByObjectVersion
1070
     0
  0
ACAD_PROXY_OBJECT
  5
2E
102
{ACAD_REACTORS
330
2A
102
}
330
2A
100
AcDbProxyObject
 90
      499
 91
      501
 93
      500
310
4411DBDD5C985D5915DA5D1A115919D95CD0340902404333333333333E3BF0000000000000F9010740901411070040501600405405064090741402480A1B50
1001
ACAD
1000
AcDbSavedByObjectVersion
1070
     0
  0
ACAD_PROXY_OBJECT
  5
38
102
{ACAD_REACTORS
330
2A
102
}
330
2A
100
AcDbProxyObject
 90
      499
 91
      501
 93
      444
310
42D31A5B995C185D1D195C9B90E409028333333333333E3BF0000000000000FB010790141107004050750841D405064090741402483A0350
1001
ACAD
1000
AcDbSavedByObjectVersion
1070
     0
  0
ACAD_PROXY_OBJECT
  5
33
102
{ACAD_REACTORS
330
2A
102
}
330
2A
100
AcDbProxyObject
 90
      499
 91
      501
 93
      420
310
425499585B1A5CDD1A58D08409028333333333333E3BF0000000000000FB01079019070040501508421405064090741402480A1B40
1001
ACAD
1000
AcDbSavedByObjectVersion
1070
     0
  0
ACAD_PROXY_OBJECT
  5
37
102
{ACAD_REACTORS
330
2A
102
}
330
2A
100
AcDbProxyObject
 90
      499
 91
      501
 93
      412
310
41D51A1A58DAD95B90D409028333333333333E3BF0000000000000FB010790141107004050150C41D405064090741402480A0350
1001
ACAD
1000
AcDbSavedByObjectVersion
1070
     0
  0
XRECORD
  5
166
102
{ACAD_REACTORS
330
15D
102
}
330
15D
100
AcDbXrecord
 90
        0
  0
XRECORD
  5
17C
102
{ACAD_REACTORS
330
15D
102
}
330
15D
100
AcDbXrecord
1000
DSTYLE
1002
{
1070
   340
340
11
1002
}
  0
XRECORD
  5
167
102
{ACAD_REACTORS
330
15D
102
}
330
15D
100
AcDbXrecord
  1
{3EE31EC0-AA48-4A14-B124-537A9F18FD49}
  0
XRECORD
  5
160
102
{ACAD_REACTORS
330
15D
102
}
330
15D
100
AcDbXrecord
  1

  0
XRECORD
  5
165
102
{ACAD_REACTORS
330
15D
102
}
330
15D
100
AcDbXrecord
 90
        4
  0
XRECORD
  5
162
102
{ACAD_REACTORS
330
15D
102
}
330
15D
100
AcDbXrecord
340
1A
  0
XRECORD
  5
164
102
{ACAD_REACTORS
330
15D
102
}
330
15D
100
AcDbXrecord
 90
    10781
  0
XRECORD
  5
163
102
{ACAD_REACTORS
330
15D
102
}
330
15D
100
AcDbXrecord
340
19
  0
XRECORD
  5
169
102
{ACAD_REACTORS
330
15D
102
}
330
15D
100
AcDbXrecord
 40
0.0
  0
XRECORD
  5
16C
102
{ACAD_REACTORS
330
15D
102
}
330
15D
100
AcDbXrecord
340
0
  0
XRECORD
  5
172
102
{ACAD_REACTORS
330
15D
102
}
330
15D
100
AcDbXrecord
 10
0.0
 20
0.0
 30
0.0
  0
XRECORD
  5
16E
102
{ACAD_REACTORS
330
15D
102
}
330
15D
100
AcDbXrecord
 10
0.0
 20
0.0
 30
0.0
  0
XRECORD
  5
171
102
{ACAD_REACTORS
330
15D
102
}
330
15D
100
AcDbXrecord
 10
0.0
 20
0.0
 30
0.0
  0
XRECORD
  5
16F
102
{ACAD_REACTORS
330
15D
102
}
330
15D
100
AcDbXrecord
 10
0.0
 20
0.0
 30
0.0
  0
XRECORD
  5
170
102
{ACAD_REACTORS
330
15D
102
}
330
15D
100
AcDbXrecord
 10
0.0
 20
0.0
 30
0.0
  0
XRECORD
  5
16D
102
{ACAD_REACTORS
330
15D
102
}
330
15D
100
AcDbXrecord
 10
0.0
 20
0.0
 30
0.0
  0
XRECORD
  5
16A
102
{ACAD_REACTORS
330
15D
102
}
330
15D
100
AcDbXrecord
340
0
  0
XRECORD
  5
16B
102
{ACAD_REACTORS
330
15D
102
}
330
15D
100
AcDbXrecord
 70
     0
  0
XRECORD
  5
161
102
{ACAD_REACTORS
330
15D
102
}
330
15D
100
AcDbXrecord
  1

  0
XRECORD
  5
15E
102
{ACAD_REACTORS
330
15D
102
}
330
15D
100
AcDbXrecord
 90
        1
  0
XRECORD
  5
15F
102
{ACAD_REACTORS
330
15D
102
}
330
15D
100
AcDbXrecord
 90
       70
  0
XRECORD
  5
175
102
{ACAD_REACTORS
330
15D
102
}
330
15D
100
AcDbXrecord
340
0
  0
XRECORD
  5
17B
102
{ACAD_REACTORS
330
15D
102
}
330
15D
100
AcDbXrecord
 10
0.0
 20
0.0
 30
0.0
  0
XRECORD
  5
177
102
{ACAD_REACTORS
330
15D
102
}
330
15D
100
AcDbXrecord
 10
0.0
 20
0.0
 30
0.0
  0
XRECORD
  5
17A
102
{ACAD_REACTORS
330
15D
102
}
330
15D
100
AcDbXrecord
 10
0.0
 20
0.0
 30
0.0
  0
XRECORD
  5
178
102
{ACAD_REACTORS
330
15D
102
}
330
15D
100
AcDbXrecord
 10
0.0
 20
0.0
 30
0.0
  0
XRECORD
  5
179
102
{ACAD_REACTORS
330
15D
102
}
330
15D
100
AcDbXrecord
 10
0.0
 20
0.0
 30
0.0
  0
XRECORD
  5
176
102
{ACAD_REACTORS
330
15D
102
}
330
15D
100
AcDbXrecord
 10
0.0
 20
0.0
 30
0.0
  0
XRECORD
  5
173
102
{ACAD_REACTORS
330
15D
102
}
330
15D
100
AcDbXrecord
340
0
  0
XRECORD
  5
174
102
{ACAD_REACTORS
330
15D
102
}
330
15D
100
AcDbXrecord
 70
     0
  0
XRECORD
  5
168
102
{ACAD_REACTORS
330
15D
102
}
330
15D
100
AcDbXrecord
  1
{FAEB1C32-E019-11D5-929B-00C0DF256EC4}
  0
DICTIONARYVAR
  5
180
102
{ACAD_REACTORS
330
17D
102
}
330
17D
100
DictionaryVariables
280
     0
  1
2
  0
DICTIONARYVAR
  5
181
102
{ACAD_REACTORS
330
17D
102
}
330
17D
100
DictionaryVariables
280
     0
  1
1
  0
DICTIONARY
  5
184
330
3D
100
AcDbDictionary
280
     1
  3
ACAD_XREC_ROUNDTRIP
360
185
  0
DICTIONARY
  5
182
330
3C
100
AcDbDictionary
280
     1
  3
ACAD_XREC_ROUNDTRIP
360
183
  0
DICTIONARY
  5
186
330
3E
100
AcDbDictionary
280
     1
  3
ACAD_XREC_ROUNDTRIP
360
187
  0
XRECORD
  5
185
102
{ACAD_REACTORS
330
184
102
}
330
184
100
AcDbXrecord
102
MATERIAL
148
0.0
149
0.0
149
0.0
 93
        0
 94
      127
282
     0
 72
     1
 77
     1
171
     1
175
     1
179
     1
273
     0
  0
XRECORD
  5
183
102
{ACAD_REACTORS
330
182
102
}
330
182
100
AcDbXrecord
102
MATERIAL
148
0.0
149
0.0
149
0.0
 93
        0
 94
      127
282
     0
 72
     1
 77
     1
171
     1
175
     1
179
     1
273
     0
  0
XRECORD
  5
187
102
{ACAD_REACTORS
330
186
102
}
330
186
100
AcDbXrecord
102
MATERIAL
148
0.0
149
0.0
149
0.0
 93
        0
 94
      127
282
     0
 72
     1
 77
     1
171
     1
175
     1
179
     1
273
     0
  0
ENDSEC
  0
EOF
