  0
SECTION
  2
HEADER
  9
$ACADVER
  1
AC1014
  9
$ACADMAINTVER
 70
     9
  9
$DWGCODEPAGE
  3
ANSI_1250
  9
$INSBASE
 10
0.0
 20
0.0
 30
0.0
  9
$EXTMIN
 10
-39.5617
 20
-26.2327
 30
0.0
  9
$EXTMAX
 10
39.7026
 20
26.1609
 30
0.0
  9
$LIMMIN
 10
0.0
 20
0.0
  9
$LIMMAX
 10
12.0
 20
9.0
  9
$ORTHOMODE
 70
     0
  9
$REGENMODE
 70
     1
  9
$FILLMODE
 70
     1
  9
$QTEXTMODE
 70
     0
  9
$MIRRTEXT
 70
     1
  9
$DRAGMODE
 70
     2
  9
$LTSCALE
 40
1.0
  9
$OSMODE
 70
    37
  9
$ATTMODE
 70
     1
  9
$TEXTSIZE
 40
0.2
  9
$TRACEWID
 40
0.05
  9
$TEXTSTYLE
  7
STANDARD
  9
$CLAYER
  8
0
  9
$CELTYPE
  6
BYLAYER
  9
$CECOLOR
 62
   256
  9
$CELTSCALE
 40
1.0
  9
$DELOBJ
 70
     1
  9
$DISPSILH
 70
     0
  9
$DIMSCALE
 40
1.0
  9
$DIMASZ
 40
0.18
  9
$DIMEXO
 40
0.0625
  9
$DIMDLI
 40
0.38
  9
$DIMRND
 40
0.0
  9
$DIMDLE
 40
0.0
  9
$DIMEXE
 40
0.18
  9
$DIMTP
 40
0.0
  9
$DIMTM
 40
0.0
  9
$DIMTXT
 40
0.18
  9
$DIMCEN
 40
0.09
  9
$DIMTSZ
 40
0.0
  9
$DIMTOL
 70
     0
  9
$DIMLIM
 70
     0
  9
$DIMTIH
 70
     1
  9
$DIMTOH
 70
     1
  9
$DIMSE1
 70
     0
  9
$DIMSE2
 70
     0
  9
$DIMTAD
 70
     0
  9
$DIMZIN
 70
     0
  9
$DIMBLK
  1

  9
$DIMASO
 70
     1
  9
$DIMSHO
 70
     1
  9
$DIMPOST
  1

  9
$DIMAPOST
  1

  9
$DIMALT
 70
     0
  9
$DIMALTD
 70
     2
  9
$DIMALTF
 40
25.4
  9
$DIMLFAC
 40
1.0
  9
$DIMTOFL
 70
     0
  9
$DIMTVP
 40
0.0
  9
$DIMTIX
 70
     0
  9
$DIMSOXD
 70
     0
  9
$DIMSAH
 70
     0
  9
$DIMBLK1
  1

  9
$DIMBLK2
  1

  9
$DIMSTYLE
  2
STANDARD
  9
$DIMCLRD
 70
     0
  9
$DIMCLRE
 70
     0
  9
$DIMCLRT
 70
     0
  9
$DIMTFAC
 40
1.0
  9
$DIMGAP
 40
0.09
  9
$DIMJUST
 70
     0
  9
$DIMSD1
 70
     0
  9
$DIMSD2
 70
     0
  9
$DIMTOLJ
 70
     1
  9
$DIMTZIN
 70
     0
  9
$DIMALTZ
 70
     0
  9
$DIMALTTZ
 70
     0
  9
$DIMFIT
 70
     3
  9
$DIMUPT
 70
     0
  9
$DIMUNIT
 70
     2
  9
$DIMDEC
 70
     4
  9
$DIMTDEC
 70
     4
  9
$DIMALTU
 70
     2
  9
$DIMALTTD
 70
     2
  9
$DIMTXSTY
  7
STANDARD
  9
$DIMAUNIT
 70
     0
  9
$LUNITS
 70
     2
  9
$LUPREC
 70
     4
  9
$SKETCHINC
 40
0.1
  9
$FILLETRAD
 40
0.5
  9
$AUNITS
 70
     0
  9
$AUPREC
 70
     0
  9
$MENU
  1
.
  9
$ELEVATION
 40
0.0
  9
$PELEVATION
 40
0.0
  9
$THICKNESS
 40
0.0
  9
$LIMCHECK
 70
     0
  9
$CHAMFERA
 40
0.5
  9
$CHAMFERB
 40
0.5
  9
$CHAMFERC
 40
1.0
  9
$CHAMFERD
 40
0.0
  9
$SKPOLY
 70
     0
  9
$TDCREATE
 40
2456268.553547511
  9
$TDUPDATE
 40
2456268.553547523
  9
$TDINDWG
 40
0.0000000116
  9
$TDUSRTIMER
 40
0.0000000116
  9
$USRTIMER
 70
     1
  9
$ANGBASE
 50
0.0
  9
$ANGDIR
 70
     0
  9
$PDMODE
 70
     0
  9
$PDSIZE
 40
0.0
  9
$PLINEWID
 40
0.0
  9
$COORDS
 70
     1
  9
$SPLFRAME
 70
     0
  9
$SPLINETYPE
 70
     6
  9
$SPLINESEGS
 70
     8
  9
$ATTDIA
 70
     0
  9
$ATTREQ
 70
     1
  9
$HANDLING
 70
     1
  9
$HANDSEED
  5
253
  9
$SURFTAB1
 70
     6
  9
$SURFTAB2
 70
     6
  9
$SURFTYPE
 70
     6
  9
$SURFU
 70
     6
  9
$SURFV
 70
     6
  9
$UCSNAME
  2

  9
$UCSORG
 10
0.0
 20
0.0
 30
0.0
  9
$UCSXDIR
 10
1.0
 20
0.0
 30
0.0
  9
$UCSYDIR
 10
0.0
 20
1.0
 30
0.0
  9
$PUCSNAME
  2

  9
$PUCSORG
 10
0.0
 20
0.0
 30
0.0
  9
$PUCSXDIR
 10
1.0
 20
0.0
 30
0.0
  9
$PUCSYDIR
 10
0.0
 20
1.0
 30
0.0
  9
$USERI1
 70
     0
  9
$USERI2
 70
     0
  9
$USERI3
 70
     0
  9
$USERI4
 70
     0
  9
$USERI5
 70
     0
  9
$USERR1
 40
0.0
  9
$USERR2
 40
0.0
  9
$USERR3
 40
0.0
  9
$USERR4
 40
0.0
  9
$USERR5
 40
0.0
  9
$WORLDVIEW
 70
     1
  9
$SHADEDGE
 70
     3
  9
$SHADEDIF
 70
    70
  9
$TILEMODE
 70
     1
  9
$MAXACTVP
 70
    64
  9
$PINSBASE
 10
0.0
 20
0.0
 30
0.0
  9
$PLIMCHECK
 70
     0
  9
$PEXTMIN
 10
1.000000000000000E+20
 20
1.000000000000000E+20
 30
1.000000000000000E+20
  9
$PEXTMAX
 10
-1.000000000000000E+20
 20
-1.000000000000000E+20
 30
-1.000000000000000E+20
  9
$PLIMMIN
 10
0.0
 20
0.0
  9
$PLIMMAX
 10
12.0
 20
9.0
  9
$UNITMODE
 70
     0
  9
$VISRETAIN
 70
     1
  9
$PLINEGEN
 70
     0
  9
$PSLTSCALE
 70
     1
  9
$TREEDEPTH
 70
  3020
  9
$PICKSTYLE
 70
     1
  9
$CMLSTYLE
  2
STANDARD
  9
$CMLJUST
 70
     0
  9
$CMLSCALE
 40
1.0
  9
$PROXYGRAPHICS
 70
     1
  9
$MEASUREMENT
 70
     0
  0
ENDSEC
  0
SECTION
  2
CLASSES
  0
CLASS
  1
ACDBDICTIONARYWDFLT
  2
AcDbDictionaryWithDefault
  3
ObjectDBX Classes
 90
        0
280
     0
281
     0
  0
CLASS
  1
VISUALSTYLE
  2
AcDbVisualStyle
  3
ObjectDBX Classes
 90
     4095
280
     0
281
     0
  0
CLASS
  1
MATERIAL
  2
AcDbMaterial
  3
ObjectDBX Classes
 90
     1153
280
     0
281
     0
  0
CLASS
  1
DICTIONARYVAR
  2
AcDbDictionaryVar
  3
ObjectDBX Classes
 90
        0
280
     0
281
     0
  0
CLASS
  1
XRECORD
  2
AcDbXrecord
  3
AutoCAD 2000
 90
        0
280
     0
281
     0
  0
CLASS
  1
LWPOLYLINE
  2
AcDbPolyline
  3
AutoCAD 2000
 90
        0
280
     0
281
     1
  0
CLASS
  1
HATCH
  2
AcDbHatch
  3
AutoCAD 2000
 90
        0
280
     0
281
     1
  0
CLASS
  1
ACDBPLACEHOLDER
  2
AcDbPlaceHolder
  3
ObjectDBX Classes
 90
        0
280
     0
281
     0
  0
CLASS
  1
LAYOUT
  2
AcDbLayout
  3
ObjectDBX Classes
 90
        0
280
     0
281
     0
  0
ENDSEC
  0
SECTION
  2
TABLES
  0
TABLE
  2
VPORT
  5
8
330
0
100
AcDbSymbolTable
 70
     1
  0
VPORT
  5
29
330
8
100
AcDbSymbolTableRecord
100
AcDbViewportTableRecord
  2
*ACTIVE
 70
     0
 10
0.0
 20
0.0
 11
1.0
 21
1.0
 12
10.42990654205607
 22
4.5
 13
0.0
 23
0.0
 14
0.5
 24
0.5
 15
0.5
 25
0.5
 16
0.0
 26
0.0
 36
1.0
 17
0.0
 27
0.0
 37
0.0
 40
9.0
 41
1.972972972850329
 42
50.0
 43
0.0
 44
0.0
 50
0.0
 51
0.0
 71
     0
 72
   100
 73
     1
 74
     3
 75
     0
 76
     0
 77
     0
 78
     0
  0
ENDTAB
  0
TABLE
  2
LTYPE
  5
5
330
0
100
AcDbSymbolTable
 70
     1
  0
LTYPE
  5
14
330
5
100
AcDbSymbolTableRecord
100
AcDbLinetypeTableRecord
  2
BYBLOCK
 70
     0
  3

 72
    65
 73
     0
 40
0.0
  0
LTYPE
  5
15
330
5
100
AcDbSymbolTableRecord
100
AcDbLinetypeTableRecord
  2
BYLAYER
 70
     0
  3

 72
    65
 73
     0
 40
0.0
  0
LTYPE
  5
16
330
5
100
AcDbSymbolTableRecord
100
AcDbLinetypeTableRecord
  2
CONTINUOUS
 70
     0
  3
Solid line
 72
    65
 73
     0
 40
0.0
  0
ENDTAB
  0
TABLE
  2
LAYER
  5
2
330
0
100
AcDbSymbolTable
 70
     2
  0
LAYER
  5
10
330
2
100
AcDbSymbolTableRecord
100
AcDbLayerTableRecord
  2
0
 70
     0
 62
     7
  6
CONTINUOUS
  0
LAYER
  5
40
330
2
100
AcDbSymbolTableRecord
100
AcDbLayerTableRecord
  2
ROUND
 70
     0
 62
     7
  6
CONTINUOUS
  0
ENDTAB
  0
TABLE
  2
STYLE
  5
3
330
0
100
AcDbSymbolTable
 70
     1
  0
STYLE
  5
11
330
3
100
AcDbSymbolTableRecord
100
AcDbTextStyleTableRecord
  2
STANDARD
 70
     0
 40
0.0
 41
1.0
 50
0.0
 71
     0
 42
0.2
  3
txt
  4

  0
ENDTAB
  0
TABLE
  2
VIEW
  5
6
330
0
100
AcDbSymbolTable
 70
     0
  0
ENDTAB
  0
TABLE
  2
UCS
  5
7
330
0
100
AcDbSymbolTable
 70
     0
  0
ENDTAB
  0
TABLE
  2
APPID
  5
9
330
0
100
AcDbSymbolTable
 70
     2
  0
APPID
  5
12
330
9
100
AcDbSymbolTableRecord
100
AcDbRegAppTableRecord
  2
ACAD
 70
     0
  0
APPID
  5
3F
330
9
100
AcDbSymbolTableRecord
100
AcDbRegAppTableRecord
  2
ODA
 70
     0
  0
ENDTAB
  0
TABLE
  2
DIMSTYLE
  5
A
330
0
100
AcDbSymbolTable
 70
     1
  0
DIMSTYLE
105
27
330
A
100
AcDbSymbolTableRecord
100
AcDbDimStyleTableRecord
  2
STANDARD
 70
     0
  3

  4

  5

  6

  7

 40
1.0
 41
0.18
 42
0.0625
 43
0.38
 44
0.18
 45
0.0
 46
0.0
 47
0.0
 48
0.0
140
0.18
141
0.09
142
0.0
143
25.4
144
1.0
145
0.0
146
1.0
147
0.09
 71
     0
 72
     0
 73
     1
 74
     1
 75
     0
 76
     0
 77
     0
 78
     0
170
     0
171
     2
172
     0
173
     0
174
     0
175
     0
176
     0
177
     0
178
     0
270
     2
271
     4
272
     4
273
     2
274
     2
340
11
275
     0
280
     0
281
     0
282
     0
283
     1
284
     0
285
     0
286
     0
287
     3
288
     0
  0
ENDTAB
  0
TABLE
  2
BLOCK_RECORD
  5
1
330
0
100
AcDbSymbolTable
 70
     1
  0
BLOCK_RECORD
  5
1F
330
1
100
AcDbSymbolTableRecord
100
AcDbBlockTableRecord
  2
*MODEL_SPACE
  0
BLOCK_RECORD
  5
1B
330
1
100
AcDbSymbolTableRecord
100
AcDbBlockTableRecord
  2
*PAPER_SPACE
  0
ENDTAB
  0
ENDSEC
  0
SECTION
  2
BLOCKS
  0
BLOCK
  5
20
330
1F
100
AcDbEntity
  8
0
100
AcDbBlockBegin
  2
*MODEL_SPACE
 70
     0
 10
0.0
 20
0.0
 30
0.0
  3
*MODEL_SPACE
  1

  0
ENDBLK
  5
21
330
1F
100
AcDbEntity
  8
0
100
AcDbBlockEnd
  0
BLOCK
  5
1C
330
1B
100
AcDbEntity
 67
     1
  8
0
100
AcDbBlockBegin
  2
*PAPER_SPACE
 70
     0
 10
0.0
 20
0.0
 30
0.0
  3
*PAPER_SPACE
  1

  0
ENDBLK
  5
1D
330
1B
100
AcDbEntity
 67
     1
  8
0
100
AcDbBlockEnd
  0
ENDSEC
  0
SECTION
  2
ENTITIES
  0
SPLINE
  5
41
330
1F
100
AcDbEntity
  8
ROUND
 62
   250
100
AcDbSpline
210
0.0
220
0.0
230
1.0
 70
    11
 71
     3
 72
    84
 73
    80
 74
     0
 42
0.0000000001
 43
0.0000000001
 40
0.0
 40
0.0
 40
0.0
 40
0.0
 40
0.0476190476190476
 40
0.0476190476190476
 40
0.0476190476190476
 40
0.0476190476190476
 40
0.0952380952380952
 40
0.0952380952380952
 40
0.0952380952380952
 40
0.0952380952380952
 40
0.1428571428571428
 40
0.1428571428571428
 40
0.1428571428571428
 40
0.1428571428571428
 40
0.1904761904761905
 40
0.1904761904761905
 40
0.1904761904761905
 40
0.1904761904761905
 40
0.2380952380952381
 40
0.2380952380952381
 40
0.2380952380952381
 40
0.2380952380952381
 40
0.2857142857142857
 40
0.2857142857142857
 40
0.2857142857142857
 40
0.2857142857142857
 40
0.3333333333333333
 40
0.3333333333333333
 40
0.3333333333333333
 40
0.3333333333333333
 40
0.3809523809523809
 40
0.3809523809523809
 40
0.3809523809523809
 40
0.3809523809523809
 40
0.4285714285714285
 40
0.4285714285714285
 40
0.4285714285714285
 40
0.4285714285714285
 40
0.4761904761904762
 40
0.4761904761904762
 40
0.4761904761904762
 40
0.4761904761904762
 40
0.5238095238095238
 40
0.5238095238095238
 40
0.5238095238095238
 40
0.5238095238095238
 40
0.5714285714285714
 40
0.5714285714285714
 40
0.5714285714285714
 40
0.5714285714285714
 40
0.6190476190476191
 40
0.6190476190476191
 40
0.6190476190476191
 40
0.6190476190476191
 40
0.6666666666666666
 40
0.6666666666666666
 40
0.6666666666666666
 40
0.6666666666666666
 40
0.7142857142857143
 40
0.7142857142857143
 40
0.7142857142857143
 40
0.7142857142857143
 40
0.7619047619047619
 40
0.7619047619047619
 40
0.7619047619047619
 40
0.7619047619047619
 40
0.8095238095238095
 40
0.8095238095238095
 40
0.8095238095238095
 40
0.8095238095238095
 40
0.8571428571428571
 40
0.8571428571428571
 40
0.8571428571428571
 40
0.8571428571428571
 40
0.9047619047619048
 40
0.9047619047619048
 40
0.9047619047619048
 40
0.9047619047619048
 40
1.0
 40
1.0
 40
1.0
 40
1.0
 10
-15.9518
 20
25.9018
 30
0.0
 10
-15.9518
 20
25.9018
 30
0.0
 10
-15.7204
 20
26.1609
 30
0.0
 10
-15.7204
 20
26.1609
 30
0.0
 10
-15.7204
 20
26.1609
 30
0.0
 10
-15.7204
 20
26.1609
 30
0.0
 10
-15.584
 20
26.0452
 30
0.0
 10
-15.584
 20
26.0452
 30
0.0
 10
-15.584
 20
26.0452
 30
0.0
 10
-15.584
 20
26.0452
 30
0.0
 10
-15.8262
 20
25.7724
 30
0.0
 10
-15.8262
 20
25.7724
 30
0.0
 10
-15.8262
 20
25.7724
 30
0.0
 10
-15.7472
 20
25.6548
 30
0.0
 10
-15.6941
 20
25.5518
 30
0.0
 10
-15.6663
 20
25.4639
 30
0.0
 10
-15.6663
 20
25.4639
 30
0.0
 10
-15.6296
 20
25.3481
 30
0.0
 10
-15.6113
 20
25.2183
 30
0.0
 10
-15.6113
 20
25.0753
 30
0.0
 10
-15.6113
 20
25.0753
 30
0.0
 10
-15.6113
 20
24.8684
 30
0.0
 10
-15.6531
 20
24.684
 30
0.0
 10
-15.7369
 20
24.5227
 30
0.0
 10
-15.7369
 20
24.5227
 30
0.0
 10
-15.8206
 20
24.3608
 30
0.0
 10
-15.9377
 20
24.2386
 30
0.0
 10
-16.0887
 20
24.1558
 30
0.0
 10
-16.0887
 20
24.1558
 30
0.0
 10
-16.2402
 20
24.0735
 30
0.0
 10
-16.4005
 20
24.0321
 30
0.0
 10
-16.5703
 20
24.0321
 30
0.0
 10
-16.5703
 20
24.0321
 30
0.0
 10
-16.6973
 20
24.0321
 30
0.0
 10
-16.8121
 20
24.0499
 30
0.0
 10
-16.9151
 20
24.0857
 30
0.0
 10
-16.9151
 20
24.0857
 30
0.0
 10
-16.9941
 20
24.1134
 30
0.0
 10
-17.0863
 20
24.1661
 30
0.0
 10
-17.1922
 20
24.2442
 30
0.0
 10
-17.1922
 20
24.2442
 30
0.0
 10
-17.1922
 20
24.2442
 30
0.0
 10
-17.4236
 20
23.985
 30
0.0
 10
-17.4236
 20
23.985
 30
0.0
 10
-17.4236
 20
23.985
 30
0.0
 10
-17.4236
 20
23.985
 30
0.0
 10
-17.56
 20
24.1007
 30
0.0
 10
-17.56
 20
24.1007
 30
0.0
 10
-17.56
 20
24.1007
 30
0.0
 10
-17.56
 20
24.1007
 30
0.0
 10
-17.3173
 20
24.3721
 30
0.0
 10
-17.3173
 20
24.3721
 30
0.0
 10
-17.3173
 20
24.3721
 30
0.0
 10
-17.4076
 20
24.509
 30
0.0
 10
-17.4678
 20
24.6261
 30
0.0
 10
-17.4979
 20
24.723
 30
0.0
 10
-17.4979
 20
24.723
 30
0.0
 10
-17.528
 20
24.8199
 30
0.0
 10
-17.5435
 20
24.9366
 30
0.0
 10
-17.5435
 20
25.0725
 30
0.0
 10
-17.5435
 20
25.0725
 30
0.0
 10
-17.5435
 20
25.2799
 30
0.0
 10
-17.5021
 20
25.4648
 30
0.0
 10
-17.4194
 20
25.6271
 30
0.0
 10
-17.4194
 20
25.6271
 30
0.0
 10
-17.3366
 20
25.7894
 30
0.0
 10
-17.2209
 20
25.9121
 30
0.0
 10
-17.0713
 20
25.9958
 30
0.0
 10
-17.0713
 20
25.9958
 30
0.0
 10
-16.9222
 20
26.0791
 30
0.0
 10
-16.7561
 20
26.121
 30
0.0
 10
-16.5732
 20
26.121
 30
0.0
 10
-16.5732
 20
26.121
 30
0.0
 10
-16.4499
 20
26.121
 30
0.0
 10
-16.3422
 20
26.105
 30
0.0
 10
-16.25
 20
26.072
 30
0.0
 10
-16.25
 20
26.072
 30
0.0
 10
-16.1578
 20
26.0396
 30
0.0
 10
-16.0581
 20
25.9827
 30
0.0
 10
-15.9518
 20
25.9018
 30
0.0
  0
SPLINE
  5
42
330
1F
100
AcDbEntity
  8
ROUND
 62
   250
100
AcDbSpline
210
0.0
220
0.0
230
1.0
 70
    11
 71
     3
 72
    32
 73
    28
 74
     0
 42
0.0000000001
 43
0.0000000001
 40
0.0
 40
0.0
 40
0.0
 40
0.0
 40
0.125
 40
0.125
 40
0.125
 40
0.125
 40
0.25
 40
0.25
 40
0.25
 40
0.25
 40
0.375
 40
0.375
 40
0.375
 40
0.375
 40
0.5
 40
0.5
 40
0.5
 40
0.5
 40
0.625
 40
0.625
 40
0.625
 40
0.625
 40
0.75
 40
0.75
 40
0.75
 40
0.75
 40
1.0
 40
1.0
 40
1.0
 40
1.0
 10
-16.1169
 20
25.716
 30
0.0
 10
-16.2035
 20
25.7837
 30
0.0
 10
-16.2792
 20
25.8303
 30
0.0
 10
-16.3436
 20
25.8552
 30
0.0
 10
-16.3436
 20
25.8552
 30
0.0
 10
-16.4085
 20
25.8797
 30
0.0
 10
-16.4847
 20
25.8924
 30
0.0
 10
-16.5718
 20
25.8924
 30
0.0
 10
-16.5718
 20
25.8924
 30
0.0
 10
-16.7731
 20
25.8924
 30
0.0
 10
-16.9391
 20
25.8242
 30
0.0
 10
-17.0708
 20
25.6878
 30
0.0
 10
-17.0708
 20
25.6878
 30
0.0
 10
-17.2021
 20
25.5513
 30
0.0
 10
-17.2679
 20
25.3477
 30
0.0
 10
-17.2679
 20
25.0763
 30
0.0
 10
-17.2679
 20
25.0763
 30
0.0
 10
-17.2679
 20
24.97
 30
0.0
 10
-17.2576
 20
24.8754
 30
0.0
 10
-17.2373
 20
24.7926
 30
0.0
 10
-17.2373
 20
24.7926
 30
0.0
 10
-17.2227
 20
24.731
 30
0.0
 10
-17.1922
 20
24.6553
 30
0.0
 10
-17.1451
 20
24.5655
 30
0.0
 10
-17.1451
 20
24.5655
 30
0.0
 10
-17.1451
 20
24.5655
 30
0.0
 10
-16.1169
 20
25.716
 30
0.0
 10
-16.1169
 20
25.716
 30
0.0
  0
SPLINE
  5
43
330
1F
100
AcDbEntity
  8
ROUND
 62
   250
100
AcDbSpline
210
0.0
220
0.0
230
1.0
 70
    11
 71
     3
 72
    28
 73
    24
 74
     0
 42
0.0000000001
 43
0.0000000001
 40
0.0
 40
0.0
 40
0.0
 40
0.0
 40
0.1428571428571428
 40
0.1428571428571428
 40
0.1428571428571428
 40
0.1428571428571428
 40
0.2857142857142857
 40
0.2857142857142857
 40
0.2857142857142857
 40
0.2857142857142857
 40
0.4285714285714285
 40
0.4285714285714285
 40
0.4285714285714285
 40
0.4285714285714285
 40
0.5714285714285714
 40
0.5714285714285714
 40
0.5714285714285714
 40
0.5714285714285714
 40
0.7142857142857143
 40
0.7142857142857143
 40
0.7142857142857143
 40
0.7142857142857143
 40
1.0
 40
1.0
 40
1.0
 40
1.0
 10
-16.004
 20
25.5739
 30
0.0
 10
-16.004
 20
25.5739
 30
0.0
 10
-17.028
 20
24.4276
 30
0.0
 10
-17.028
 20
24.4276
 30
0.0
 10
-17.028
 20
24.4276
 30
0.0
 10
-16.9575
 20
24.3698
 30
0.0
 10
-16.8921
 20
24.3293
 30
0.0
 10
-16.8323
 20
24.3063
 30
0.0
 10
-16.8323
 20
24.3063
 30
0.0
 10
-16.7543
 20
24.2757
 30
0.0
 10
-16.6696
 20
24.2607
 30
0.0
 10
-16.5788
 20
24.2607
 30
0.0
 10
-16.5788
 20
24.2607
 30
0.0
 10
-16.3784
 20
24.2607
 30
0.0
 10
-16.2133
 20
24.3312
 30
0.0
 10
-16.0826
 20
24.4728
 30
0.0
 10
-16.0826
 20
24.4728
 30
0.0
 10
-15.9523
 20
24.6144
 30
0.0
 10
-15.8869
 20
24.8129
 30
0.0
 10
-15.8869
 20
25.0683
 30
0.0
 10
-15.8869
 20
25.0683
 30
0.0
 10
-15.8869
 20
25.2592
 30
0.0
 10
-15.9259
 20
25.4281
 30
0.0
 10
-16.004
 20
25.5739
 30
0.0
  0
SPLINE
  5
44
330
1F
100
AcDbEntity
  8
ROUND
 62
   250
100
AcDbSpline
210
0.0
220
0.0
230
1.0
 70
    11
 71
     3
 72
    40
 73
    36
 74
     0
 42
0.0000000001
 43
0.0000000001
 40
0.0
 40
0.0
 40
0.0
 40
0.0
 40
0.1
 40
0.1
 40
0.1
 40
0.1
 40
0.2
 40
0.2
 40
0.2
 40
0.2
 40
0.3
 40
0.3
 40
0.3
 40
0.3
 40
0.4
 40
0.4
 40
0.4
 40
0.4
 40
0.5
 40
0.5
 40
0.5
 40
0.5
 40
0.6
 40
0.6
 40
0.6
 40
0.6
 40
0.7
 40
0.7
 40
0.7
 40
0.7
 40
0.8
 40
0.8
 40
0.8
 40
0.8
 40
1.0
 40
1.0
 40
1.0
 40
1.0
 10
-14.4278
 20
24.0664
 30
0.0
 10
-14.4278
 20
24.0664
 30
0.0
 10
-14.6757
 20
24.0664
 30
0.0
 10
-14.6757
 20
24.0664
 30
0.0
 10
-14.6757
 20
24.0664
 30
0.0
 10
-14.6757
 20
24.0664
 30
0.0
 10
-14.6757
 20
25.6468
 30
0.0
 10
-14.6757
 20
25.6468
 30
0.0
 10
-14.6757
 20
25.6468
 30
0.0
 10
-14.7355
 20
25.5899
 30
0.0
 10
-14.8135
 20
25.533
 30
0.0
 10
-14.9104
 20
25.4761
 30
0.0
 10
-14.9104
 20
25.4761
 30
0.0
 10
-15.0078
 20
25.4192
 30
0.0
 10
-15.0948
 20
25.3764
 30
0.0
 10
-15.172
 20
25.3481
 30
0.0
 10
-15.172
 20
25.3481
 30
0.0
 10
-15.172
 20
25.3481
 30
0.0
 10
-15.172
 20
25.5876
 30
0.0
 10
-15.172
 20
25.5876
 30
0.0
 10
-15.172
 20
25.5876
 30
0.0
 10
-15.0332
 20
25.6529
 30
0.0
 10
-14.9118
 20
25.732
 30
0.0
 10
-14.8079
 20
25.8246
 30
0.0
 10
-14.8079
 20
25.8246
 30
0.0
 10
-14.7044
 20
25.9178
 30
0.0
 10
-14.6306
 20
26.0076
 30
0.0
 10
-14.5873
 20
26.0951
 30
0.0
 10
-14.5873
 20
26.0951
 30
0.0
 10
-14.5873
 20
26.0951
 30
0.0
 10
-14.4278
 20
26.0951
 30
0.0
 10
-14.4278
 20
26.0951
 30
0.0
 10
-14.4278
 20
26.0951
 30
0.0
 10
-14.4278
 20
26.0951
 30
0.0
 10
-14.4278
 20
24.0664
 30
0.0
 10
-14.4278
 20
24.0664
 30
0.0
  0
SPLINE
  5
45
330
1F
100
AcDbEntity
  8
ROUND
 62
   250
100
AcDbSpline
210
0.0
220
0.0
230
1.0
 70
    11
 71
     3
 72
    92
 73
    88
 74
     0
 42
0.0000000001
 43
0.0000000001
 40
0.0
 40
0.0
 40
0.0
 40
0.0
 40
0.0434782608695652
 40
0.0434782608695652
 40
0.0434782608695652
 40
0.0434782608695652
 40
0.0869565217391304
 40
0.0869565217391304
 40
0.0869565217391304
 40
0.0869565217391304
 40
0.1304347826086956
 40
0.1304347826086956
 40
0.1304347826086956
 40
0.1304347826086956
 40
0.1739130434782609
 40
0.1739130434782609
 40
0.1739130434782609
 40
0.1739130434782609
 40
0.2173913043478261
 40
0.2173913043478261
 40
0.2173913043478261
 40
0.2173913043478261
 40
0.2608695652173913
 40
0.2608695652173913
 40
0.2608695652173913
 40
0.2608695652173913
 40
0.3043478260869565
 40
0.3043478260869565
 40
0.3043478260869565
 40
0.3043478260869565
 40
0.3478260869565217
 40
0.3478260869565217
 40
0.3478260869565217
 40
0.3478260869565217
 40
0.391304347826087
 40
0.391304347826087
 40
0.391304347826087
 40
0.391304347826087
 40
0.4347826086956522
 40
0.4347826086956522
 40
0.4347826086956522
 40
0.4347826086956522
 40
0.4782608695652174
 40
0.4782608695652174
 40
0.4782608695652174
 40
0.4782608695652174
 40
0.5217391304347826
 40
0.5217391304347826
 40
0.5217391304347826
 40
0.5217391304347826
 40
0.5652173913043478
 40
0.5652173913043478
 40
0.5652173913043478
 40
0.5652173913043478
 40
0.6086956521739131
 40
0.6086956521739131
 40
0.6086956521739131
 40
0.6086956521739131
 40
0.6521739130434783
 40
0.6521739130434783
 40
0.6521739130434783
 40
0.6521739130434783
 40
0.6956521739130435
 40
0.6956521739130435
 40
0.6956521739130435
 40
0.6956521739130435
 40
0.7391304347826086
 40
0.7391304347826086
 40
0.7391304347826086
 40
0.7391304347826086
 40
0.782608695652174
 40
0.782608695652174
 40
0.782608695652174
 40
0.782608695652174
 40
0.8260869565217391
 40
0.8260869565217391
 40
0.8260869565217391
 40
0.8260869565217391
 40
0.8695652173913043
 40
0.8695652173913043
 40
0.8695652173913043
 40
0.8695652173913043
 40
0.9130434782608695
 40
0.9130434782608695
 40
0.9130434782608695
 40
0.9130434782608695
 40
1.0
 40
1.0
 40
1.0
 40
1.0
 10
-12.4885
 20
24.3049
 30
0.0
 10
-12.4885
 20
24.3049
 30
0.0
 10
-12.4885
 20
24.0664
 30
0.0
 10
-12.4885
 20
24.0664
 30
0.0
 10
-12.4885
 20
24.0664
 30
0.0
 10
-12.4885
 20
24.0664
 30
0.0
 10
-13.8239
 20
24.0664
 30
0.0
 10
-13.8239
 20
24.0664
 30
0.0
 10
-13.8239
 20
24.0664
 30
0.0
 10
-13.8258
 20
24.1261
 30
0.0
 10
-13.8164
 20
24.1835
 30
0.0
 10
-13.7952
 20
24.2386
 30
0.0
 10
-13.7952
 20
24.2386
 30
0.0
 10
-13.7613
 20
24.3298
 30
0.0
 10
-13.7068
 20
24.4192
 30
0.0
 10
-13.632
 20
24.5076
 30
0.0
 10
-13.632
 20
24.5076
 30
0.0
 10
-13.5567
 20
24.5956
 30
0.0
 10
-13.4485
 20
24.6976
 30
0.0
 10
-13.3074
 20
24.8133
 30
0.0
 10
-13.3074
 20
24.8133
 30
0.0
 10
-13.0878
 20
24.9935
 30
0.0
 10
-12.9391
 20
25.136
 30
0.0
 10
-12.862
 20
25.2414
 30
0.0
 10
-12.862
 20
25.2414
 30
0.0
 10
-12.7849
 20
25.3463
 30
0.0
 10
-12.7463
 20
25.446
 30
0.0
 10
-12.7463
 20
25.5396
 30
0.0
 10
-12.7463
 20
25.5396
 30
0.0
 10
-12.7463
 20
25.6379
 30
0.0
 10
-12.7816
 20
25.7207
 30
0.0
 10
-12.8516
 20
25.7884
 30
0.0
 10
-12.8516
 20
25.7884
 30
0.0
 10
-12.9222
 20
25.8557
 30
0.0
 10
-13.0139
 20
25.8895
 30
0.0
 10
-13.1268
 20
25.8895
 30
0.0
 10
-13.1268
 20
25.8895
 30
0.0
 10
-13.2463
 20
25.8895
 30
0.0
 10
-13.3418
 20
25.8538
 30
0.0
 10
-13.4133
 20
25.7818
 30
0.0
 10
-13.4133
 20
25.7818
 30
0.0
 10
-13.4852
 20
25.7103
 30
0.0
 10
-13.5214
 20
25.6111
 30
0.0
 10
-13.5224
 20
25.4846
 30
0.0
 10
-13.5224
 20
25.4846
 30
0.0
 10
-13.5224
 20
25.4846
 30
0.0
 10
-13.7773
 20
25.5104
 30
0.0
 10
-13.7773
 20
25.5104
 30
0.0
 10
-13.7773
 20
25.5104
 30
0.0
 10
-13.7599
 20
25.7009
 30
0.0
 10
-13.6941
 20
25.8458
 30
0.0
 10
-13.5802
 20
25.9455
 30
0.0
 10
-13.5802
 20
25.9455
 30
0.0
 10
-13.4664
 20
26.0452
 30
0.0
 10
-13.3131
 20
26.0951
 30
0.0
 10
-13.1212
 20
26.0951
 30
0.0
 10
-13.1212
 20
26.0951
 30
0.0
 10
-12.9274
 20
26.0951
 30
0.0
 10
-12.774
 20
26.041
 30
0.0
 10
-12.6611
 20
25.9338
 30
0.0
 10
-12.6611
 20
25.9338
 30
0.0
 10
-12.5478
 20
25.826
 30
0.0
 10
-12.4913
 20
25.6929
 30
0.0
 10
-12.4913
 20
25.5339
 30
0.0
 10
-12.4913
 20
25.5339
 30
0.0
 10
-12.4913
 20
25.453
 30
0.0
 10
-12.5078
 20
25.3735
 30
0.0
 10
-12.5412
 20
25.2955
 30
0.0
 10
-12.5412
 20
25.2955
 30
0.0
 10
-12.5741
 20
25.2174
 30
0.0
 10
-12.6292
 20
25.1351
 30
0.0
 10
-12.7058
 20
25.049
 30
0.0
 10
-12.7058
 20
25.049
 30
0.0
 10
-12.7825
 20
24.9624
 30
0.0
 10
-12.91
 20
24.8439
 30
0.0
 10
-13.0882
 20
24.6934
 30
0.0
 10
-13.0882
 20
24.6934
 30
0.0
 10
-13.2369
 20
24.5683
 30
0.0
 10
-13.3324
 20
24.4836
 30
0.0
 10
-13.3747
 20
24.4389
 30
0.0
 10
-13.3747
 20
24.4389
 30
0.0
 10
-13.417
 20
24.3947
 30
0.0
 10
-13.4518
 20
24.35
 30
0.0
 10
-13.4796
 20
24.3049
 30
0.0
 10
-13.4796
 20
24.3049
 30
0.0
 10
-13.4796
 20
24.3049
 30
0.0
 10
-12.4885
 20
24.3049
 30
0.0
 10
-12.4885
 20
24.3049
 30
0.0
  0
SPLINE
  5
46
330
1F
100
AcDbEntity
  8
ROUND
 62
   250
100
AcDbSpline
210
0.0
220
0.0
230
1.0
 70
    11
 71
     3
 72
    52
 73
    48
 74
     0
 42
0.0000000001
 43
0.0000000001
 40
0.0
 40
0.0
 40
0.0
 40
0.0
 40
0.0769230769230769
 40
0.0769230769230769
 40
0.0769230769230769
 40
0.0769230769230769
 40
0.1538461538461539
 40
0.1538461538461539
 40
0.1538461538461539
 40
0.1538461538461539
 40
0.2307692307692308
 40
0.2307692307692308
 40
0.2307692307692308
 40
0.2307692307692308
 40
0.3076923076923077
 40
0.3076923076923077
 40
0.3076923076923077
 40
0.3076923076923077
 40
0.3846153846153846
 40
0.3846153846153846
 40
0.3846153846153846
 40
0.3846153846153846
 40
0.4615384615384616
 40
0.4615384615384616
 40
0.4615384615384616
 40
0.4615384615384616
 40
0.5384615384615384
 40
0.5384615384615384
 40
0.5384615384615384
 40
0.5384615384615384
 40
0.6153846153846154
 40
0.6153846153846154
 40
0.6153846153846154
 40
0.6153846153846154
 40
0.6923076923076923
 40
0.6923076923076923
 40
0.6923076923076923
 40
0.6923076923076923
 40
0.7692307692307693
 40
0.7692307692307693
 40
0.7692307692307693
 40
0.7692307692307693
 40
0.8461538461538461
 40
0.8461538461538461
 40
0.8461538461538461
 40
0.8461538461538461
 40
1.0
 40
1.0
 40
1.0
 40
1.0
 10
-12.2228
 20
25.0626
 30
0.0
 10
-12.2228
 20
25.3016
 30
0.0
 10
-12.1983
 20
25.494
 30
0.0
 10
-12.1489
 20
25.6393
 30
0.0
 10
-12.1489
 20
25.6393
 30
0.0
 10
-12.1
 20
25.7851
 30
0.0
 10
-12.0266
 20
25.8975
 30
0.0
 10
-11.9297
 20
25.9766
 30
0.0
 10
-11.9297
 20
25.9766
 30
0.0
 10
-11.8328
 20
26.0556
 30
0.0
 10
-11.711
 20
26.0951
 30
0.0
 10
-11.5643
 20
26.0951
 30
0.0
 10
-11.5643
 20
26.0951
 30
0.0
 10
-11.4556
 20
26.0951
 30
0.0
 10
-11.3606
 20
26.073
 30
0.0
 10
-11.2788
 20
26.0292
 30
0.0
 10
-11.2788
 20
26.0292
 30
0.0
 10
-11.1969
 20
25.986
 30
0.0
 10
-11.1296
 20
25.9229
 30
0.0
 10
-11.076
 20
25.8406
 30
0.0
 10
-11.076
 20
25.8406
 30
0.0
 10
-11.0229
 20
25.7583
 30
0.0
 10
-10.981
 20
25.6581
 30
0.0
 10
-10.9509
 20
25.5401
 30
0.0
 10
-10.9509
 20
25.5401
 30
0.0
 10
-10.9203
 20
25.422
 30
0.0
 10
-10.9053
 20
25.263
 30
0.0
 10
-10.9053
 20
25.0626
 30
0.0
 10
-10.9053
 20
25.0626
 30
0.0
 10
-10.9053
 20
24.8256
 30
0.0
 10
-10.9297
 20
24.6346
 30
0.0
 10
-10.9782
 20
24.4888
 30
0.0
 10
-10.9782
 20
24.4888
 30
0.0
 10
-11.0271
 20
24.343
 30
0.0
 10
-11.1
 20
24.2306
 30
0.0
 10
-11.1969
 20
24.1511
 30
0.0
 10
-11.1969
 20
24.1511
 30
0.0
 10
-11.2938
 20
24.0716
 30
0.0
 10
-11.4161
 20
24.0321
 30
0.0
 10
-11.5643
 20
24.0321
 30
0.0
 10
-11.5643
 20
24.0321
 30
0.0
 10
-11.759
 20
24.0321
 30
0.0
 10
-11.9119
 20
24.1017
 30
0.0
 10
-12.0229
 20
24.2414
 30
0.0
 10
-12.0229
 20
24.2414
 30
0.0
 10
-12.156
 20
24.4093
 30
0.0
 10
-12.2228
 20
24.6835
 30
0.0
 10
-12.2228
 20
25.0626
 30
0.0
  0
SPLINE
  5
47
330
1F
100
AcDbEntity
  8
ROUND
 62
   250
100
AcDbSpline
210
0.0
220
0.0
230
1.0
 70
    11
 71
     3
 72
    36
 73
    32
 74
     0
 42
0.0000000001
 43
0.0000000001
 40
0.0
 40
0.0
 40
0.0
 40
0.0
 40
0.1111111111111111
 40
0.1111111111111111
 40
0.1111111111111111
 40
0.1111111111111111
 40
0.2222222222222222
 40
0.2222222222222222
 40
0.2222222222222222
 40
0.2222222222222222
 40
0.3333333333333333
 40
0.3333333333333333
 40
0.3333333333333333
 40
0.3333333333333333
 40
0.4444444444444444
 40
0.4444444444444444
 40
0.4444444444444444
 40
0.4444444444444444
 40
0.5555555555555556
 40
0.5555555555555556
 40
0.5555555555555556
 40
0.5555555555555556
 40
0.6666666666666666
 40
0.6666666666666666
 40
0.6666666666666666
 40
0.6666666666666666
 40
0.7777777777777778
 40
0.7777777777777778
 40
0.7777777777777778
 40
0.7777777777777778
 40
1.0
 40
1.0
 40
1.0
 40
1.0
 10
-11.9678
 20
25.0626
 30
0.0
 10
-11.9678
 20
24.731
 30
0.0
 10
-11.9288
 20
24.5104
 30
0.0
 10
-11.8512
 20
24.4004
 30
0.0
 10
-11.8512
 20
24.4004
 30
0.0
 10
-11.7736
 20
24.2908
 30
0.0
 10
-11.6781
 20
24.2357
 30
0.0
 10
-11.5643
 20
24.2357
 30
0.0
 10
-11.5643
 20
24.2357
 30
0.0
 10
-11.45
 20
24.2357
 30
0.0
 10
-11.3545
 20
24.2912
 30
0.0
 10
-11.2769
 20
24.4013
 30
0.0
 10
-11.2769
 20
24.4013
 30
0.0
 10
-11.1993
 20
24.5114
 30
0.0
 10
-11.1602
 20
24.732
 30
0.0
 10
-11.1602
 20
25.0626
 30
0.0
 10
-11.1602
 20
25.0626
 30
0.0
 10
-11.1602
 20
25.3952
 30
0.0
 10
-11.1993
 20
25.6163
 30
0.0
 10
-11.2769
 20
25.7254
 30
0.0
 10
-11.2769
 20
25.7254
 30
0.0
 10
-11.3545
 20
25.835
 30
0.0
 10
-11.4509
 20
25.8895
 30
0.0
 10
-11.5666
 20
25.8895
 30
0.0
 10
-11.5666
 20
25.8895
 30
0.0
 10
-11.6809
 20
25.8895
 30
0.0
 10
-11.7717
 20
25.8411
 30
0.0
 10
-11.8399
 20
25.7447
 30
0.0
 10
-11.8399
 20
25.7447
 30
0.0
 10
-11.925
 20
25.6219
 30
0.0
 10
-11.9678
 20
25.3942
 30
0.0
 10
-11.9678
 20
25.0626
 30
0.0
  0
SPLINE
  5
48
330
1F
100
AcDbEntity
  8
ROUND
 62
   250
100
AcDbSpline
210
0.0
220
0.0
230
1.0
 70
    11
 71
     3
 72
    40
 73
    36
 74
     0
 42
0.0000000001
 43
0.0000000001
 40
0.0
 40
0.0
 40
0.0
 40
0.0
 40
0.1
 40
0.1
 40
0.1
 40
0.1
 40
0.2
 40
0.2
 40
0.2
 40
0.2
 40
0.3
 40
0.3
 40
0.3
 40
0.3
 40
0.4
 40
0.4
 40
0.4
 40
0.4
 40
0.5
 40
0.5
 40
0.5
 40
0.5
 40
0.6
 40
0.6
 40
0.6
 40
0.6
 40
0.7
 40
0.7
 40
0.7
 40
0.7
 40
0.8
 40
0.8
 40
0.8
 40
0.8
 40
1.0
 40
1.0
 40
1.0
 40
1.0
 10
-9.2416
 20
14.8671
 30
0.0
 10
-9.2416
 20
14.8671
 30
0.0
 10
-9.4895
 20
14.8671
 30
0.0
 10
-9.4895
 20
14.8671
 30
0.0
 10
-9.4895
 20
14.8671
 30
0.0
 10
-9.4895
 20
14.8671
 30
0.0
 10
-9.4895
 20
16.4475
 30
0.0
 10
-9.4895
 20
16.4475
 30
0.0
 10
-9.4895
 20
16.4475
 30
0.0
 10
-9.5493
 20
16.3906
 30
0.0
 10
-9.6273
 20
16.3337
 30
0.0
 10
-9.7242
 20
16.2768
 30
0.0
 10
-9.7242
 20
16.2768
 30
0.0
 10
-9.8216
 20
16.2199
 30
0.0
 10
-9.9086
 20
16.1771
 30
0.0
 10
-9.9858
 20
16.1488
 30
0.0
 10
-9.9858
 20
16.1488
 30
0.0
 10
-9.9858
 20
16.1488
 30
0.0
 10
-9.9858
 20
16.3883
 30
0.0
 10
-9.9858
 20
16.3883
 30
0.0
 10
-9.9858
 20
16.3883
 30
0.0
 10
-9.847
 20
16.4536
 30
0.0
 10
-9.7256
 20
16.5327
 30
0.0
 10
-9.6217
 20
16.6253
 30
0.0
 10
-9.6217
 20
16.6253
 30
0.0
 10
-9.5182
 20
16.7185
 30
0.0
 10
-9.4444
 20
16.8083
 30
0.0
 10
-9.4011
 20
16.8958
 30
0.0
 10
-9.4011
 20
16.8958
 30
0.0
 10
-9.4011
 20
16.8958
 30
0.0
 10
-9.2416
 20
16.8958
 30
0.0
 10
-9.2416
 20
16.8958
 30
0.0
 10
-9.2416
 20
16.8958
 30
0.0
 10
-9.2416
 20
16.8958
 30
0.0
 10
-9.2416
 20
14.8671
 30
0.0
 10
-9.2416
 20
14.8671
 30
0.0
  0
SPLINE
  5
49
330
1F
100
AcDbEntity
  8
ROUND
 62
   250
100
AcDbSpline
210
0.0
220
0.0
230
1.0
 70
    11
 71
     3
 72
    52
 73
    48
 74
     0
 42
0.0000000001
 43
0.0000000001
 40
0.0
 40
0.0
 40
0.0
 40
0.0
 40
0.0769230769230769
 40
0.0769230769230769
 40
0.0769230769230769
 40
0.0769230769230769
 40
0.1538461538461539
 40
0.1538461538461539
 40
0.1538461538461539
 40
0.1538461538461539
 40
0.2307692307692308
 40
0.2307692307692308
 40
0.2307692307692308
 40
0.2307692307692308
 40
0.3076923076923077
 40
0.3076923076923077
 40
0.3076923076923077
 40
0.3076923076923077
 40
0.3846153846153846
 40
0.3846153846153846
 40
0.3846153846153846
 40
0.3846153846153846
 40
0.4615384615384616
 40
0.4615384615384616
 40
0.4615384615384616
 40
0.4615384615384616
 40
0.5384615384615384
 40
0.5384615384615384
 40
0.5384615384615384
 40
0.5384615384615384
 40
0.6153846153846154
 40
0.6153846153846154
 40
0.6153846153846154
 40
0.6153846153846154
 40
0.6923076923076923
 40
0.6923076923076923
 40
0.6923076923076923
 40
0.6923076923076923
 40
0.7692307692307693
 40
0.7692307692307693
 40
0.7692307692307693
 40
0.7692307692307693
 40
0.8461538461538461
 40
0.8461538461538461
 40
0.8461538461538461
 40
0.8461538461538461
 40
1.0
 40
1.0
 40
1.0
 40
1.0
 10
-8.6062
 20
15.8633
 30
0.0
 10
-8.6062
 20
16.1023
 30
0.0
 10
-8.5817
 20
16.2947
 30
0.0
 10
-8.5323
 20
16.44
 30
0.0
 10
-8.5323
 20
16.44
 30
0.0
 10
-8.4834
 20
16.5858
 30
0.0
 10
-8.41
 20
16.6982
 30
0.0
 10
-8.3131
 20
16.7773
 30
0.0
 10
-8.3131
 20
16.7773
 30
0.0
 10
-8.2162
 20
16.8563
 30
0.0
 10
-8.0944
 20
16.8958
 30
0.0
 10
-7.9477
 20
16.8958
 30
0.0
 10
-7.9477
 20
16.8958
 30
0.0
 10
-7.839
 20
16.8958
 30
0.0
 10
-7.744
 20
16.8737
 30
0.0
 10
-7.6622
 20
16.8299
 30
0.0
 10
-7.6622
 20
16.8299
 30
0.0
 10
-7.5803
 20
16.7867
 30
0.0
 10
-7.513
 20
16.7236
 30
0.0
 10
-7.4594
 20
16.6413
 30
0.0
 10
-7.4594
 20
16.6413
 30
0.0
 10
-7.4063
 20
16.559
 30
0.0
 10
-7.3644
 20
16.4588
 30
0.0
 10
-7.3343
 20
16.3408
 30
0.0
 10
-7.3343
 20
16.3408
 30
0.0
 10
-7.3037
 20
16.2227
 30
0.0
 10
-7.2887
 20
16.0637
 30
0.0
 10
-7.2887
 20
15.8633
 30
0.0
 10
-7.2887
 20
15.8633
 30
0.0
 10
-7.2887
 20
15.6263
 30
0.0
 10
-7.3131
 20
15.4353
 30
0.0
 10
-7.3616
 20
15.2895
 30
0.0
 10
-7.3616
 20
15.2895
 30
0.0
 10
-7.4105
 20
15.1437
 30
0.0
 10
-7.4834
 20
15.0313
 30
0.0
 10
-7.5803
 20
14.9518
 30
0.0
 10
-7.5803
 20
14.9518
 30
0.0
 10
-7.6772
 20
14.8723
 30
0.0
 10
-7.7995
 20
14.8328
 30
0.0
 10
-7.9477
 20
14.8328
 30
0.0
 10
-7.9477
 20
14.8328
 30
0.0
 10
-8.1424
 20
14.8328
 30
0.0
 10
-8.2953
 20
14.9024
 30
0.0
 10
-8.4063
 20
15.0421
 30
0.0
 10
-8.4063
 20
15.0421
 30
0.0
 10
-8.5394
 20
15.21
 30
0.0
 10
-8.6062
 20
15.4842
 30
0.0
 10
-8.6062
 20
15.8633
 30
0.0
  0
SPLINE
  5
4A
330
1F
100
AcDbEntity
  8
ROUND
 62
   250
100
AcDbSpline
210
0.0
220
0.0
230
1.0
 70
    11
 71
     3
 72
    36
 73
    32
 74
     0
 42
0.0000000001
 43
0.0000000001
 40
0.0
 40
0.0
 40
0.0
 40
0.0
 40
0.1111111111111111
 40
0.1111111111111111
 40
0.1111111111111111
 40
0.1111111111111111
 40
0.2222222222222222
 40
0.2222222222222222
 40
0.2222222222222222
 40
0.2222222222222222
 40
0.3333333333333333
 40
0.3333333333333333
 40
0.3333333333333333
 40
0.3333333333333333
 40
0.4444444444444444
 40
0.4444444444444444
 40
0.4444444444444444
 40
0.4444444444444444
 40
0.5555555555555556
 40
0.5555555555555556
 40
0.5555555555555556
 40
0.5555555555555556
 40
0.6666666666666666
 40
0.6666666666666666
 40
0.6666666666666666
 40
0.6666666666666666
 40
0.7777777777777778
 40
0.7777777777777778
 40
0.7777777777777778
 40
0.7777777777777778
 40
1.0
 40
1.0
 40
1.0
 40
1.0
 10
-8.3512
 20
15.8633
 30
0.0
 10
-8.3512
 20
15.5317
 30
0.0
 10
-8.3122
 20
15.3111
 30
0.0
 10
-8.2346
 20
15.2011
 30
0.0
 10
-8.2346
 20
15.2011
 30
0.0
 10
-8.157
 20
15.0915
 30
0.0
 10
-8.0615
 20
15.0364
 30
0.0
 10
-7.9477
 20
15.0364
 30
0.0
 10
-7.9477
 20
15.0364
 30
0.0
 10
-7.8334
 20
15.0364
 30
0.0
 10
-7.7379
 20
15.0919
 30
0.0
 10
-7.6603
 20
15.202
 30
0.0
 10
-7.6603
 20
15.202
 30
0.0
 10
-7.5827
 20
15.3121
 30
0.0
 10
-7.5436
 20
15.5327
 30
0.0
 10
-7.5436
 20
15.8633
 30
0.0
 10
-7.5436
 20
15.8633
 30
0.0
 10
-7.5436
 20
16.1959
 30
0.0
 10
-7.5827
 20
16.417
 30
0.0
 10
-7.6603
 20
16.5261
 30
0.0
 10
-7.6603
 20
16.5261
 30
0.0
 10
-7.7379
 20
16.6357
 30
0.0
 10
-7.8343
 20
16.6902
 30
0.0
 10
-7.95
 20
16.6902
 30
0.0
 10
-7.95
 20
16.6902
 30
0.0
 10
-8.0643
 20
16.6902
 30
0.0
 10
-8.1551
 20
16.6418
 30
0.0
 10
-8.2233
 20
16.5454
 30
0.0
 10
-8.2233
 20
16.5454
 30
0.0
 10
-8.3084
 20
16.4226
 30
0.0
 10
-8.3512
 20
16.1949
 30
0.0
 10
-8.3512
 20
15.8633
 30
0.0
  0
SPLINE
  5
4B
330
1F
100
AcDbEntity
  8
ROUND
 62
   250
100
AcDbSpline
210
0.0
220
0.0
230
1.0
 70
    11
 71
     3
 72
    40
 73
    36
 74
     0
 42
0.0000000001
 43
0.0000000001
 40
0.0
 40
0.0
 40
0.0
 40
0.0
 40
0.1
 40
0.1
 40
0.1
 40
0.1
 40
0.2
 40
0.2
 40
0.2
 40
0.2
 40
0.3
 40
0.3
 40
0.3
 40
0.3
 40
0.4
 40
0.4
 40
0.4
 40
0.4
 40
0.5
 40
0.5
 40
0.5
 40
0.5
 40
0.6
 40
0.6
 40
0.6
 40
0.6
 40
0.7
 40
0.7
 40
0.7
 40
0.7
 40
0.8
 40
0.8
 40
0.8
 40
0.8
 40
1.0
 40
1.0
 40
1.0
 40
1.0
 10
-37.533
 20
-11.8708
 30
0.0
 10
-37.533
 20
-11.8708
 30
0.0
 10
-37.533
 20
-12.1187
 30
0.0
 10
-37.533
 20
-12.1187
 30
0.0
 10
-37.533
 20
-12.1187
 30
0.0
 10
-37.533
 20
-12.1187
 30
0.0
 10
-39.1134
 20
-12.1187
 30
0.0
 10
-39.1134
 20
-12.1187
 30
0.0
 10
-39.1134
 20
-12.1187
 30
0.0
 10
-39.0565
 20
-12.1785
 30
0.0
 10
-38.9996
 20
-12.2565
 30
0.0
 10
-38.9427
 20
-12.3534
 30
0.0
 10
-38.9427
 20
-12.3534
 30
0.0
 10
-38.8858
 20
-12.4508
 30
0.0
 10
-38.843
 20
-12.5378
 30
0.0
 10
-38.8147
 20
-12.615
 30
0.0
 10
-38.8147
 20
-12.615
 30
0.0
 10
-38.8147
 20
-12.615
 30
0.0
 10
-39.0542
 20
-12.615
 30
0.0
 10
-39.0542
 20
-12.615
 30
0.0
 10
-39.0542
 20
-12.615
 30
0.0
 10
-39.1195
 20
-12.4762
 30
0.0
 10
-39.1986
 20
-12.3548
 30
0.0
 10
-39.2912
 20
-12.2509
 30
0.0
 10
-39.2912
 20
-12.2509
 30
0.0
 10
-39.3844
 20
-12.1474
 30
0.0
 10
-39.4742
 20
-12.0736
 30
0.0
 10
-39.5617
 20
-12.0303
 30
0.0
 10
-39.5617
 20
-12.0303
 30
0.0
 10
-39.5617
 20
-12.0303
 30
0.0
 10
-39.5617
 20
-11.8708
 30
0.0
 10
-39.5617
 20
-11.8708
 30
0.0
 10
-39.5617
 20
-11.8708
 30
0.0
 10
-39.5617
 20
-11.8708
 30
0.0
 10
-37.533
 20
-11.8708
 30
0.0
 10
-37.533
 20
-11.8708
 30
0.0
  0
SPLINE
  5
4C
330
1F
100
AcDbEntity
  8
ROUND
 62
   250
100
AcDbSpline
210
0.0
220
0.0
230
1.0
 70
    11
 71
     3
 72
   124
 73
   120
 74
     0
 42
0.0000000001
 43
0.0000000001
 40
0.0
 40
0.0
 40
0.0
 40
0.0
 40
0.032258064516129
 40
0.032258064516129
 40
0.032258064516129
 40
0.032258064516129
 40
0.0645161290322581
 40
0.0645161290322581
 40
0.0645161290322581
 40
0.0645161290322581
 40
0.0967741935483871
 40
0.0967741935483871
 40
0.0967741935483871
 40
0.0967741935483871
 40
0.1290322580645161
 40
0.1290322580645161
 40
0.1290322580645161
 40
0.1290322580645161
 40
0.1612903225806452
 40
0.1612903225806452
 40
0.1612903225806452
 40
0.1612903225806452
 40
0.1935483870967742
 40
0.1935483870967742
 40
0.1935483870967742
 40
0.1935483870967742
 40
0.2258064516129032
 40
0.2258064516129032
 40
0.2258064516129032
 40
0.2258064516129032
 40
0.2580645161290323
 40
0.2580645161290323
 40
0.2580645161290323
 40
0.2580645161290323
 40
0.2903225806451613
 40
0.2903225806451613
 40
0.2903225806451613
 40
0.2903225806451613
 40
0.3225806451612903
 40
0.3225806451612903
 40
0.3225806451612903
 40
0.3225806451612903
 40
0.3548387096774194
 40
0.3548387096774194
 40
0.3548387096774194
 40
0.3548387096774194
 40
0.3870967741935484
 40
0.3870967741935484
 40
0.3870967741935484
 40
0.3870967741935484
 40
0.4193548387096774
 40
0.4193548387096774
 40
0.4193548387096774
 40
0.4193548387096774
 40
0.4516129032258064
 40
0.4516129032258064
 40
0.4516129032258064
 40
0.4516129032258064
 40
0.4838709677419355
 40
0.4838709677419355
 40
0.4838709677419355
 40
0.4838709677419355
 40
0.5161290322580645
 40
0.5161290322580645
 40
0.5161290322580645
 40
0.5161290322580645
 40
0.5483870967741935
 40
0.5483870967741935
 40
0.5483870967741935
 40
0.5483870967741935
 40
0.5806451612903226
 40
0.5806451612903226
 40
0.5806451612903226
 40
0.5806451612903226
 40
0.6129032258064516
 40
0.6129032258064516
 40
0.6129032258064516
 40
0.6129032258064516
 40
0.6451612903225806
 40
0.6451612903225806
 40
0.6451612903225806
 40
0.6451612903225806
 40
0.6774193548387096
 40
0.6774193548387096
 40
0.6774193548387096
 40
0.6774193548387096
 40
0.7096774193548387
 40
0.7096774193548387
 40
0.7096774193548387
 40
0.7096774193548387
 40
0.7419354838709677
 40
0.7419354838709677
 40
0.7419354838709677
 40
0.7419354838709677
 40
0.7741935483870968
 40
0.7741935483870968
 40
0.7741935483870968
 40
0.7741935483870968
 40
0.8064516129032258
 40
0.8064516129032258
 40
0.8064516129032258
 40
0.8064516129032258
 40
0.8387096774193549
 40
0.8387096774193549
 40
0.8387096774193549
 40
0.8387096774193549
 40
0.8709677419354839
 40
0.8709677419354839
 40
0.8709677419354839
 40
0.8709677419354839
 40
0.9032258064516129
 40
0.9032258064516129
 40
0.9032258064516129
 40
0.9032258064516129
 40
0.9354838709677419
 40
0.9354838709677419
 40
0.9354838709677419
 40
0.9354838709677419
 40
1.0
 40
1.0
 40
1.0
 40
1.0
 10
-38.0664
 20
-11.234
 30
0.0
 10
-38.0664
 20
-11.234
 30
0.0
 10
-38.0993
 20
-10.9861
 30
0.0
 10
-38.0993
 20
-10.9861
 30
0.0
 10
-38.0993
 20
-10.9861
 30
0.0
 10
-37.9587
 20
-10.9574
 30
0.0
 10
-37.8576
 20
-10.9089
 30
0.0
 10
-37.7955
 20
-10.8407
 30
0.0
 10
-37.7955
 20
-10.8407
 30
0.0
 10
-37.7334
 20
-10.7721
 30
0.0
 10
-37.7023
 20
-10.6888
 30
0.0
 10
-37.7023
 20
-10.5905
 30
0.0
 10
-37.7023
 20
-10.5905
 30
0.0
 10
-37.7023
 20
-10.4739
 30
0.0
 10
-37.7428
 20
-10.3751
 30
0.0
 10
-37.8237
 20
-10.2946
 30
0.0
 10
-37.8237
 20
-10.2946
 30
0.0
 10
-37.9046
 20
-10.2147
 30
0.0
 10
-38.0048
 20
-10.1742
 30
0.0
 10
-38.1243
 20
-10.1742
 30
0.0
 10
-38.1243
 20
-10.1742
 30
0.0
 10
-38.2381
 20
-10.1742
 30
0.0
 10
-38.3322
 20
-10.2114
 30
0.0
 10
-38.406
 20
-10.2857
 30
0.0
 10
-38.406
 20
-10.2857
 30
0.0
 10
-38.4798
 20
-10.3605
 30
0.0
 10
-38.517
 20
-10.455
 30
0.0
 10
-38.517
 20
-10.5698
 30
0.0
 10
-38.517
 20
-10.5698
 30
0.0
 10
-38.517
 20
-10.6168
 30
0.0
 10
-38.5076
 20
-10.6752
 30
0.0
 10
-38.4893
 20
-10.7448
 30
0.0
 10
-38.4893
 20
-10.7448
 30
0.0
 10
-38.4893
 20
-10.7448
 30
0.0
 10
-38.707
 20
-10.717
 30
0.0
 10
-38.707
 20
-10.717
 30
0.0
 10
-38.707
 20
-10.717
 30
0.0
 10
-38.7052
 20
-10.7006
 30
0.0
 10
-38.7042
 20
-10.6874
 30
0.0
 10
-38.7042
 20
-10.6771
 30
0.0
 10
-38.7042
 20
-10.6771
 30
0.0
 10
-38.7042
 20
-10.5717
 30
0.0
 10
-38.732
 20
-10.4767
 30
0.0
 10
-38.787
 20
-10.392
 30
0.0
 10
-38.787
 20
-10.392
 30
0.0
 10
-38.842
 20
-10.3073
 30
0.0
 10
-38.9272
 20
-10.265
 30
0.0
 10
-39.0419
 20
-10.265
 30
0.0
 10
-39.0419
 20
-10.265
 30
0.0
 10
-39.1327
 20
-10.265
 30
0.0
 10
-39.2084
 20
-10.2961
 30
0.0
 10
-39.2677
 20
-10.3577
 30
0.0
 10
-39.2677
 20
-10.3577
 30
0.0
 10
-39.3274
 20
-10.4193
 30
0.0
 10
-39.3576
 20
-10.4988
 30
0.0
 10
-39.3576
 20
-10.5962
 30
0.0
 10
-39.3576
 20
-10.5962
 30
0.0
 10
-39.3576
 20
-10.6926
 30
0.0
 10
-39.327
 20
-10.773
 30
0.0
 10
-39.2668
 20
-10.837
 30
0.0
 10
-39.2668
 20
-10.837
 30
0.0
 10
-39.2061
 20
-10.9014
 30
0.0
 10
-39.1148
 20
-10.9428
 30
0.0
 10
-38.9935
 20
-10.9612
 30
0.0
 10
-38.9935
 20
-10.9612
 30
0.0
 10
-38.9935
 20
-10.9612
 30
0.0
 10
-39.0377
 20
-11.209
 30
0.0
 10
-39.0377
 20
-11.209
 30
0.0
 10
-39.0377
 20
-11.209
 30
0.0
 10
-39.2042
 20
-11.1789
 30
0.0
 10
-39.3331
 20
-11.1098
 30
0.0
 10
-39.4243
 20
-11.0025
 30
0.0
 10
-39.4243
 20
-11.0025
 30
0.0
 10
-39.5156
 20
-10.8948
 30
0.0
 10
-39.5617
 20
-10.7612
 30
0.0
 10
-39.5617
 20
-10.6013
 30
0.0
 10
-39.5617
 20
-10.6013
 30
0.0
 10
-39.5617
 20
-10.4913
 30
0.0
 10
-39.5377
 20
-10.3897
 30
0.0
 10
-39.4907
 20
-10.297
 30
0.0
 10
-39.4907
 20
-10.297
 30
0.0
 10
-39.4432
 20
-10.2043
 30
0.0
 10
-39.3787
 20
-10.1333
 30
0.0
 10
-39.2969
 20
-10.0839
 30
0.0
 10
-39.2969
 20
-10.0839
 30
0.0
 10
-39.215
 20
-10.035
 30
0.0
 10
-39.1285
 20
-10.0101
 30
0.0
 10
-39.0363
 20
-10.0101
 30
0.0
 10
-39.0363
 20
-10.0101
 30
0.0
 10
-38.9493
 20
-10.0101
 30
0.0
 10
-38.8698
 20
-10.0336
 30
0.0
 10
-38.7978
 20
-10.0806
 30
0.0
 10
-38.7978
 20
-10.0806
 30
0.0
 10
-38.7263
 20
-10.1277
 30
0.0
 10
-38.6694
 20
-10.1968
 30
0.0
 10
-38.6271
 20
-10.2885
 30
0.0
 10
-38.6271
 20
-10.2885
 30
0.0
 10
-38.5998
 20
-10.1691
 30
0.0
 10
-38.5424
 20
-10.0764
 30
0.0
 10
-38.4554
 20
-10.0101
 30
0.0
 10
-38.4554
 20
-10.0101
 30
0.0
 10
-38.3688
 20
-9.9442
 30
0.0
 10
-38.2602
 20
-9.9113
 30
0.0
 10
-38.1299
 20
-9.9113
 30
0.0
 10
-38.1299
 20
-9.9113
 30
0.0
 10
-37.9535
 20
-9.9113
 30
0.0
 10
-37.8039
 20
-9.9753
 30
0.0
 10
-37.6812
 20
-10.1041
 30
0.0
 10
-37.6812
 20
-10.1041
 30
0.0
 10
-37.5584
 20
-10.2326
 30
0.0
 10
-37.4973
 20
-10.3953
 30
0.0
 10
-37.4973
 20
-10.5919
 30
0.0
 10
-37.4973
 20
-10.5919
 30
0.0
 10
-37.4973
 20
-10.7692
 30
0.0
 10
-37.5499
 20
-10.9165
 30
0.0
 10
-37.6558
 20
-11.0336
 30
0.0
 10
-37.6558
 20
-11.0336
 30
0.0
 10
-37.7611
 20
-11.1507
 30
0.0
 10
-37.898
 20
-11.2175
 30
0.0
 10
-38.0664
 20
-11.234
 30
0.0
  0
SPLINE
  5
4D
330
1F
100
AcDbEntity
  8
ROUND
 62
   250
100
AcDbSpline
210
0.0
220
0.0
230
1.0
 70
    11
 71
     3
 72
    52
 73
    48
 74
     0
 42
0.0000000001
 43
0.0000000001
 40
0.0
 40
0.0
 40
0.0
 40
0.0
 40
0.0769230769230769
 40
0.0769230769230769
 40
0.0769230769230769
 40
0.0769230769230769
 40
0.1538461538461539
 40
0.1538461538461539
 40
0.1538461538461539
 40
0.1538461538461539
 40
0.2307692307692308
 40
0.2307692307692308
 40
0.2307692307692308
 40
0.2307692307692308
 40
0.3076923076923077
 40
0.3076923076923077
 40
0.3076923076923077
 40
0.3076923076923077
 40
0.3846153846153846
 40
0.3846153846153846
 40
0.3846153846153846
 40
0.3846153846153846
 40
0.4615384615384616
 40
0.4615384615384616
 40
0.4615384615384616
 40
0.4615384615384616
 40
0.5384615384615384
 40
0.5384615384615384
 40
0.5384615384615384
 40
0.5384615384615384
 40
0.6153846153846154
 40
0.6153846153846154
 40
0.6153846153846154
 40
0.6153846153846154
 40
0.6923076923076923
 40
0.6923076923076923
 40
0.6923076923076923
 40
0.6923076923076923
 40
0.7692307692307693
 40
0.7692307692307693
 40
0.7692307692307693
 40
0.7692307692307693
 40
0.8461538461538461
 40
0.8461538461538461
 40
0.8461538461538461
 40
0.8461538461538461
 40
1.0
 40
1.0
 40
1.0
 40
1.0
 10
-38.5292
 20
-9.6658
 30
0.0
 10
-38.7682
 20
-9.6658
 30
0.0
 10
-38.9606
 20
-9.6413
 30
0.0
 10
-39.1059
 20
-9.5919
 30
0.0
 10
-39.1059
 20
-9.5919
 30
0.0
 10
-39.2517
 20
-9.543
 30
0.0
 10
-39.3641
 20
-9.4696
 30
0.0
 10
-39.4432
 20
-9.3727
 30
0.0
 10
-39.4432
 20
-9.3727
 30
0.0
 10
-39.5222
 20
-9.2758
 30
0.0
 10
-39.5617
 20
-9.154
 30
0.0
 10
-39.5617
 20
-9.0073
 30
0.0
 10
-39.5617
 20
-9.0073
 30
0.0
 10
-39.5617
 20
-8.8986
 30
0.0
 10
-39.5396
 20
-8.8036
 30
0.0
 10
-39.4958
 20
-8.7218
 30
0.0
 10
-39.4958
 20
-8.7218
 30
0.0
 10
-39.4526
 20
-8.6399
 30
0.0
 10
-39.3895
 20
-8.5726
 30
0.0
 10
-39.3072
 20
-8.519
 30
0.0
 10
-39.3072
 20
-8.519
 30
0.0
 10
-39.2249
 20
-8.4659
 30
0.0
 10
-39.1247
 20
-8.424
 30
0.0
 10
-39.0067
 20
-8.3939
 30
0.0
 10
-39.0067
 20
-8.3939
 30
0.0
 10
-38.8886
 20
-8.3633
 30
0.0
 10
-38.7296
 20
-8.3483
 30
0.0
 10
-38.5292
 20
-8.3483
 30
0.0
 10
-38.5292
 20
-8.3483
 30
0.0
 10
-38.2922
 20
-8.3483
 30
0.0
 10
-38.1012
 20
-8.3727
 30
0.0
 10
-37.9554
 20
-8.4212
 30
0.0
 10
-37.9554
 20
-8.4212
 30
0.0
 10
-37.8096
 20
-8.4701
 30
0.0
 10
-37.6972
 20
-8.543
 30
0.0
 10
-37.6177
 20
-8.6399
 30
0.0
 10
-37.6177
 20
-8.6399
 30
0.0
 10
-37.5382
 20
-8.7368
 30
0.0
 10
-37.4987
 20
-8.8591
 30
0.0
 10
-37.4987
 20
-9.0073
 30
0.0
 10
-37.4987
 20
-9.0073
 30
0.0
 10
-37.4987
 20
-9.202
 30
0.0
 10
-37.5683
 20
-9.3549
 30
0.0
 10
-37.708
 20
-9.4659
 30
0.0
 10
-37.708
 20
-9.4659
 30
0.0
 10
-37.8759
 20
-9.599
 30
0.0
 10
-38.1501
 20
-9.6658
 30
0.0
 10
-38.5292
 20
-9.6658
 30
0.0
  0
SPLINE
  5
4E
330
1F
100
AcDbEntity
  8
ROUND
 62
   250
100
AcDbSpline
210
0.0
220
0.0
230
1.0
 70
    11
 71
     3
 72
    36
 73
    32
 74
     0
 42
0.0000000001
 43
0.0000000001
 40
0.0
 40
0.0
 40
0.0
 40
0.0
 40
0.1111111111111111
 40
0.1111111111111111
 40
0.1111111111111111
 40
0.1111111111111111
 40
0.2222222222222222
 40
0.2222222222222222
 40
0.2222222222222222
 40
0.2222222222222222
 40
0.3333333333333333
 40
0.3333333333333333
 40
0.3333333333333333
 40
0.3333333333333333
 40
0.4444444444444444
 40
0.4444444444444444
 40
0.4444444444444444
 40
0.4444444444444444
 40
0.5555555555555556
 40
0.5555555555555556
 40
0.5555555555555556
 40
0.5555555555555556
 40
0.6666666666666666
 40
0.6666666666666666
 40
0.6666666666666666
 40
0.6666666666666666
 40
0.7777777777777778
 40
0.7777777777777778
 40
0.7777777777777778
 40
0.7777777777777778
 40
1.0
 40
1.0
 40
1.0
 40
1.0
 10
-38.5292
 20
-9.4108
 30
0.0
 10
-38.1976
 20
-9.4108
 30
0.0
 10
-37.977
 20
-9.3718
 30
0.0
 10
-37.867
 20
-9.2942
 30
0.0
 10
-37.867
 20
-9.2942
 30
0.0
 10
-37.7574
 20
-9.2166
 30
0.0
 10
-37.7023
 20
-9.1211
 30
0.0
 10
-37.7023
 20
-9.0073
 30
0.0
 10
-37.7023
 20
-9.0073
 30
0.0
 10
-37.7023
 20
-8.893
 30
0.0
 10
-37.7578
 20
-8.7975
 30
0.0
 10
-37.8679
 20
-8.7199
 30
0.0
 10
-37.8679
 20
-8.7199
 30
0.0
 10
-37.978
 20
-8.6423
 30
0.0
 10
-38.1986
 20
-8.6032
 30
0.0
 10
-38.5292
 20
-8.6032
 30
0.0
 10
-38.5292
 20
-8.6032
 30
0.0
 10
-38.8618
 20
-8.6032
 30
0.0
 10
-39.0829
 20
-8.6423
 30
0.0
 10
-39.192
 20
-8.7199
 30
0.0
 10
-39.192
 20
-8.7199
 30
0.0
 10
-39.3016
 20
-8.7975
 30
0.0
 10
-39.3561
 20
-8.8939
 30
0.0
 10
-39.3561
 20
-9.0096
 30
0.0
 10
-39.3561
 20
-9.0096
 30
0.0
 10
-39.3561
 20
-9.1239
 30
0.0
 10
-39.3077
 20
-9.2147
 30
0.0
 10
-39.2113
 20
-9.2829
 30
0.0
 10
-39.2113
 20
-9.2829
 30
0.0
 10
-39.0885
 20
-9.368
 30
0.0
 10
-38.8608
 20
-9.4108
 30
0.0
 10
-38.5292
 20
-9.4108
 30
0.0
  0
SPLINE
  5
4F
330
1F
100
AcDbEntity
  8
ROUND
 62
   250
100
AcDbSpline
210
0.0
220
0.0
230
1.0
 70
    11
 71
     3
 72
    92
 73
    88
 74
     0
 42
0.0000000001
 43
0.0000000001
 40
0.0
 40
0.0
 40
0.0
 40
0.0
 40
0.0434782608695652
 40
0.0434782608695652
 40
0.0434782608695652
 40
0.0434782608695652
 40
0.0869565217391304
 40
0.0869565217391304
 40
0.0869565217391304
 40
0.0869565217391304
 40
0.1304347826086956
 40
0.1304347826086956
 40
0.1304347826086956
 40
0.1304347826086956
 40
0.1739130434782609
 40
0.1739130434782609
 40
0.1739130434782609
 40
0.1739130434782609
 40
0.2173913043478261
 40
0.2173913043478261
 40
0.2173913043478261
 40
0.2173913043478261
 40
0.2608695652173913
 40
0.2608695652173913
 40
0.2608695652173913
 40
0.2608695652173913
 40
0.3043478260869565
 40
0.3043478260869565
 40
0.3043478260869565
 40
0.3043478260869565
 40
0.3478260869565217
 40
0.3478260869565217
 40
0.3478260869565217
 40
0.3478260869565217
 40
0.391304347826087
 40
0.391304347826087
 40
0.391304347826087
 40
0.391304347826087
 40
0.4347826086956522
 40
0.4347826086956522
 40
0.4347826086956522
 40
0.4347826086956522
 40
0.4782608695652174
 40
0.4782608695652174
 40
0.4782608695652174
 40
0.4782608695652174
 40
0.5217391304347826
 40
0.5217391304347826
 40
0.5217391304347826
 40
0.5217391304347826
 40
0.5652173913043478
 40
0.5652173913043478
 40
0.5652173913043478
 40
0.5652173913043478
 40
0.6086956521739131
 40
0.6086956521739131
 40
0.6086956521739131
 40
0.6086956521739131
 40
0.6521739130434783
 40
0.6521739130434783
 40
0.6521739130434783
 40
0.6521739130434783
 40
0.6956521739130435
 40
0.6956521739130435
 40
0.6956521739130435
 40
0.6956521739130435
 40
0.7391304347826086
 40
0.7391304347826086
 40
0.7391304347826086
 40
0.7391304347826086
 40
0.782608695652174
 40
0.782608695652174
 40
0.782608695652174
 40
0.782608695652174
 40
0.8260869565217391
 40
0.8260869565217391
 40
0.8260869565217391
 40
0.8260869565217391
 40
0.8695652173913043
 40
0.8695652173913043
 40
0.8695652173913043
 40
0.8695652173913043
 40
0.9130434782608695
 40
0.9130434782608695
 40
0.9130434782608695
 40
0.9130434782608695
 40
1.0
 40
1.0
 40
1.0
 40
1.0
 10
-33.9882
 20
1.6317
 30
0.0
 10
-33.9882
 20
1.6317
 30
0.0
 10
-34.0103
 20
1.8923
 30
0.0
 10
-34.0103
 20
1.8923
 30
0.0
 10
-34.0103
 20
1.8923
 30
0.0
 10
-33.8833
 20
1.9116
 30
0.0
 10
-33.7883
 20
1.9563
 30
0.0
 10
-33.7243
 20
2.0264
 30
0.0
 10
-33.7243
 20
2.0264
 30
0.0
 10
-33.6603
 20
2.0969
 30
0.0
 10
-33.6283
 20
2.1816
 30
0.0
 10
-33.6283
 20
2.2808
 30
0.0
 10
-33.6283
 20
2.2808
 30
0.0
 10
-33.6283
 20
2.4003
 30
0.0
 10
-33.6735
 20
2.5014
 30
0.0
 10
-33.7633
 20
2.5837
 30
0.0
 10
-33.7633
 20
2.5837
 30
0.0
 10
-33.8536
 20
2.6665
 30
0.0
 10
-33.9731
 20
2.7079
 30
0.0
 10
-34.1217
 20
2.7079
 30
0.0
 10
-34.1217
 20
2.7079
 30
0.0
 10
-34.2633
 20
2.7079
 30
0.0
 10
-34.3748
 20
2.6684
 30
0.0
 10
-34.4566
 20
2.5889
 30
0.0
 10
-34.4566
 20
2.5889
 30
0.0
 10
-34.5385
 20
2.5094
 30
0.0
 10
-34.5794
 20
2.4055
 30
0.0
 10
-34.5794
 20
2.2766
 30
0.0
 10
-34.5794
 20
2.2766
 30
0.0
 10
-34.5794
 20
2.1966
 30
0.0
 10
-34.5611
 20
2.1247
 30
0.0
 10
-34.5249
 20
2.0602
 30
0.0
 10
-34.5249
 20
2.0602
 30
0.0
 10
-34.4886
 20
1.9958
 30
0.0
 10
-34.4416
 20
1.9455
 30
0.0
 10
-34.3837
 20
1.9088
 30
0.0
 10
-34.3837
 20
1.9088
 30
0.0
 10
-34.3837
 20
1.9088
 30
0.0
 10
-34.4138
 20
1.6759
 30
0.0
 10
-34.4138
 20
1.6759
 30
0.0
 10
-34.4138
 20
1.6759
 30
0.0
 10
-34.4138
 20
1.6759
 30
0.0
 10
-35.4515
 20
1.8716
 30
0.0
 10
-35.4515
 20
1.8716
 30
0.0
 10
-35.4515
 20
1.8716
 30
0.0
 10
-35.4515
 20
1.8716
 30
0.0
 10
-35.4515
 20
2.8763
 30
0.0
 10
-35.4515
 20
2.8763
 30
0.0
 10
-35.4515
 20
2.8763
 30
0.0
 10
-35.4515
 20
2.8763
 30
0.0
 10
-35.2144
 20
2.8763
 30
0.0
 10
-35.2144
 20
2.8763
 30
0.0
 10
-35.2144
 20
2.8763
 30
0.0
 10
-35.2144
 20
2.8763
 30
0.0
 10
-35.2144
 20
2.0701
 30
0.0
 10
-35.2144
 20
2.0701
 30
0.0
 10
-35.2144
 20
2.0701
 30
0.0
 10
-35.2144
 20
2.0701
 30
0.0
 10
-34.6716
 20
1.961
 30
0.0
 10
-34.6716
 20
1.961
 30
0.0
 10
-34.6716
 20
1.961
 30
0.0
 10
-34.7563
 20
2.0823
 30
0.0
 10
-34.7986
 20
2.2098
 30
0.0
 10
-34.7986
 20
2.3429
 30
0.0
 10
-34.7986
 20
2.3429
 30
0.0
 10
-34.7986
 20
2.5193
 30
0.0
 10
-34.7375
 20
2.6679
 30
0.0
 10
-34.6152
 20
2.7893
 30
0.0
 10
-34.6152
 20
2.7893
 30
0.0
 10
-34.4929
 20
2.9106
 30
0.0
 10
-34.3358
 20
2.9713
 30
0.0
 10
-34.1439
 20
2.9713
 30
0.0
 10
-34.1439
 20
2.9713
 30
0.0
 10
-33.9609
 20
2.9713
 30
0.0
 10
-33.8028
 20
2.9177
 30
0.0
 10
-33.6697
 20
2.8114
 30
0.0
 10
-33.6697
 20
2.8114
 30
0.0
 10
-33.5065
 20
2.6816
 30
0.0
 10
-33.4247
 20
2.5047
 30
0.0
 10
-33.4247
 20
2.2808
 30
0.0
 10
-33.4247
 20
2.2808
 30
0.0
 10
-33.4247
 20
2.0969
 30
0.0
 10
-33.4759
 20
1.9469
 30
0.0
 10
-33.5789
 20
1.8307
 30
0.0
 10
-33.5789
 20
1.8307
 30
0.0
 10
-33.682
 20
1.7145
 30
0.0
 10
-33.8184
 20
1.6482
 30
0.0
 10
-33.9882
 20
1.6317
 30
0.0
  0
SPLINE
  5
50
330
1F
100
AcDbEntity
  8
ROUND
 62
   250
100
AcDbSpline
210
0.0
220
0.0
230
1.0
 70
    11
 71
     3
 72
    92
 73
    88
 74
     0
 42
0.0000000001
 43
0.0000000001
 40
0.0
 40
0.0
 40
0.0
 40
0.0
 40
0.0434782608695652
 40
0.0434782608695652
 40
0.0434782608695652
 40
0.0434782608695652
 40
0.0869565217391304
 40
0.0869565217391304
 40
0.0869565217391304
 40
0.0869565217391304
 40
0.1304347826086956
 40
0.1304347826086956
 40
0.1304347826086956
 40
0.1304347826086956
 40
0.1739130434782609
 40
0.1739130434782609
 40
0.1739130434782609
 40
0.1739130434782609
 40
0.2173913043478261
 40
0.2173913043478261
 40
0.2173913043478261
 40
0.2173913043478261
 40
0.2608695652173913
 40
0.2608695652173913
 40
0.2608695652173913
 40
0.2608695652173913
 40
0.3043478260869565
 40
0.3043478260869565
 40
0.3043478260869565
 40
0.3043478260869565
 40
0.3478260869565217
 40
0.3478260869565217
 40
0.3478260869565217
 40
0.3478260869565217
 40
0.391304347826087
 40
0.391304347826087
 40
0.391304347826087
 40
0.391304347826087
 40
0.4347826086956522
 40
0.4347826086956522
 40
0.4347826086956522
 40
0.4347826086956522
 40
0.4782608695652174
 40
0.4782608695652174
 40
0.4782608695652174
 40
0.4782608695652174
 40
0.5217391304347826
 40
0.5217391304347826
 40
0.5217391304347826
 40
0.5217391304347826
 40
0.5652173913043478
 40
0.5652173913043478
 40
0.5652173913043478
 40
0.5652173913043478
 40
0.6086956521739131
 40
0.6086956521739131
 40
0.6086956521739131
 40
0.6086956521739131
 40
0.6521739130434783
 40
0.6521739130434783
 40
0.6521739130434783
 40
0.6521739130434783
 40
0.6956521739130435
 40
0.6956521739130435
 40
0.6956521739130435
 40
0.6956521739130435
 40
0.7391304347826086
 40
0.7391304347826086
 40
0.7391304347826086
 40
0.7391304347826086
 40
0.782608695652174
 40
0.782608695652174
 40
0.782608695652174
 40
0.782608695652174
 40
0.8260869565217391
 40
0.8260869565217391
 40
0.8260869565217391
 40
0.8260869565217391
 40
0.8695652173913043
 40
0.8695652173913043
 40
0.8695652173913043
 40
0.8695652173913043
 40
0.9130434782608695
 40
0.9130434782608695
 40
0.9130434782608695
 40
0.9130434782608695
 40
1.0
 40
1.0
 40
1.0
 40
1.0
 10
-34.2138
 20
13.8858
 30
0.0
 10
-34.2138
 20
13.8858
 30
0.0
 10
-34.2359
 20
14.1464
 30
0.0
 10
-34.2359
 20
14.1464
 30
0.0
 10
-34.2359
 20
14.1464
 30
0.0
 10
-34.1089
 20
14.1657
 30
0.0
 10
-34.0139
 20
14.2104
 30
0.0
 10
-33.9499
 20
14.2805
 30
0.0
 10
-33.9499
 20
14.2805
 30
0.0
 10
-33.8859
 20
14.351
 30
0.0
 10
-33.8539
 20
14.4357
 30
0.0
 10
-33.8539
 20
14.5349
 30
0.0
 10
-33.8539
 20
14.5349
 30
0.0
 10
-33.8539
 20
14.6544
 30
0.0
 10
-33.8991
 20
14.7555
 30
0.0
 10
-33.9889
 20
14.8378
 30
0.0
 10
-33.9889
 20
14.8378
 30
0.0
 10
-34.0792
 20
14.9206
 30
0.0
 10
-34.1987
 20
14.962
 30
0.0
 10
-34.3473
 20
14.962
 30
0.0
 10
-34.3473
 20
14.962
 30
0.0
 10
-34.4889
 20
14.962
 30
0.0
 10
-34.6004
 20
14.9225
 30
0.0
 10
-34.6822
 20
14.843
 30
0.0
 10
-34.6822
 20
14.843
 30
0.0
 10
-34.7641
 20
14.7635
 30
0.0
 10
-34.805
 20
14.6596
 30
0.0
 10
-34.805
 20
14.5307
 30
0.0
 10
-34.805
 20
14.5307
 30
0.0
 10
-34.805
 20
14.4507
 30
0.0
 10
-34.7867
 20
14.3788
 30
0.0
 10
-34.7505
 20
14.3143
 30
0.0
 10
-34.7505
 20
14.3143
 30
0.0
 10
-34.7142
 20
14.2499
 30
0.0
 10
-34.6672
 20
14.1996
 30
0.0
 10
-34.6093
 20
14.1629
 30
0.0
 10
-34.6093
 20
14.1629
 30
0.0
 10
-34.6093
 20
14.1629
 30
0.0
 10
-34.6394
 20
13.93
 30
0.0
 10
-34.6394
 20
13.93
 30
0.0
 10
-34.6394
 20
13.93
 30
0.0
 10
-34.6394
 20
13.93
 30
0.0
 10
-35.6771
 20
14.1257
 30
0.0
 10
-35.6771
 20
14.1257
 30
0.0
 10
-35.6771
 20
14.1257
 30
0.0
 10
-35.6771
 20
14.1257
 30
0.0
 10
-35.6771
 20
15.1304
 30
0.0
 10
-35.6771
 20
15.1304
 30
0.0
 10
-35.6771
 20
15.1304
 30
0.0
 10
-35.6771
 20
15.1304
 30
0.0
 10
-35.44
 20
15.1304
 30
0.0
 10
-35.44
 20
15.1304
 30
0.0
 10
-35.44
 20
15.1304
 30
0.0
 10
-35.44
 20
15.1304
 30
0.0
 10
-35.44
 20
14.3242
 30
0.0
 10
-35.44
 20
14.3242
 30
0.0
 10
-35.44
 20
14.3242
 30
0.0
 10
-35.44
 20
14.3242
 30
0.0
 10
-34.8972
 20
14.2151
 30
0.0
 10
-34.8972
 20
14.2151
 30
0.0
 10
-34.8972
 20
14.2151
 30
0.0
 10
-34.9819
 20
14.3364
 30
0.0
 10
-35.0242
 20
14.4639
 30
0.0
 10
-35.0242
 20
14.597
 30
0.0
 10
-35.0242
 20
14.597
 30
0.0
 10
-35.0242
 20
14.7734
 30
0.0
 10
-34.9631
 20
14.922
 30
0.0
 10
-34.8408
 20
15.0434
 30
0.0
 10
-34.8408
 20
15.0434
 30
0.0
 10
-34.7185
 20
15.1647
 30
0.0
 10
-34.5614
 20
15.2254
 30
0.0
 10
-34.3695
 20
15.2254
 30
0.0
 10
-34.3695
 20
15.2254
 30
0.0
 10
-34.1865
 20
15.2254
 30
0.0
 10
-34.0284
 20
15.1718
 30
0.0
 10
-33.8953
 20
15.0655
 30
0.0
 10
-33.8953
 20
15.0655
 30
0.0
 10
-33.7321
 20
14.9357
 30
0.0
 10
-33.6503
 20
14.7588
 30
0.0
 10
-33.6503
 20
14.5349
 30
0.0
 10
-33.6503
 20
14.5349
 30
0.0
 10
-33.6503
 20
14.351
 30
0.0
 10
-33.7015
 20
14.201
 30
0.0
 10
-33.8045
 20
14.0848
 30
0.0
 10
-33.8045
 20
14.0848
 30
0.0
 10
-33.9076
 20
13.9686
 30
0.0
 10
-34.044
 20
13.9023
 30
0.0
 10
-34.2138
 20
13.8858
 30
0.0
  0
SPLINE
  5
51
330
1F
100
AcDbEntity
  8
ROUND
 62
   250
100
AcDbSpline
210
0.0
220
0.0
230
1.0
 70
    11
 71
     3
 72
    68
 73
    64
 74
     0
 42
0.0000000001
 43
0.0000000001
 40
0.0
 40
0.0
 40
0.0
 40
0.0
 40
0.0588235294117647
 40
0.0588235294117647
 40
0.0588235294117647
 40
0.0588235294117647
 40
0.1176470588235294
 40
0.1176470588235294
 40
0.1176470588235294
 40
0.1176470588235294
 40
0.1764705882352941
 40
0.1764705882352941
 40
0.1764705882352941
 40
0.1764705882352941
 40
0.2352941176470588
 40
0.2352941176470588
 40
0.2352941176470588
 40
0.2352941176470588
 40
0.2941176470588235
 40
0.2941176470588235
 40
0.2941176470588235
 40
0.2941176470588235
 40
0.3529411764705883
 40
0.3529411764705883
 40
0.3529411764705883
 40
0.3529411764705883
 40
0.4117647058823529
 40
0.4117647058823529
 40
0.4117647058823529
 40
0.4117647058823529
 40
0.4705882352941176
 40
0.4705882352941176
 40
0.4705882352941176
 40
0.4705882352941176
 40
0.5294117647058824
 40
0.5294117647058824
 40
0.5294117647058824
 40
0.5294117647058824
 40
0.5882352941176471
 40
0.5882352941176471
 40
0.5882352941176471
 40
0.5882352941176471
 40
0.6470588235294118
 40
0.6470588235294118
 40
0.6470588235294118
 40
0.6470588235294118
 40
0.7058823529411765
 40
0.7058823529411765
 40
0.7058823529411765
 40
0.7058823529411765
 40
0.7647058823529411
 40
0.7647058823529411
 40
0.7647058823529411
 40
0.7647058823529411
 40
0.8235294117647058
 40
0.8235294117647058
 40
0.8235294117647058
 40
0.8235294117647058
 40
0.8823529411764706
 40
0.8823529411764706
 40
0.8823529411764706
 40
0.8823529411764706
 40
1.0
 40
1.0
 40
1.0
 40
1.0
 10
-34.7801
 20
15.8374
 30
0.0
 10
-34.8177
 20
15.7343
 30
0.0
 10
-34.8713
 20
15.6581
 30
0.0
 10
-34.9414
 20
15.6083
 30
0.0
 10
-34.9414
 20
15.6083
 30
0.0
 10
-35.011
 20
15.5589
 30
0.0
 10
-35.0948
 20
15.534
 30
0.0
 10
-35.1921
 20
15.534
 30
0.0
 10
-35.1921
 20
15.534
 30
0.0
 10
-35.3393
 20
15.534
 30
0.0
 10
-35.4626
 20
15.5867
 30
0.0
 10
-35.5628
 20
15.6925
 30
0.0
 10
-35.5628
 20
15.6925
 30
0.0
 10
-35.663
 20
15.7983
 30
0.0
 10
-35.7133
 20
15.9385
 30
0.0
 10
-35.7133
 20
16.1139
 30
0.0
 10
-35.7133
 20
16.1139
 30
0.0
 10
-35.7133
 20
16.2903
 30
0.0
 10
-35.662
 20
16.4324
 30
0.0
 10
-35.5595
 20
16.5401
 30
0.0
 10
-35.5595
 20
16.5401
 30
0.0
 10
-35.4569
 20
16.6473
 30
0.0
 10
-35.3323
 20
16.701
 30
0.0
 10
-35.1851
 20
16.701
 30
0.0
 10
-35.1851
 20
16.701
 30
0.0
 10
-35.0915
 20
16.701
 30
0.0
 10
-35.0101
 20
16.6765
 30
0.0
 10
-34.9405
 20
16.6276
 30
0.0
 10
-34.9405
 20
16.6276
 30
0.0
 10
-34.8713
 20
16.5782
 30
0.0
 10
-34.8177
 20
16.5039
 30
0.0
 10
-34.7801
 20
16.4037
 30
0.0
 10
-34.7801
 20
16.4037
 30
0.0
 10
-34.7396
 20
16.5274
 30
0.0
 10
-34.6747
 20
16.6219
 30
0.0
 10
-34.5844
 20
16.6868
 30
0.0
 10
-34.5844
 20
16.6868
 30
0.0
 10
-34.4946
 20
16.7513
 30
0.0
 10
-34.3869
 20
16.7837
 30
0.0
 10
-34.2622
 20
16.7837
 30
0.0
 10
-34.2622
 20
16.7837
 30
0.0
 10
-34.0891
 20
16.7837
 30
0.0
 10
-33.9442
 20
16.7226
 30
0.0
 10
-33.8267
 20
16.6008
 30
0.0
 10
-33.8267
 20
16.6008
 30
0.0
 10
-33.7091
 20
16.4785
 30
0.0
 10
-33.6503
 20
16.3176
 30
0.0
 10
-33.6503
 20
16.1182
 30
0.0
 10
-33.6503
 20
16.1182
 30
0.0
 10
-33.6503
 20
15.9187
 30
0.0
 10
-33.7091
 20
15.7583
 30
0.0
 10
-33.8271
 20
15.636
 30
0.0
 10
-33.8271
 20
15.636
 30
0.0
 10
-33.9452
 20
15.5137
 30
0.0
 10
-34.0924
 20
15.4526
 30
0.0
 10
-34.2688
 20
15.4526
 30
0.0
 10
-34.2688
 20
15.4526
 30
0.0
 10
-34.4
 20
15.4526
 30
0.0
 10
-34.5101
 20
15.486
 30
0.0
 10
-34.599
 20
15.5528
 30
0.0
 10
-34.599
 20
15.5528
 30
0.0
 10
-34.6874
 20
15.6191
 30
0.0
 10
-34.7481
 20
15.7141
 30
0.0
 10
-34.7801
 20
15.8374
 30
0.0
  0
SPLINE
  5
52
330
1F
100
AcDbEntity
  8
ROUND
 62
   250
100
AcDbSpline
210
0.0
220
0.0
230
1.0
 70
    11
 71
     3
 72
    36
 73
    32
 74
     0
 42
0.0000000001
 43
0.0000000001
 40
0.0
 40
0.0
 40
0.0
 40
0.0
 40
0.1111111111111111
 40
0.1111111111111111
 40
0.1111111111111111
 40
0.1111111111111111
 40
0.2222222222222222
 40
0.2222222222222222
 40
0.2222222222222222
 40
0.2222222222222222
 40
0.3333333333333333
 40
0.3333333333333333
 40
0.3333333333333333
 40
0.3333333333333333
 40
0.4444444444444444
 40
0.4444444444444444
 40
0.4444444444444444
 40
0.4444444444444444
 40
0.5555555555555556
 40
0.5555555555555556
 40
0.5555555555555556
 40
0.5555555555555556
 40
0.6666666666666666
 40
0.6666666666666666
 40
0.6666666666666666
 40
0.6666666666666666
 40
0.7777777777777778
 40
0.7777777777777778
 40
0.7777777777777778
 40
0.7777777777777778
 40
1.0
 40
1.0
 40
1.0
 40
1.0
 10
-35.2006
 20
15.7875
 30
0.0
 10
-35.1051
 20
15.7875
 30
0.0
 10
-35.027
 20
15.8185
 30
0.0
 10
-34.9663
 20
15.8797
 30
0.0
 10
-34.9663
 20
15.8797
 30
0.0
 10
-34.9057
 20
15.9413
 30
0.0
 10
-34.8751
 20
16.0213
 30
0.0
 10
-34.8751
 20
16.1196
 30
0.0
 10
-34.8751
 20
16.1196
 30
0.0
 10
-34.8751
 20
16.2151
 30
0.0
 10
-34.9052
 20
16.2936
 30
0.0
 10
-34.9654
 20
16.3548
 30
0.0
 10
-34.9654
 20
16.3548
 30
0.0
 10
-35.0256
 20
16.4159
 30
0.0
 10
-35.0995
 20
16.446
 30
0.0
 10
-35.1865
 20
16.446
 30
0.0
 10
-35.1865
 20
16.446
 30
0.0
 10
-35.2777
 20
16.446
 30
0.0
 10
-35.3539
 20
16.415
 30
0.0
 10
-35.416
 20
16.3519
 30
0.0
 10
-35.416
 20
16.3519
 30
0.0
 10
-35.4781
 20
16.2889
 30
0.0
 10
-35.5092
 20
16.2108
 30
0.0
 10
-35.5092
 20
16.1168
 30
0.0
 10
-35.5092
 20
16.1168
 30
0.0
 10
-35.5092
 20
16.0222
 30
0.0
 10
-35.4786
 20
15.9437
 30
0.0
 10
-35.4184
 20
15.8811
 30
0.0
 10
-35.4184
 20
15.8811
 30
0.0
 10
-35.3577
 20
15.8185
 30
0.0
 10
-35.2848
 20
15.7875
 30
0.0
 10
-35.2006
 20
15.7875
 30
0.0
  0
SPLINE
  5
53
330
1F
100
AcDbEntity
  8
ROUND
 62
   250
100
AcDbSpline
210
0.0
220
0.0
230
1.0
 70
    11
 71
     3
 72
    40
 73
    36
 74
     0
 42
0.0000000001
 43
0.0000000001
 40
0.0
 40
0.0
 40
0.0
 40
0.0
 40
0.1
 40
0.1
 40
0.1
 40
0.1
 40
0.2
 40
0.2
 40
0.2
 40
0.2
 40
0.3
 40
0.3
 40
0.3
 40
0.3
 40
0.4
 40
0.4
 40
0.4
 40
0.4
 40
0.5
 40
0.5
 40
0.5
 40
0.5
 40
0.6
 40
0.6
 40
0.6
 40
0.6
 40
0.7
 40
0.7
 40
0.7
 40
0.7
 40
0.8
 40
0.8
 40
0.8
 40
0.8
 40
1.0
 40
1.0
 40
1.0
 40
1.0
 10
-34.2674
 20
15.7075
 30
0.0
 10
-34.1968
 20
15.7075
 30
0.0
 10
-34.1282
 20
15.7245
 30
0.0
 10
-34.0623
 20
15.7579
 30
0.0
 10
-34.0623
 20
15.7579
 30
0.0
 10
-33.996
 20
15.7913
 30
0.0
 10
-33.9447
 20
15.8411
 30
0.0
 10
-33.9085
 20
15.9074
 30
0.0
 10
-33.9085
 20
15.9074
 30
0.0
 10
-33.8723
 20
15.9738
 30
0.0
 10
-33.8539
 20
16.0448
 30
0.0
 10
-33.8539
 20
16.121
 30
0.0
 10
-33.8539
 20
16.121
 30
0.0
 10
-33.8539
 20
16.2395
 30
0.0
 10
-33.892
 20
16.3374
 30
0.0
 10
-33.9687
 20
16.4145
 30
0.0
 10
-33.9687
 20
16.4145
 30
0.0
 10
-34.0449
 20
16.4916
 30
0.0
 10
-34.1418
 20
16.5302
 30
0.0
 10
-34.2594
 20
16.5302
 30
0.0
 10
-34.2594
 20
16.5302
 30
0.0
 10
-34.3789
 20
16.5302
 30
0.0
 10
-34.4776
 20
16.4907
 30
0.0
 10
-34.5557
 20
16.4112
 30
0.0
 10
-34.5557
 20
16.4112
 30
0.0
 10
-34.6338
 20
16.3317
 30
0.0
 10
-34.6728
 20
16.232
 30
0.0
 10
-34.6728
 20
16.1125
 30
0.0
 10
-34.6728
 20
16.1125
 30
0.0
 10
-34.6728
 20
15.9959
 30
0.0
 10
-34.6343
 20
15.8994
 30
0.0
 10
-34.5571
 20
15.8228
 30
0.0
 10
-34.5571
 20
15.8228
 30
0.0
 10
-34.4795
 20
15.7461
 30
0.0
 10
-34.3831
 20
15.7075
 30
0.0
 10
-34.2674
 20
15.7075
 30
0.0
  0
SPLINE
  5
54
330
1F
100
AcDbEntity
  8
ROUND
 62
   250
100
AcDbSpline
210
0.0
220
0.0
230
1.0
 70
    24
 71
     3
 72
     8
 73
     4
 74
     0
 42
0.0000000001
 43
0.0000000001
 40
0.0
 40
0.0
 40
0.0
 40
0.0
 40
1.0
 40
1.0
 40
1.0
 40
1.0
 10
-30.4058
 20
8.785
 30
0.0
 10
-30.4058
 20
8.785
 30
0.0
 10
-30.4058
 20
24.1779
 30
0.0
 10
-30.4058
 20
24.1779
 30
0.0
  0
SPLINE
  5
55
330
1F
100
AcDbEntity
  8
ROUND
 62
   250
100
AcDbSpline
210
0.0
220
0.0
230
1.0
 70
    24
 71
     3
 72
     8
 73
     4
 74
     0
 42
0.0000000001
 43
0.0000000001
 40
0.0
 40
0.0
 40
0.0
 40
0.0
 40
1.0
 40
1.0
 40
1.0
 40
1.0
 10
-22.9117
 20
-26.1607
 30
0.0
 10
-22.9117
 20
-26.1607
 30
0.0
 10
-38.0676
 20
-26.1607
 30
0.0
 10
-38.0676
 20
-26.1607
 30
0.0
  0
SPLINE
  5
56
330
1F
100
AcDbEntity
  8
ROUND
 62
   250
100
AcDbSpline
210
0.0
220
0.0
230
1.0
 70
    24
 71
     3
 72
     8
 73
     4
 74
     0
 42
0.0000000001
 43
0.0000000001
 40
0.0
 40
0.0
 40
0.0
 40
0.0
 40
1.0
 40
1.0
 40
1.0
 40
1.0
 10
0.982
 20
8.344
 30
0.0
 10
0.982
 20
8.344
 30
0.0
 10
0.982
 20
24.0235
 30
0.0
 10
0.982
 20
24.0235
 30
0.0
  0
SPLINE
  5
57
330
1F
100
AcDbEntity
  8
ROUND
 62
   250
100
AcDbSpline
210
0.0
220
0.0
230
1.0
 70
    24
 71
     3
 72
     8
 73
     4
 74
     0
 42
0.0000000001
 43
0.0000000001
 40
0.0
 40
0.0
 40
0.0
 40
0.0
 40
1.0
 40
1.0
 40
1.0
 40
1.0
 10
-30.8912
 20
7.9744
 30
0.0
 10
-30.8912
 20
7.9744
 30
0.0
 10
-37.7378
 20
7.9744
 30
0.0
 10
-37.7378
 20
7.9744
 30
0.0
  0
SPLINE
  5
58
330
1F
100
AcDbEntity
  8
ROUND
 62
   250
100
AcDbSpline
210
0.0
220
0.0
230
1.0
 70
    24
 71
     3
 72
     8
 73
     4
 74
     0
 42
0.0000000001
 43
0.0000000001
 40
0.0
 40
0.0
 40
0.0
 40
0.0
 40
1.0
 40
1.0
 40
1.0
 40
1.0
 10
-17.0718
 20
21.7057
 30
0.0
 10
-17.0718
 20
21.7057
 30
0.0
 10
-33.5821
 20
21.7057
 30
0.0
 10
-33.5821
 20
21.7057
 30
0.0
  0
SPLINE
  5
59
330
1F
100
AcDbEntity
  8
ROUND
 62
   250
100
AcDbSpline
210
0.0
220
0.0
230
1.0
 70
    24
 71
     3
 72
     8
 73
     4
 74
     0
 42
0.0000000001
 43
0.0000000001
 40
0.0
 40
0.0
 40
0.0
 40
0.0
 40
1.0
 40
1.0
 40
1.0
 40
1.0
 10
-13.3727
 20
6.6857
 30
0.0
 10
-13.3727
 20
6.6857
 30
0.0
 10
-33.747
 20
6.6857
 30
0.0
 10
-33.747
 20
6.6857
 30
0.0
  0
SPLINE
  5
5A
330
1F
100
AcDbEntity
  8
ROUND
 62
   250
100
AcDbSpline
210
0.0
220
0.0
230
1.0
 70
    24
 71
     3
 72
     8
 73
     4
 74
     0
 42
0.0000000001
 43
0.0000000001
 40
0.0
 40
0.0
 40
0.0
 40
0.0
 40
1.0
 40
1.0
 40
1.0
 40
1.0
 10
-0.0465
 20
23.5776
 30
0.0
 10
-0.0465
 20
23.5776
 30
0.0
 10
-29.9631
 20
23.5776
 30
0.0
 10
-29.9631
 20
23.5776
 30
0.0
  0
SPLINE
  5
5B
330
1F
100
AcDbEntity
  8
ROUND
 62
   250
100
AcDbSpline
210
0.0
220
0.0
230
1.0
 70
    24
 71
     3
 72
     8
 73
     4
 74
     0
 42
0.0000000001
 43
0.0000000001
 40
0.0
 40
0.0
 40
0.0
 40
0.0
 40
1.0
 40
1.0
 40
1.0
 40
1.0
 10
-6.8466
 20
14.3342
 30
0.0
 10
-6.8466
 20
14.3342
 30
0.0
 10
-20.1199
 20
14.3342
 30
0.0
 10
-20.1199
 20
14.3342
 30
0.0
  0
SPLINE
  5
5C
330
1F
100
AcDbEntity
  8
ROUND
 62
   250
100
AcDbSpline
210
0.0
220
0.0
230
1.0
 70
    24
 71
     3
 72
     8
 73
     4
 74
     0
 42
0.0000000001
 43
0.0000000001
 40
0.0
 40
0.0
 40
0.0
 40
0.0
 40
1.0
 40
1.0
 40
1.0
 40
1.0
 10
-37.1754
 20
7.8
 30
0.0
 10
-37.1754
 20
7.8
 30
0.0
 10
-37.1754
 20
-25.9748
 30
0.0
 10
-37.1754
 20
-25.9748
 30
0.0
  0
SPLINE
  5
5D
330
1F
100
AcDbEntity
  8
ROUND
 62
   250
100
AcDbSpline
210
0.0
220
0.0
230
1.0
 70
    24
 71
     3
 72
     8
 73
     4
 74
     0
 42
0.0000000001
 43
0.0000000001
 40
0.0
 40
0.0
 40
0.0
 40
0.0
 40
1.0
 40
1.0
 40
1.0
 40
1.0
 10
-33.2337
 20
21.5729
 30
0.0
 10
-33.2337
 20
21.5729
 30
0.0
 10
-33.2337
 20
0.902
 30
0.0
 10
-33.2337
 20
0.902
 30
0.0
  0
SPLINE
  5
5E
330
1F
100
AcDbEntity
  8
ROUND
 62
   250
100
AcDbSpline
210
0.0
220
0.0
230
1.0
 70
    11
 71
     3
 72
    20
 73
    16
 74
     0
 42
0.0000000001
 43
0.0000000001
 40
0.0
 40
0.0
 40
0.0
 40
0.0
 40
0.2
 40
0.2
 40
0.2
 40
0.2
 40
0.4
 40
0.4
 40
0.4
 40
0.4
 40
0.6
 40
0.6
 40
0.6
 40
0.6
 40
1.0
 40
1.0
 40
1.0
 40
1.0
 10
-2.0556
 20
23.9468
 30
0.0
 10
-2.0556
 20
23.9468
 30
0.0
 10
0.8787
 20
23.5327
 30
0.0
 10
0.8787
 20
23.5327
 30
0.0
 10
0.8787
 20
23.5327
 30
0.0
 10
0.8787
 20
23.5327
 30
0.0
 10
0.8787
 20
23.4407
 30
0.0
 10
0.8787
 20
23.4407
 30
0.0
 10
0.8787
 20
23.4407
 30
0.0
 10
0.8787
 20
23.4407
 30
0.0
 10
-2.0556
 20
22.9991
 30
0.0
 10
-2.0556
 20
22.9991
 30
0.0
 10
-2.0556
 20
22.9991
 30
0.0
 10
-2.0556
 20
22.9991
 30
0.0
 10
-2.0556
 20
23.9468
 30
0.0
 10
-2.0556
 20
23.9468
 30
0.0
  0
SPLINE
  5
5F
330
1F
100
AcDbEntity
  8
ROUND
 62
   250
100
AcDbSpline
210
0.0
220
0.0
230
1.0
 70
    11
 71
     3
 72
    20
 73
    16
 74
     0
 42
0.0000000001
 43
0.0000000001
 40
0.0
 40
0.0
 40
0.0
 40
0.0
 40
0.2
 40
0.2
 40
0.2
 40
0.2
 40
0.4
 40
0.4
 40
0.4
 40
0.4
 40
0.6
 40
0.6
 40
0.6
 40
0.6
 40
1.0
 40
1.0
 40
1.0
 40
1.0
 10
-19.1483
 20
14.7916
 30
0.0
 10
-19.1483
 20
14.7916
 30
0.0
 10
-16.214
 20
14.3775
 30
0.0
 10
-16.214
 20
14.3775
 30
0.0
 10
-16.214
 20
14.3775
 30
0.0
 10
-16.214
 20
14.3775
 30
0.0
 10
-16.214
 20
14.2855
 30
0.0
 10
-16.214
 20
14.2855
 30
0.0
 10
-16.214
 20
14.2855
 30
0.0
 10
-16.214
 20
14.2855
 30
0.0
 10
-19.1483
 20
13.8439
 30
0.0
 10
-19.1483
 20
13.8439
 30
0.0
 10
-19.1483
 20
13.8439
 30
0.0
 10
-19.1483
 20
13.8439
 30
0.0
 10
-19.1483
 20
14.7916
 30
0.0
 10
-19.1483
 20
14.7916
 30
0.0
  0
SPLINE
  5
60
330
1F
100
AcDbEntity
  8
ROUND
 62
   250
100
AcDbSpline
210
0.0
220
0.0
230
1.0
 70
    11
 71
     3
 72
    20
 73
    16
 74
     0
 42
0.0000000001
 43
0.0000000001
 40
0.0
 40
0.0
 40
0.0
 40
0.0
 40
0.2
 40
0.2
 40
0.2
 40
0.2
 40
0.4
 40
0.4
 40
0.4
 40
0.4
 40
0.6
 40
0.6
 40
0.6
 40
0.6
 40
1.0
 40
1.0
 40
1.0
 40
1.0
 10
-37.6337
 20
4.9588
 30
0.0
 10
-37.6337
 20
4.9588
 30
0.0
 10
-37.2196
 20
7.8931
 30
0.0
 10
-37.2196
 20
7.8931
 30
0.0
 10
-37.2196
 20
7.8931
 30
0.0
 10
-37.2196
 20
7.8931
 30
0.0
 10
-37.1276
 20
7.8931
 30
0.0
 10
-37.1276
 20
7.8931
 30
0.0
 10
-37.1276
 20
7.8931
 30
0.0
 10
-37.1276
 20
7.8931
 30
0.0
 10
-36.686
 20
4.9588
 30
0.0
 10
-36.686
 20
4.9588
 30
0.0
 10
-36.686
 20
4.9588
 30
0.0
 10
-36.686
 20
4.9588
 30
0.0
 10
-37.6337
 20
4.9588
 30
0.0
 10
-37.6337
 20
4.9588
 30
0.0
  0
SPLINE
  5
61
330
1F
100
AcDbEntity
  8
ROUND
 62
   250
100
AcDbSpline
210
0.0
220
0.0
230
1.0
 70
    11
 71
     3
 72
    20
 73
    16
 74
     0
 42
0.0000000001
 43
0.0000000001
 40
0.0
 40
0.0
 40
0.0
 40
0.0
 40
0.2
 40
0.2
 40
0.2
 40
0.2
 40
0.4
 40
0.4
 40
0.4
 40
0.4
 40
0.6
 40
0.6
 40
0.6
 40
0.6
 40
1.0
 40
1.0
 40
1.0
 40
1.0
 10
-33.6809
 20
18.6348
 30
0.0
 10
-33.6809
 20
18.6348
 30
0.0
 10
-33.2668
 20
21.5691
 30
0.0
 10
-33.2668
 20
21.5691
 30
0.0
 10
-33.2668
 20
21.5691
 30
0.0
 10
-33.2668
 20
21.5691
 30
0.0
 10
-33.1748
 20
21.5691
 30
0.0
 10
-33.1748
 20
21.5691
 30
0.0
 10
-33.1748
 20
21.5691
 30
0.0
 10
-33.1748
 20
21.5691
 30
0.0
 10
-32.7332
 20
18.6348
 30
0.0
 10
-32.7332
 20
18.6348
 30
0.0
 10
-32.7332
 20
18.6348
 30
0.0
 10
-32.7332
 20
18.6348
 30
0.0
 10
-33.6809
 20
18.6348
 30
0.0
 10
-33.6809
 20
18.6348
 30
0.0
  0
SPLINE
  5
62
330
1F
100
AcDbEntity
  8
ROUND
 62
   250
100
AcDbSpline
210
0.0
220
0.0
230
1.0
 70
    11
 71
     3
 72
    20
 73
    16
 74
     0
 42
0.0000000001
 43
0.0000000001
 40
0.0
 40
0.0
 40
0.0
 40
0.0
 40
0.2
 40
0.2
 40
0.2
 40
0.2
 40
0.4
 40
0.4
 40
0.4
 40
0.4
 40
0.6
 40
0.6
 40
0.6
 40
0.6
 40
1.0
 40
1.0
 40
1.0
 40
1.0
 10
-33.7301
 20
3.6807
 30
0.0
 10
-33.7301
 20
3.6807
 30
0.0
 10
-33.316
 20
6.615
 30
0.0
 10
-33.316
 20
6.615
 30
0.0
 10
-33.316
 20
6.615
 30
0.0
 10
-33.316
 20
6.615
 30
0.0
 10
-33.224
 20
6.615
 30
0.0
 10
-33.224
 20
6.615
 30
0.0
 10
-33.224
 20
6.615
 30
0.0
 10
-33.224
 20
6.615
 30
0.0
 10
-32.7824
 20
3.6807
 30
0.0
 10
-32.7824
 20
3.6807
 30
0.0
 10
-32.7824
 20
3.6807
 30
0.0
 10
-32.7824
 20
3.6807
 30
0.0
 10
-33.7301
 20
3.6807
 30
0.0
 10
-33.7301
 20
3.6807
 30
0.0
  0
SPLINE
  5
63
330
1F
100
AcDbEntity
  8
ROUND
 62
   250
100
AcDbSpline
210
0.0
220
0.0
230
1.0
 70
    11
 71
     3
 72
    20
 73
    16
 74
     0
 42
0.0000000001
 43
0.0000000001
 40
0.0
 40
0.0
 40
0.0
 40
0.0
 40
0.2
 40
0.2
 40
0.2
 40
0.2
 40
0.4
 40
0.4
 40
0.4
 40
0.4
 40
0.6
 40
0.6
 40
0.6
 40
0.6
 40
1.0
 40
1.0
 40
1.0
 40
1.0
 10
-27.4321
 20
23.0998
 30
0.0
 10
-27.4321
 20
23.0998
 30
0.0
 10
-30.3663
 20
23.5139
 30
0.0
 10
-30.3663
 20
23.5139
 30
0.0
 10
-30.3663
 20
23.5139
 30
0.0
 10
-30.3663
 20
23.5139
 30
0.0
 10
-30.3663
 20
23.6059
 30
0.0
 10
-30.3663
 20
23.6059
 30
0.0
 10
-30.3663
 20
23.6059
 30
0.0
 10
-30.3663
 20
23.6059
 30
0.0
 10
-27.4321
 20
24.0475
 30
0.0
 10
-27.4321
 20
24.0475
 30
0.0
 10
-27.4321
 20
24.0475
 30
0.0
 10
-27.4321
 20
24.0475
 30
0.0
 10
-27.4321
 20
23.0998
 30
0.0
 10
-27.4321
 20
23.0998
 30
0.0
  0
SPLINE
  5
64
330
1F
100
AcDbEntity
  8
ROUND
 62
   250
100
AcDbSpline
210
0.0
220
0.0
230
1.0
 70
    11
 71
     3
 72
    20
 73
    16
 74
     0
 42
0.0000000001
 43
0.0000000001
 40
0.0
 40
0.0
 40
0.0
 40
0.0
 40
0.2
 40
0.2
 40
0.2
 40
0.2
 40
0.4
 40
0.4
 40
0.4
 40
0.4
 40
0.6
 40
0.6
 40
0.6
 40
0.6
 40
1.0
 40
1.0
 40
1.0
 40
1.0
 10
-10.4376
 20
13.8564
 30
0.0
 10
-10.4376
 20
13.8564
 30
0.0
 10
-13.3718
 20
14.2705
 30
0.0
 10
-13.3718
 20
14.2705
 30
0.0
 10
-13.3718
 20
14.2705
 30
0.0
 10
-13.3718
 20
14.2705
 30
0.0
 10
-13.3718
 20
14.3625
 30
0.0
 10
-13.3718
 20
14.3625
 30
0.0
 10
-13.3718
 20
14.3625
 30
0.0
 10
-13.3718
 20
14.3625
 30
0.0
 10
-10.4376
 20
14.8041
 30
0.0
 10
-10.4376
 20
14.8041
 30
0.0
 10
-10.4376
 20
14.8041
 30
0.0
 10
-10.4376
 20
14.8041
 30
0.0
 10
-10.4376
 20
13.8564
 30
0.0
 10
-10.4376
 20
13.8564
 30
0.0
  0
SPLINE
  5
65
330
1F
100
AcDbEntity
  8
ROUND
 62
   250
100
AcDbSpline
210
0.0
220
0.0
230
1.0
 70
    11
 71
     3
 72
    20
 73
    16
 74
     0
 42
0.0000000001
 43
0.0000000001
 40
0.0
 40
0.0
 40
0.0
 40
0.0
 40
0.2
 40
0.2
 40
0.2
 40
0.2
 40
0.4
 40
0.4
 40
0.4
 40
0.4
 40
0.6
 40
0.6
 40
0.6
 40
0.6
 40
1.0
 40
1.0
 40
1.0
 40
1.0
 10
-36.7096
 20
-23.1319
 30
0.0
 10
-36.7096
 20
-23.1319
 30
0.0
 10
-37.1237
 20
-26.0661
 30
0.0
 10
-37.1237
 20
-26.0661
 30
0.0
 10
-37.1237
 20
-26.0661
 30
0.0
 10
-37.1237
 20
-26.0661
 30
0.0
 10
-37.2157
 20
-26.0661
 30
0.0
 10
-37.2157
 20
-26.0661
 30
0.0
 10
-37.2157
 20
-26.0661
 30
0.0
 10
-37.2157
 20
-26.0661
 30
0.0
 10
-37.6573
 20
-23.1319
 30
0.0
 10
-37.6573
 20
-23.1319
 30
0.0
 10
-37.6573
 20
-23.1319
 30
0.0
 10
-37.6573
 20
-23.1319
 30
0.0
 10
-36.7096
 20
-23.1319
 30
0.0
 10
-36.7096
 20
-23.1319
 30
0.0
  0
SPLINE
  5
66
330
1F
100
AcDbEntity
  8
ROUND
 62
   250
100
AcDbSpline
210
0.0
220
0.0
230
1.0
 70
    11
 71
     3
 72
    20
 73
    16
 74
     0
 42
0.0000000001
 43
0.0000000001
 40
0.0
 40
0.0
 40
0.0
 40
0.0
 40
0.2
 40
0.2
 40
0.2
 40
0.2
 40
0.4
 40
0.4
 40
0.4
 40
0.4
 40
0.6
 40
0.6
 40
0.6
 40
0.6
 40
1.0
 40
1.0
 40
1.0
 40
1.0
 10
-32.7678
 20
10.9502
 30
0.0
 10
-32.7678
 20
10.9502
 30
0.0
 10
-33.1819
 20
8.016
 30
0.0
 10
-33.1819
 20
8.016
 30
0.0
 10
-33.1819
 20
8.016
 30
0.0
 10
-33.1819
 20
8.016
 30
0.0
 10
-33.2739
 20
8.016
 30
0.0
 10
-33.2739
 20
8.016
 30
0.0
 10
-33.2739
 20
8.016
 30
0.0
 10
-33.2739
 20
8.016
 30
0.0
 10
-33.7155
 20
10.9502
 30
0.0
 10
-33.7155
 20
10.9502
 30
0.0
 10
-33.7155
 20
10.9502
 30
0.0
 10
-33.7155
 20
10.9502
 30
0.0
 10
-32.7678
 20
10.9502
 30
0.0
 10
-32.7678
 20
10.9502
 30
0.0
  0
SPLINE
  5
67
330
1F
100
AcDbEntity
  8
ROUND
100
AcDbSpline
210
0.0
220
0.0
230
1.0
 70
    24
 71
     3
 72
     8
 73
     4
 74
     0
 42
0.0000000001
 43
0.0000000001
 40
0.0
 40
0.0
 40
0.0
 40
0.0
 40
1.0
 40
1.0
 40
1.0
 40
1.0
 10
-15.5463
 20
-25.2478
 30
0.0
 10
-15.5463
 20
-25.2478
 30
0.0
 10
-16.3334
 20
-25.2478
 30
0.0
 10
-16.3334
 20
-25.2478
 30
0.0
  0
SPLINE
  5
68
330
1F
100
AcDbEntity
  8
ROUND
100
AcDbSpline
210
0.0
220
0.0
230
1.0
 70
    24
 71
     3
 72
     8
 73
     4
 74
     0
 42
0.0000000001
 43
0.0000000001
 40
0.0
 40
0.0
 40
0.0
 40
0.0
 40
1.0
 40
1.0
 40
1.0
 40
1.0
 10
-16.3334
 20
-25.2939
 30
0.0
 10
-16.3334
 20
-25.2939
 30
0.0
 10
-16.3334
 20
-25.2478
 30
0.0
 10
-16.3334
 20
-25.2478
 30
0.0
  0
SPLINE
  5
69
330
1F
100
AcDbEntity
  8
ROUND
100
AcDbSpline
210
0.0
220
0.0
230
1.0
 70
    24
 71
     3
 72
     8
 73
     4
 74
     0
 42
0.0000000001
 43
0.0000000001
 40
0.0
 40
0.0
 40
0.0
 40
0.0
 40
1.0
 40
1.0
 40
1.0
 40
1.0
 10
-15.5463
 20
-25.2478
 30
0.0
 10
-15.5463
 20
-25.2478
 30
0.0
 10
-15.5463
 20
-25.3002
 30
0.0
 10
-15.5463
 20
-25.3002
 30
0.0
  0
SPLINE
  5
6A
330
1F
100
AcDbEntity
  8
ROUND
100
AcDbSpline
210
0.0
220
0.0
230
1.0
 70
    24
 71
     3
 72
     8
 73
     4
 74
     0
 42
0.0000000001
 43
0.0000000001
 40
0.0
 40
0.0
 40
0.0
 40
0.0
 40
1.0
 40
1.0
 40
1.0
 40
1.0
 10
-16.3156
 20
-25.3002
 30
0.0
 10
-16.3156
 20
-25.3002
 30
0.0
 10
-15.1524
 20
-25.3002
 30
0.0
 10
-15.1524
 20
-25.3002
 30
0.0
  0
SPLINE
  5
6B
330
1F
100
AcDbEntity
  8
ROUND
100
AcDbSpline
210
0.0
220
0.0
230
1.0
 70
    24
 71
     3
 72
     8
 73
     4
 74
     0
 42
0.0000000001
 43
0.0000000001
 40
0.0
 40
0.0
 40
0.0
 40
0.0
 40
1.0
 40
1.0
 40
1.0
 40
1.0
 10
-4.9858
 20
-10.3485
 30
0.0
 10
-4.9858
 20
-10.3485
 30
0.0
 10
-3.8618
 20
-10.3485
 30
0.0
 10
-3.8618
 20
-10.3485
 30
0.0
  0
SPLINE
  5
6C
330
1F
100
AcDbEntity
  8
ROUND
100
AcDbSpline
210
0.0
220
0.0
230
1.0
 70
    24
 71
     3
 72
     8
 73
     4
 74
     0
 42
0.0000000001
 43
0.0000000001
 40
0.0
 40
0.0
 40
0.0
 40
0.0
 40
1.0
 40
1.0
 40
1.0
 40
1.0
 10
-3.8693
 20
-10.3485
 30
0.0
 10
-3.8693
 20
-10.3485
 30
0.0
 10
-2.0987
 20
2.2421
 30
0.0
 10
-2.0987
 20
2.2421
 30
0.0
  0
SPLINE
  5
6D
330
1F
100
AcDbEntity
  8
ROUND
100
AcDbSpline
210
0.0
220
0.0
230
1.0
 70
    24
 71
     3
 72
     8
 73
     4
 74
     0
 42
0.0000000001
 43
0.0000000001
 40
0.0
 40
0.0
 40
0.0
 40
0.0
 40
1.0
 40
1.0
 40
1.0
 40
1.0
 10
-27.734
 20
2.2421
 30
0.0
 10
-27.734
 20
2.2421
 30
0.0
 10
-1.7852
 20
2.2421
 30
0.0
 10
-1.7852
 20
2.2421
 30
0.0
  0
SPLINE
  5
6E
330
1F
100
AcDbEntity
  8
ROUND
100
AcDbSpline
210
0.0
220
0.0
230
1.0
 70
    24
 71
     3
 72
     8
 73
     4
 74
     0
 42
0.0000000001
 43
0.0000000001
 40
0.0
 40
0.0
 40
0.0
 40
0.0
 40
1.0
 40
1.0
 40
1.0
 40
1.0
 10
-3.7509
 20
2.2421
 30
0.0
 10
-3.7509
 20
2.2421
 30
0.0
 10
-24.1403
 20
2.2421
 30
0.0
 10
-24.1403
 20
2.2421
 30
0.0
  0
SPLINE
  5
6F
330
1F
100
AcDbEntity
  8
ROUND
100
AcDbSpline
210
0.0
220
0.0
230
1.0
 70
    24
 71
     3
 72
     8
 73
     4
 74
     0
 42
0.0000000001
 43
0.0000000001
 40
0.0
 40
0.0
 40
0.0
 40
0.0
 40
1.0
 40
1.0
 40
1.0
 40
1.0
 10
-22.7712
 20
-10.3485
 30
0.0
 10
-22.7712
 20
-10.3485
 30
0.0
 10
-24.3032
 20
2.2421
 30
0.0
 10
-24.3032
 20
2.2421
 30
0.0
  0
SPLINE
  5
70
330
1F
100
AcDbEntity
  8
ROUND
100
AcDbSpline
210
0.0
220
0.0
230
1.0
 70
    24
 71
     3
 72
     8
 73
     4
 74
     0
 42
0.0000000001
 43
0.0000000001
 40
0.0
 40
0.0
 40
0.0
 40
0.0
 40
1.0
 40
1.0
 40
1.0
 40
1.0
 10
-25.9204
 20
2.2421
 30
0.0
 10
-25.9204
 20
2.2421
 30
0.0
 10
-24.387
 20
-10.3485
 30
0.0
 10
-24.387
 20
-10.3485
 30
0.0
  0
SPLINE
  5
71
330
1F
100
AcDbEntity
  8
ROUND
100
AcDbSpline
210
0.0
220
0.0
230
1.0
 70
    24
 71
     3
 72
     8
 73
     4
 74
     0
 42
0.0000000001
 43
0.0000000001
 40
0.0
 40
0.0
 40
0.0
 40
0.0
 40
1.0
 40
1.0
 40
1.0
 40
1.0
 10
-24.533
 20
-10.3485
 30
0.0
 10
-24.533
 20
-10.3485
 30
0.0
 10
-25.6565
 20
-10.3485
 30
0.0
 10
-25.6565
 20
-10.3485
 30
0.0
  0
SPLINE
  5
72
330
1F
100
AcDbEntity
  8
ROUND
100
AcDbSpline
210
0.0
220
0.0
230
1.0
 70
    24
 71
     3
 72
     8
 73
     4
 74
     0
 42
0.0000000001
 43
0.0000000001
 40
0.0
 40
0.0
 40
0.0
 40
0.0
 40
1.0
 40
1.0
 40
1.0
 40
1.0
 10
-25.6495
 20
-10.3485
 30
0.0
 10
-25.6495
 20
-10.3485
 30
0.0
 10
-27.4198
 20
2.2421
 30
0.0
 10
-27.4198
 20
2.2421
 30
0.0
  0
SPLINE
  5
73
330
1F
100
AcDbEntity
  8
ROUND
100
AcDbSpline
210
0.0
220
0.0
230
1.0
 70
    24
 71
     3
 72
     8
 73
     4
 74
     0
 42
0.0000000001
 43
0.0000000001
 40
0.0
 40
0.0
 40
0.0
 40
0.0
 40
1.0
 40
1.0
 40
1.0
 40
1.0
 10
-20.8134
 20
-10.3485
 30
0.0
 10
-20.8134
 20
-10.3485
 30
0.0
 10
-23.8199
 20
-10.3485
 30
0.0
 10
-23.8199
 20
-10.3485
 30
0.0
  0
SPLINE
  5
74
330
1F
100
AcDbEntity
  8
ROUND
100
AcDbSpline
210
0.0
220
0.0
230
1.0
 70
    24
 71
     3
 72
     8
 73
     4
 74
     0
 42
0.0000000001
 43
0.0000000001
 40
0.0
 40
0.0
 40
0.0
 40
0.0
 40
1.0
 40
1.0
 40
1.0
 40
1.0
 10
-20.5445
 20
-10.3485
 30
0.0
 10
-20.5445
 20
-10.3485
 30
0.0
 10
-21.43
 20
2.2421
 30
0.0
 10
-21.43
 20
2.2421
 30
0.0
  0
SPLINE
  5
75
330
1F
100
AcDbEntity
  8
ROUND
100
AcDbSpline
210
0.0
220
0.0
230
1.0
 70
    24
 71
     3
 72
     8
 73
     4
 74
     0
 42
0.0000000001
 43
0.0000000001
 40
0.0
 40
0.0
 40
0.0
 40
0.0
 40
1.0
 40
1.0
 40
1.0
 40
1.0
 10
-19.6974
 20
2.2421
 30
0.0
 10
-19.6974
 20
2.2421
 30
0.0
 10
-20.3318
 20
2.2421
 30
0.0
 10
-20.3318
 20
2.2421
 30
0.0
  0
SPLINE
  5
76
330
1F
100
AcDbEntity
  8
ROUND
100
AcDbSpline
210
0.0
220
0.0
230
1.0
 70
    24
 71
     3
 72
     8
 73
     4
 74
     0
 42
0.0000000001
 43
0.0000000001
 40
0.0
 40
0.0
 40
0.0
 40
0.0
 40
1.0
 40
1.0
 40
1.0
 40
1.0
 10
-20.1192
 20
2.2421
 30
0.0
 10
-20.1192
 20
2.2421
 30
0.0
 10
-19.2344
 20
-10.3485
 30
0.0
 10
-19.2344
 20
-10.3485
 30
0.0
  0
SPLINE
  5
77
330
1F
100
AcDbEntity
  8
ROUND
100
AcDbSpline
210
0.0
220
0.0
230
1.0
 70
    24
 71
     3
 72
     8
 73
     4
 74
     0
 42
0.0000000001
 43
0.0000000001
 40
0.0
 40
0.0
 40
0.0
 40
0.0
 40
1.0
 40
1.0
 40
1.0
 40
1.0
 10
-19.5788
 20
-10.3485
 30
0.0
 10
-19.5788
 20
-10.3485
 30
0.0
 10
-15.4721
 20
-10.3485
 30
0.0
 10
-15.4721
 20
-10.3485
 30
0.0
  0
SPLINE
  5
78
330
1F
100
AcDbEntity
  8
ROUND
100
AcDbSpline
210
0.0
220
0.0
230
1.0
 70
    24
 71
     3
 72
     8
 73
     4
 74
     0
 42
0.0000000001
 43
0.0000000001
 40
0.0
 40
0.0
 40
0.0
 40
0.0
 40
1.0
 40
1.0
 40
1.0
 40
1.0
 10
-15.1524
 20
-10.3485
 30
0.0
 10
-15.1524
 20
-10.3485
 30
0.0
 10
-15.1524
 20
2.2421
 30
0.0
 10
-15.1524
 20
2.2421
 30
0.0
  0
SPLINE
  5
79
330
1F
100
AcDbEntity
  8
ROUND
100
AcDbSpline
210
0.0
220
0.0
230
1.0
 70
    24
 71
     3
 72
     8
 73
     4
 74
     0
 42
0.0000000001
 43
0.0000000001
 40
0.0
 40
0.0
 40
0.0
 40
0.0
 40
1.0
 40
1.0
 40
1.0
 40
1.0
 10
-18.6845
 20
2.2421
 30
0.0
 10
-18.6845
 20
2.2421
 30
0.0
 10
-8.4001
 20
2.2421
 30
0.0
 10
-8.4001
 20
2.2421
 30
0.0
  0
SPLINE
  5
7A
330
1F
100
AcDbEntity
  8
ROUND
100
AcDbSpline
210
0.0
220
0.0
230
1.0
 70
    24
 71
     3
 72
     8
 73
     4
 74
     0
 42
0.0000000001
 43
0.0000000001
 40
0.0
 40
0.0
 40
0.0
 40
0.0
 40
1.0
 40
1.0
 40
1.0
 40
1.0
 10
-5.7984
 20
2.2421
 30
0.0
 10
-5.7984
 20
2.2421
 30
0.0
 10
-8.0884
 20
2.2421
 30
0.0
 10
-8.0884
 20
2.2421
 30
0.0
  0
SPLINE
  5
7B
330
1F
100
AcDbEntity
  8
ROUND
100
AcDbSpline
210
0.0
220
0.0
230
1.0
 70
    24
 71
     3
 72
     8
 73
     4
 74
     0
 42
0.0000000001
 43
0.0000000001
 40
0.0
 40
0.0
 40
0.0
 40
0.0
 40
1.0
 40
1.0
 40
1.0
 40
1.0
 10
-8.4001
 20
2.2421
 30
0.0
 10
-8.4001
 20
2.2421
 30
0.0
 10
-8.4259
 20
2.2421
 30
0.0
 10
-8.4259
 20
2.2421
 30
0.0
  0
SPLINE
  5
7C
330
1F
100
AcDbEntity
  8
ROUND
100
AcDbSpline
210
0.0
220
0.0
230
1.0
 70
    24
 71
     3
 72
     8
 73
     4
 74
     0
 42
0.0000000001
 43
0.0000000001
 40
0.0
 40
0.0
 40
0.0
 40
0.0
 40
1.0
 40
1.0
 40
1.0
 40
1.0
 10
-8.9737
 20
-10.3485
 30
0.0
 10
-8.9737
 20
-10.3485
 30
0.0
 10
-8.0884
 20
2.2421
 30
0.0
 10
-8.0884
 20
2.2421
 30
0.0
  0
SPLINE
  5
7D
330
1F
100
AcDbEntity
  8
ROUND
100
AcDbSpline
210
0.0
220
0.0
230
1.0
 70
    24
 71
     3
 72
     8
 73
     4
 74
     0
 42
0.0000000001
 43
0.0000000001
 40
0.0
 40
0.0
 40
0.0
 40
0.0
 40
1.0
 40
1.0
 40
1.0
 40
1.0
 10
-8.4259
 20
2.2421
 30
0.0
 10
-8.4259
 20
2.2421
 30
0.0
 10
-7.8917
 20
2.2421
 30
0.0
 10
-7.8917
 20
2.2421
 30
0.0
  0
SPLINE
  5
7E
330
1F
100
AcDbEntity
  8
ROUND
100
AcDbSpline
210
0.0
220
0.0
230
1.0
 70
    24
 71
     3
 72
     8
 73
     4
 74
     0
 42
0.0000000001
 43
0.0000000001
 40
0.0
 40
0.0
 40
0.0
 40
0.0
 40
1.0
 40
1.0
 40
1.0
 40
1.0
 10
-10.2843
 20
-10.3485
 30
0.0
 10
-10.2843
 20
-10.3485
 30
0.0
 10
-9.3996
 20
2.2421
 30
0.0
 10
-9.3996
 20
2.2421
 30
0.0
  0
SPLINE
  5
7F
330
1F
100
AcDbEntity
  8
ROUND
100
AcDbSpline
210
0.0
220
0.0
230
1.0
 70
    24
 71
     3
 72
     8
 73
     4
 74
     0
 42
0.0000000001
 43
0.0000000001
 40
0.0
 40
0.0
 40
0.0
 40
0.0
 40
1.0
 40
1.0
 40
1.0
 40
1.0
 10
-14.0467
 20
-10.3485
 30
0.0
 10
-14.0467
 20
-10.3485
 30
0.0
 10
-9.9394
 20
-10.3485
 30
0.0
 10
-9.9394
 20
-10.3485
 30
0.0
  0
SPLINE
  5
80
330
1F
100
AcDbEntity
  8
ROUND
100
AcDbSpline
210
0.0
220
0.0
230
1.0
 70
    24
 71
     3
 72
     8
 73
     4
 74
     0
 42
0.0000000001
 43
0.0000000001
 40
0.0
 40
0.0
 40
0.0
 40
0.0
 40
1.0
 40
1.0
 40
1.0
 40
1.0
 10
-14.3663
 20
2.2421
 30
0.0
 10
-14.3663
 20
2.2421
 30
0.0
 10
-14.3663
 20
-10.3485
 30
0.0
 10
-14.3663
 20
-10.3485
 30
0.0
  0
SPLINE
  5
81
330
1F
100
AcDbEntity
  8
ROUND
100
AcDbSpline
210
0.0
220
0.0
230
1.0
 70
    24
 71
     3
 72
     8
 73
     4
 74
     0
 42
0.0000000001
 43
0.0000000001
 40
0.0
 40
0.0
 40
0.0
 40
0.0
 40
1.0
 40
1.0
 40
1.0
 40
1.0
 10
-15.2024
 20
2.2421
 30
0.0
 10
-15.2024
 20
2.2421
 30
0.0
 10
-13.7822
 20
2.2421
 30
0.0
 10
-13.7822
 20
2.2421
 30
0.0
  0
SPLINE
  5
82
330
1F
100
AcDbEntity
  8
ROUND
100
AcDbSpline
210
0.0
220
0.0
230
1.0
 70
    24
 71
     3
 72
     8
 73
     4
 74
     0
 42
0.0000000001
 43
0.0000000001
 40
0.0
 40
0.0
 40
0.0
 40
0.0
 40
1.0
 40
1.0
 40
1.0
 40
1.0
 10
-14.3658
 20
2.2421
 30
0.0
 10
-14.3658
 20
2.2421
 30
0.0
 10
-14.3164
 20
2.2421
 30
0.0
 10
-14.3164
 20
2.2421
 30
0.0
  0
SPLINE
  5
83
330
1F
100
AcDbEntity
  8
ROUND
100
AcDbSpline
210
0.0
220
0.0
230
1.0
 70
    24
 71
     3
 72
     8
 73
     4
 74
     0
 42
0.0000000001
 43
0.0000000001
 40
0.0
 40
0.0
 40
0.0
 40
0.0
 40
1.0
 40
1.0
 40
1.0
 40
1.0
 10
-15.4976
 20
2.2421
 30
0.0
 10
-15.4976
 20
2.2421
 30
0.0
 10
-15.1524
 20
2.2421
 30
0.0
 10
-15.1524
 20
2.2421
 30
0.0
  0
SPLINE
  5
84
330
1F
100
AcDbEntity
  8
ROUND
100
AcDbSpline
210
0.0
220
0.0
230
1.0
 70
    24
 71
     3
 72
     8
 73
     4
 74
     0
 42
0.0000000001
 43
0.0000000001
 40
0.0
 40
0.0
 40
0.0
 40
0.0
 40
1.0
 40
1.0
 40
1.0
 40
1.0
 10
-15.7365
 20
2.2421
 30
0.0
 10
-15.7365
 20
2.2421
 30
0.0
 10
-15.1524
 20
2.2421
 30
0.0
 10
-15.1524
 20
2.2421
 30
0.0
  0
SPLINE
  5
85
330
1F
100
AcDbEntity
  8
ROUND
100
AcDbSpline
210
0.0
220
0.0
230
1.0
 70
    24
 71
     3
 72
     8
 73
     4
 74
     0
 42
0.0000000001
 43
0.0000000001
 40
0.0
 40
0.0
 40
0.0
 40
0.0
 40
1.0
 40
1.0
 40
1.0
 40
1.0
 10
-8.7048
 20
-10.3485
 30
0.0
 10
-8.7048
 20
-10.3485
 30
0.0
 10
-5.6986
 20
-10.3485
 30
0.0
 10
-5.6986
 20
-10.3485
 30
0.0
  0
SPLINE
  5
86
330
1F
100
AcDbEntity
  8
ROUND
100
AcDbSpline
210
0.0
220
0.0
230
1.0
 70
    24
 71
     3
 72
     8
 73
     4
 74
     0
 42
0.0000000001
 43
0.0000000001
 40
0.0
 40
0.0
 40
0.0
 40
0.0
 40
1.0
 40
1.0
 40
1.0
 40
1.0
 10
-3.5984
 20
2.2421
 30
0.0
 10
-3.5984
 20
2.2421
 30
0.0
 10
-5.1317
 20
-10.3485
 30
0.0
 10
-5.1317
 20
-10.3485
 30
0.0
  0
SPLINE
  5
87
330
1F
100
AcDbEntity
  8
ROUND
100
AcDbSpline
210
0.0
220
0.0
230
1.0
 70
    24
 71
     3
 72
     8
 73
     4
 74
     0
 42
0.0000000001
 43
0.0000000001
 40
0.0
 40
0.0
 40
0.0
 40
0.0
 40
1.0
 40
1.0
 40
1.0
 40
1.0
 10
-4.7889
 20
2.2421
 30
0.0
 10
-4.7889
 20
2.2421
 30
0.0
 10
-5.0103
 20
2.2421
 30
0.0
 10
-5.0103
 20
2.2421
 30
0.0
  0
SPLINE
  5
88
330
1F
100
AcDbEntity
  8
ROUND
100
AcDbSpline
210
0.0
220
0.0
230
1.0
 70
    24
 71
     3
 72
     8
 73
     4
 74
     0
 42
0.0000000001
 43
0.0000000001
 40
0.0
 40
0.0
 40
0.0
 40
0.0
 40
1.0
 40
1.0
 40
1.0
 40
1.0
 10
-4.7889
 20
2.2421
 30
0.0
 10
-4.7889
 20
2.2421
 30
0.0
 10
-5.3944
 20
2.2421
 30
0.0
 10
-5.3944
 20
2.2421
 30
0.0
  0
SPLINE
  5
89
330
1F
100
AcDbEntity
  8
ROUND
100
AcDbSpline
210
0.0
220
0.0
230
1.0
 70
    24
 71
     3
 72
     8
 73
     4
 74
     0
 42
0.0000000001
 43
0.0000000001
 40
0.0
 40
0.0
 40
0.0
 40
0.0
 40
1.0
 40
1.0
 40
1.0
 40
1.0
 10
-4.075
 20
2.2421
 30
0.0
 10
-4.075
 20
2.2421
 30
0.0
 10
-4.6471
 20
2.2421
 30
0.0
 10
-4.6471
 20
2.2421
 30
0.0
  0
SPLINE
  5
8A
330
1F
100
AcDbEntity
  8
ROUND
100
AcDbSpline
210
0.0
220
0.0
230
1.0
 70
    24
 71
     3
 72
     8
 73
     4
 74
     0
 42
0.0000000001
 43
0.0000000001
 40
0.0
 40
0.0
 40
0.0
 40
0.0
 40
1.0
 40
1.0
 40
1.0
 40
1.0
 10
-5.3944
 20
2.2421
 30
0.0
 10
-5.3944
 20
2.2421
 30
0.0
 10
-5.1768
 20
2.2421
 30
0.0
 10
-5.1768
 20
2.2421
 30
0.0
  0
SPLINE
  5
8B
330
1F
100
AcDbEntity
  8
ROUND
100
AcDbSpline
210
0.0
220
0.0
230
1.0
 70
    24
 71
     3
 72
     8
 73
     4
 74
     0
 42
0.0000000001
 43
0.0000000001
 40
0.0
 40
0.0
 40
0.0
 40
0.0
 40
1.0
 40
1.0
 40
1.0
 40
1.0
 10
-4.3054
 20
2.2421
 30
0.0
 10
-4.3054
 20
2.2421
 30
0.0
 10
-4.075
 20
2.2421
 30
0.0
 10
-4.075
 20
2.2421
 30
0.0
  0
SPLINE
  5
8C
330
1F
100
AcDbEntity
  8
ROUND
100
AcDbSpline
210
0.0
220
0.0
230
1.0
 70
    24
 71
     3
 72
     8
 73
     4
 74
     0
 42
0.0000000001
 43
0.0000000001
 40
0.0
 40
0.0
 40
0.0
 40
0.0
 40
1.0
 40
1.0
 40
1.0
 40
1.0
 10
-3.7509
 20
2.2421
 30
0.0
 10
-3.7509
 20
2.2421
 30
0.0
 10
-4.3054
 20
2.2421
 30
0.0
 10
-4.3054
 20
2.2421
 30
0.0
  0
SPLINE
  5
8D
330
1F
100
AcDbEntity
  8
ROUND
100
AcDbSpline
210
0.0
220
0.0
230
1.0
 70
    24
 71
     3
 72
     8
 73
     4
 74
     0
 42
0.0000000001
 43
0.0000000001
 40
0.0
 40
0.0
 40
0.0
 40
0.0
 40
1.0
 40
1.0
 40
1.0
 40
1.0
 10
-5.2153
 20
2.2421
 30
0.0
 10
-5.2153
 20
2.2421
 30
0.0
 10
-6.7473
 20
-10.3485
 30
0.0
 10
-6.7473
 20
-10.3485
 30
0.0
  0
SPLINE
  5
8E
330
1F
100
AcDbEntity
  8
ROUND
100
AcDbSpline
210
0.0
220
0.0
230
1.0
 70
    24
 71
     3
 72
     8
 73
     4
 74
     0
 42
0.0000000001
 43
0.0000000001
 40
0.0
 40
0.0
 40
0.0
 40
0.0
 40
1.0
 40
1.0
 40
1.0
 40
1.0
 10
-5.0103
 20
2.2421
 30
0.0
 10
-5.0103
 20
2.2421
 30
0.0
 10
-4.421
 20
2.2421
 30
0.0
 10
-4.421
 20
2.2421
 30
0.0
  0
SPLINE
  5
8F
330
1F
100
AcDbEntity
  8
ROUND
100
AcDbSpline
210
0.0
220
0.0
230
1.0
 70
    24
 71
     3
 72
     8
 73
     4
 74
     0
 42
0.0000000001
 43
0.0000000001
 40
0.0
 40
0.0
 40
0.0
 40
0.0
 40
1.0
 40
1.0
 40
1.0
 40
1.0
 10
-4.6471
 20
2.2421
 30
0.0
 10
-4.6471
 20
2.2421
 30
0.0
 10
-4.421
 20
2.2421
 30
0.0
 10
-4.421
 20
2.2421
 30
0.0
  0
SPLINE
  5
90
330
1F
100
AcDbEntity
  8
ROUND
100
AcDbSpline
210
0.0
220
0.0
230
1.0
 70
    24
 71
     3
 72
     8
 73
     4
 74
     0
 42
0.0000000001
 43
0.0000000001
 40
0.0
 40
0.0
 40
0.0
 40
0.0
 40
1.0
 40
1.0
 40
1.0
 40
1.0
 10
-19.7928
 20
2.2421
 30
0.0
 10
-19.7928
 20
2.2421
 30
0.0
 10
-19.1537
 20
2.2421
 30
0.0
 10
-19.1537
 20
2.2421
 30
0.0
  0
SPLINE
  5
91
330
1F
100
AcDbEntity
  8
ROUND
100
AcDbSpline
210
0.0
220
0.0
230
1.0
 70
    24
 71
     3
 72
     8
 73
     4
 74
     0
 42
0.0000000001
 43
0.0000000001
 40
0.0
 40
0.0
 40
0.0
 40
0.0
 40
1.0
 40
1.0
 40
1.0
 40
1.0
 10
-18.6845
 20
2.2421
 30
0.0
 10
-18.6845
 20
2.2421
 30
0.0
 10
-18.6005
 20
2.2421
 30
0.0
 10
-18.6005
 20
2.2421
 30
0.0
  0
SPLINE
  5
92
330
1F
100
AcDbEntity
  8
ROUND
100
AcDbSpline
210
0.0
220
0.0
230
1.0
 70
    24
 71
     3
 72
     8
 73
     4
 74
     0
 42
0.0000000001
 43
0.0000000001
 40
0.0
 40
0.0
 40
0.0
 40
0.0
 40
1.0
 40
1.0
 40
1.0
 40
1.0
 10
-19.2431
 20
2.2421
 30
0.0
 10
-19.2431
 20
2.2421
 30
0.0
 10
-19.1537
 20
2.2421
 30
0.0
 10
-19.1537
 20
2.2421
 30
0.0
  0
SPLINE
  5
93
330
1F
100
AcDbEntity
  8
ROUND
100
AcDbSpline
210
0.0
220
0.0
230
1.0
 70
    24
 71
     3
 72
     8
 73
     4
 74
     0
 42
0.0000000001
 43
0.0000000001
 40
0.0
 40
0.0
 40
0.0
 40
0.0
 40
1.0
 40
1.0
 40
1.0
 40
1.0
 10
-19.2431
 20
2.2421
 30
0.0
 10
-19.2431
 20
2.2421
 30
0.0
 10
-18.6005
 20
2.2421
 30
0.0
 10
-18.6005
 20
2.2421
 30
0.0
  0
SPLINE
  5
94
330
1F
100
AcDbEntity
  8
ROUND
100
AcDbSpline
210
0.0
220
0.0
230
1.0
 70
    24
 71
     3
 72
     8
 73
     4
 74
     0
 42
0.0000000001
 43
0.0000000001
 40
0.0
 40
0.0
 40
0.0
 40
0.0
 40
1.0
 40
1.0
 40
1.0
 40
1.0
 10
-18.1171
 20
2.2421
 30
0.0
 10
-18.1171
 20
2.2421
 30
0.0
 10
-18.0395
 20
2.2421
 30
0.0
 10
-18.0395
 20
2.2421
 30
0.0
  0
SPLINE
  5
95
330
1F
100
AcDbEntity
  8
ROUND
100
AcDbSpline
210
0.0
220
0.0
230
1.0
 70
    24
 71
     3
 72
     8
 73
     4
 74
     0
 42
0.0000000001
 43
0.0000000001
 40
0.0
 40
0.0
 40
0.0
 40
0.0
 40
1.0
 40
1.0
 40
1.0
 40
1.0
 10
-19.7928
 20
2.2421
 30
0.0
 10
-19.7928
 20
2.2421
 30
0.0
 10
-19.6974
 20
2.2421
 30
0.0
 10
-19.6974
 20
2.2421
 30
0.0
  0
SPLINE
  5
96
330
1F
100
AcDbEntity
  8
ROUND
100
AcDbSpline
210
0.0
220
0.0
230
1.0
 70
    24
 71
     3
 72
     8
 73
     4
 74
     0
 42
0.0000000001
 43
0.0000000001
 40
0.0
 40
0.0
 40
0.0
 40
0.0
 40
1.0
 40
1.0
 40
1.0
 40
1.0
 10
-30.4977
 20
8.0124
 30
0.0
 10
-30.4977
 20
8.0124
 30
0.0
 10
0.9789
 20
8.0124
 30
0.0
 10
0.9789
 20
8.0124
 30
0.0
  0
SPLINE
  5
97
330
1F
100
AcDbEntity
  8
ROUND
100
AcDbSpline
210
0.0
220
0.0
230
1.0
 70
    24
 71
     3
 72
     8
 73
     4
 74
     0
 42
0.0000000001
 43
0.0000000001
 40
0.0
 40
0.0
 40
0.0
 40
0.0
 40
1.0
 40
1.0
 40
1.0
 40
1.0
 10
-5.7649
 20
-23.8271
 30
0.0
 10
-5.7649
 20
-23.8271
 30
0.0
 10
-4.3117
 20
-13.4957
 30
0.0
 10
-4.3117
 20
-13.4957
 30
0.0
  0
SPLINE
  5
98
330
1F
100
AcDbEntity
  8
ROUND
100
AcDbSpline
210
0.0
220
0.0
230
1.0
 70
    24
 71
     3
 72
     8
 73
     4
 74
     0
 42
0.0000000001
 43
0.0000000001
 40
0.0
 40
0.0
 40
0.0
 40
0.0
 40
1.0
 40
1.0
 40
1.0
 40
1.0
 10
-13.2032
 20
-25.3002
 30
0.0
 10
-13.2032
 20
-25.3002
 30
0.0
 10
-14.3663
 20
-25.3002
 30
0.0
 10
-14.3663
 20
-25.3002
 30
0.0
  0
SPLINE
  5
99
330
1F
100
AcDbEntity
  8
ROUND
100
AcDbSpline
210
0.0
220
0.0
230
1.0
 70
    24
 71
     3
 72
     8
 73
     4
 74
     0
 42
0.0000000001
 43
0.0000000001
 40
0.0
 40
0.0
 40
0.0
 40
0.0
 40
1.0
 40
1.0
 40
1.0
 40
1.0
 10
-13.9725
 20
-25.2478
 30
0.0
 10
-13.9725
 20
-25.2478
 30
0.0
 10
-13.1854
 20
-25.2478
 30
0.0
 10
-13.1854
 20
-25.2478
 30
0.0
  0
SPLINE
  5
9A
330
1F
100
AcDbEntity
  8
ROUND
100
AcDbSpline
210
0.0
220
0.0
230
1.0
 70
    24
 71
     3
 72
     8
 73
     4
 74
     0
 42
0.0000000001
 43
0.0000000001
 40
0.0
 40
0.0
 40
0.0
 40
0.0
 40
1.0
 40
1.0
 40
1.0
 40
1.0
 10
-13.1854
 20
-25.2939
 30
0.0
 10
-13.1854
 20
-25.2939
 30
0.0
 10
-13.1854
 20
-25.2478
 30
0.0
 10
-13.1854
 20
-25.2478
 30
0.0
  0
SPLINE
  5
9B
330
1F
100
AcDbEntity
  8
ROUND
100
AcDbSpline
210
0.0
220
0.0
230
1.0
 70
    24
 71
     3
 72
     8
 73
     4
 74
     0
 42
0.0000000001
 43
0.0000000001
 40
0.0
 40
0.0
 40
0.0
 40
0.0
 40
1.0
 40
1.0
 40
1.0
 40
1.0
 10
-13.3434
 20
-25.3107
 30
0.0
 10
-13.3434
 20
-25.3107
 30
0.0
 10
-13.1898
 20
-25.3017
 30
0.0
 10
-13.1898
 20
-25.3017
 30
0.0
  0
SPLINE
  5
9C
330
1F
100
AcDbEntity
  8
ROUND
100
AcDbSpline
210
0.0
220
0.0
230
1.0
 70
    24
 71
     3
 72
     8
 73
     4
 74
     0
 42
0.0000000001
 43
0.0000000001
 40
0.0
 40
0.0
 40
0.0
 40
0.0
 40
1.0
 40
1.0
 40
1.0
 40
1.0
 10
-13.9725
 20
-25.2478
 30
0.0
 10
-13.9725
 20
-25.2478
 30
0.0
 10
-13.9725
 20
-25.3002
 30
0.0
 10
-13.9725
 20
-25.3002
 30
0.0
  0
SPLINE
  5
9D
330
1F
100
AcDbEntity
  8
ROUND
100
AcDbSpline
210
0.0
220
0.0
230
1.0
 70
    24
 71
     3
 72
     8
 73
     4
 74
     0
 42
0.0000000001
 43
0.0000000001
 40
0.0
 40
0.0
 40
0.0
 40
0.0
 40
1.0
 40
1.0
 40
1.0
 40
1.0
 10
-13.7381
 20
-25.3002
 30
0.0
 10
-13.7381
 20
-25.3002
 30
0.0
 10
-13.7381
 20
-25.2478
 30
0.0
 10
-13.7381
 20
-25.2478
 30
0.0
  0
SPLINE
  5
9E
330
1F
100
AcDbEntity
  8
ROUND
100
AcDbSpline
210
0.0
220
0.0
230
1.0
 70
    24
 71
     3
 72
     8
 73
     4
 74
     0
 42
0.0000000001
 43
0.0000000001
 40
0.0
 40
0.0
 40
0.0
 40
0.0
 40
1.0
 40
1.0
 40
1.0
 40
1.0
 10
-13.403
 20
-25.3002
 30
0.0
 10
-13.403
 20
-25.3002
 30
0.0
 10
-13.403
 20
-25.2478
 30
0.0
 10
-13.403
 20
-25.2478
 30
0.0
  0
SPLINE
  5
9F
330
1F
100
AcDbEntity
  8
ROUND
100
AcDbSpline
210
0.0
220
0.0
230
1.0
 70
    24
 71
     3
 72
     8
 73
     4
 74
     0
 42
0.0000000001
 43
0.0000000001
 40
0.0
 40
0.0
 40
0.0
 40
0.0
 40
1.0
 40
1.0
 40
1.0
 40
1.0
 10
-23.7536
 20
-23.8271
 30
0.0
 10
-23.7536
 20
-23.8271
 30
0.0
 10
-25.2068
 20
-13.4957
 30
0.0
 10
-25.2068
 20
-13.4957
 30
0.0
  0
SPLINE
  5
A0
330
1F
100
AcDbEntity
  8
ROUND
100
AcDbSpline
210
0.0
220
0.0
230
1.0
 70
    24
 71
     3
 72
     8
 73
     4
 74
     0
 42
0.0000000001
 43
0.0000000001
 40
0.0
 40
0.0
 40
0.0
 40
0.0
 40
1.0
 40
1.0
 40
1.0
 40
1.0
 10
-21.6041
 20
-26.0501
 30
0.0
 10
-21.6041
 20
-26.0501
 30
0.0
 10
-21.5272
 20
-26.0596
 30
0.0
 10
-21.5272
 20
-26.0596
 30
0.0
  0
SPLINE
  5
A1
330
1F
100
AcDbEntity
  8
ROUND
100
AcDbSpline
210
0.0
220
0.0
230
1.0
 70
    24
 71
     3
 72
     8
 73
     4
 74
     0
 42
0.0000000001
 43
0.0000000001
 40
0.0
 40
0.0
 40
0.0
 40
0.0
 40
1.0
 40
1.0
 40
1.0
 40
1.0
 10
-21.6041
 20
-26.0501
 30
0.0
 10
-21.6041
 20
-26.0501
 30
0.0
 10
-21.5064
 20
-26.0629
 30
0.0
 10
-21.5064
 20
-26.0629
 30
0.0
  0
SPLINE
  5
A2
330
1F
100
AcDbEntity
  8
ROUND
100
AcDbSpline
210
0.0
220
0.0
230
1.0
 70
    24
 71
     3
 72
     8
 73
     4
 74
     0
 42
0.0000000001
 43
0.0000000001
 40
0.0
 40
0.0
 40
0.0
 40
0.0
 40
1.0
 40
1.0
 40
1.0
 40
1.0
 10
-8.0121
 20
-26.0629
 30
0.0
 10
-8.0121
 20
-26.0629
 30
0.0
 10
-7.9147
 20
-26.0501
 30
0.0
 10
-7.9147
 20
-26.0501
 30
0.0
  0
SPLINE
  5
A3
330
1F
100
AcDbEntity
  8
ROUND
100
AcDbSpline
210
0.0
220
0.0
230
1.0
 70
    24
 71
     3
 72
     8
 73
     4
 74
     0
 42
0.0000000001
 43
0.0000000001
 40
0.0
 40
0.0
 40
0.0
 40
0.0
 40
1.0
 40
1.0
 40
1.0
 40
1.0
 10
-7.9909
 20
-26.0596
 30
0.0
 10
-7.9909
 20
-26.0596
 30
0.0
 10
-7.9147
 20
-26.0501
 30
0.0
 10
-7.9147
 20
-26.0501
 30
0.0
  0
SPLINE
  5
A4
330
1F
100
AcDbEntity
  8
ROUND
100
AcDbSpline
210
0.0
220
0.0
230
1.0
 70
    24
 71
     3
 72
     8
 73
     4
 74
     0
 42
0.0000000001
 43
0.0000000001
 40
0.0
 40
0.0
 40
0.0
 40
0.0
 40
1.0
 40
1.0
 40
1.0
 40
1.0
 10
-11.1825
 20
-23.6889
 30
0.0
 10
-11.1825
 20
-23.6889
 30
0.0
 10
-11.2202
 20
-23.6678
 30
0.0
 10
-11.2202
 20
-23.6678
 30
0.0
  0
SPLINE
  5
A5
330
1F
100
AcDbEntity
  8
ROUND
100
AcDbSpline
210
0.0
220
0.0
230
1.0
 70
    24
 71
     3
 72
     8
 73
     4
 74
     0
 42
0.0000000001
 43
0.0000000001
 40
0.0
 40
0.0
 40
0.0
 40
0.0
 40
1.0
 40
1.0
 40
1.0
 40
1.0
 10
-14.3663
 20
-25.5486
 30
0.0
 10
-14.3663
 20
-25.5486
 30
0.0
 10
-13.4625
 20
-25.5486
 30
0.0
 10
-13.4625
 20
-25.5486
 30
0.0
  0
SPLINE
  5
A6
330
1F
100
AcDbEntity
  8
ROUND
100
AcDbSpline
210
0.0
220
0.0
230
1.0
 70
    24
 71
     3
 72
     8
 73
     4
 74
     0
 42
0.0000000001
 43
0.0000000001
 40
0.0
 40
0.0
 40
0.0
 40
0.0
 40
1.0
 40
1.0
 40
1.0
 40
1.0
 10
-13.3191
 20
-25.2478
 30
0.0
 10
-13.3191
 20
-25.2478
 30
0.0
 10
-13.3191
 20
-25.3002
 30
0.0
 10
-13.3191
 20
-25.3002
 30
0.0
  0
SPLINE
  5
A7
330
1F
100
AcDbEntity
  8
ROUND
100
AcDbSpline
210
0.0
220
0.0
230
1.0
 70
    24
 71
     3
 72
     8
 73
     4
 74
     0
 42
0.0000000001
 43
0.0000000001
 40
0.0
 40
0.0
 40
0.0
 40
0.0
 40
1.0
 40
1.0
 40
1.0
 40
1.0
 10
-13.2524
 20
-25.2478
 30
0.0
 10
-13.2524
 20
-25.2478
 30
0.0
 10
-13.2524
 20
-25.3002
 30
0.0
 10
-13.2524
 20
-25.3002
 30
0.0
  0
SPLINE
  5
A8
330
1F
100
AcDbEntity
  8
ROUND
100
AcDbSpline
210
0.0
220
0.0
230
1.0
 70
    24
 71
     3
 72
     8
 73
     4
 74
     0
 42
0.0000000001
 43
0.0000000001
 40
0.0
 40
0.0
 40
0.0
 40
0.0
 40
1.0
 40
1.0
 40
1.0
 40
1.0
 10
-13.3694
 20
-25.2478
 30
0.0
 10
-13.3694
 20
-25.2478
 30
0.0
 10
-13.3694
 20
-25.3002
 30
0.0
 10
-13.3694
 20
-25.3002
 30
0.0
  0
SPLINE
  5
A9
330
1F
100
AcDbEntity
  8
ROUND
100
AcDbSpline
210
0.0
220
0.0
230
1.0
 70
    24
 71
     3
 72
     8
 73
     4
 74
     0
 42
0.0000000001
 43
0.0000000001
 40
0.0
 40
0.0
 40
0.0
 40
0.0
 40
1.0
 40
1.0
 40
1.0
 40
1.0
 10
-16.056
 20
-25.5486
 30
0.0
 10
-16.056
 20
-25.5486
 30
0.0
 10
-15.1524
 20
-25.5486
 30
0.0
 10
-15.1524
 20
-25.5486
 30
0.0
  0
SPLINE
  5
AA
330
1F
100
AcDbEntity
  8
ROUND
100
AcDbSpline
210
0.0
220
0.0
230
1.0
 70
    24
 71
     3
 72
     8
 73
     4
 74
     0
 42
0.0000000001
 43
0.0000000001
 40
0.0
 40
0.0
 40
0.0
 40
0.0
 40
1.0
 40
1.0
 40
1.0
 40
1.0
 10
-25.6028
 20
-13.4184
 30
0.0
 10
-25.6028
 20
-13.4184
 30
0.0
 10
-3.9157
 20
-13.4184
 30
0.0
 10
-3.9157
 20
-13.4184
 30
0.0
  0
SPLINE
  5
AB
330
1F
100
AcDbEntity
  8
ROUND
100
AcDbSpline
210
0.0
220
0.0
230
1.0
 70
    24
 71
     3
 72
     8
 73
     4
 74
     0
 42
0.0000000001
 43
0.0000000001
 40
0.0
 40
0.0
 40
0.0
 40
0.0
 40
1.0
 40
1.0
 40
1.0
 40
1.0
 10
-9.3748
 20
-25.0668
 30
0.0
 10
-9.3748
 20
-25.0668
 30
0.0
 10
-10.2591
 20
-25.2462
 30
0.0
 10
-10.2591
 20
-25.2462
 30
0.0
  0
SPLINE
  5
AC
330
1F
100
AcDbEntity
  8
ROUND
100
AcDbSpline
210
0.0
220
0.0
230
1.0
 70
    24
 71
     3
 72
     8
 73
     4
 74
     0
 42
0.0000000001
 43
0.0000000001
 40
0.0
 40
0.0
 40
0.0
 40
0.0
 40
1.0
 40
1.0
 40
1.0
 40
1.0
 10
-5.7649
 20
-23.8271
 30
0.0
 10
-5.7649
 20
-23.8271
 30
0.0
 10
-6.7564
 20
-23.6876
 30
0.0
 10
-6.7564
 20
-23.6876
 30
0.0
  0
SPLINE
  5
AD
330
1F
100
AcDbEntity
  8
ROUND
100
AcDbSpline
210
0.0
220
0.0
230
1.0
 70
    24
 71
     3
 72
     8
 73
     4
 74
     0
 42
0.0000000001
 43
0.0000000001
 40
0.0
 40
0.0
 40
0.0
 40
0.0
 40
1.0
 40
1.0
 40
1.0
 40
1.0
 10
-20.2458
 20
-24.7585
 30
0.0
 10
-20.2458
 20
-24.7585
 30
0.0
 10
-19.3842
 20
-24.9332
 30
0.0
 10
-19.3842
 20
-24.9332
 30
0.0
  0
SPLINE
  5
AE
330
1F
100
AcDbEntity
  8
ROUND
100
AcDbSpline
210
0.0
220
0.0
230
1.0
 70
    24
 71
     3
 72
     8
 73
     4
 74
     0
 42
0.0000000001
 43
0.0000000001
 40
0.0
 40
0.0
 40
0.0
 40
0.0
 40
1.0
 40
1.0
 40
1.0
 40
1.0
 10
-18.336
 20
-23.6889
 30
0.0
 10
-18.336
 20
-23.6889
 30
0.0
 10
-18.2985
 20
-23.6678
 30
0.0
 10
-18.2985
 20
-23.6678
 30
0.0
  0
SPLINE
  5
AF
330
1F
100
AcDbEntity
  8
ROUND
100
AcDbSpline
210
0.0
220
0.0
230
1.0
 70
    24
 71
     3
 72
     8
 73
     4
 74
     0
 42
0.0000000001
 43
0.0000000001
 40
0.0
 40
0.0
 40
0.0
 40
0.0
 40
1.0
 40
1.0
 40
1.0
 40
1.0
 10
-22.7624
 20
-23.6876
 30
0.0
 10
-22.7624
 20
-23.6876
 30
0.0
 10
-23.7536
 20
-23.8271
 30
0.0
 10
-23.7536
 20
-23.8271
 30
0.0
  0
SPLINE
  5
B0
330
1F
100
AcDbEntity
  8
ROUND
100
AcDbSpline
210
0.0
220
0.0
230
1.0
 70
    24
 71
     3
 72
     8
 73
     4
 74
     0
 42
0.0000000001
 43
0.0000000001
 40
0.0
 40
0.0
 40
0.0
 40
0.0
 40
1.0
 40
1.0
 40
1.0
 40
1.0
 10
-9.3604
 20
2.2421
 30
0.0
 10
-9.3604
 20
2.2421
 30
0.0
 10
-10.2454
 20
-10.3485
 30
0.0
 10
-10.2454
 20
-10.3485
 30
0.0
  0
SPLINE
  5
B1
330
1F
100
AcDbEntity
  8
ROUND
100
AcDbSpline
210
0.0
220
0.0
230
1.0
 70
    24
 71
     3
 72
     8
 73
     4
 74
     0
 42
0.0000000001
 43
0.0000000001
 40
0.0
 40
0.0
 40
0.0
 40
0.0
 40
1.0
 40
1.0
 40
1.0
 40
1.0
 10
-9.6543
 20
-10.3485
 30
0.0
 10
-9.6543
 20
-10.3485
 30
0.0
 10
-8.9737
 20
-10.3485
 30
0.0
 10
-8.9737
 20
-10.3485
 30
0.0
  0
SPLINE
  5
B2
330
1F
100
AcDbEntity
  8
ROUND
100
AcDbSpline
210
0.0
220
0.0
230
1.0
 70
    24
 71
     3
 72
     8
 73
     4
 74
     0
 42
0.0000000001
 43
0.0000000001
 40
0.0
 40
0.0
 40
0.0
 40
0.0
 40
1.0
 40
1.0
 40
1.0
 40
1.0
 10
-27.9937
 20
2.4679
 30
0.0
 10
-27.9937
 20
2.4679
 30
0.0
 10
-1.5249
 20
2.4679
 30
0.0
 10
-1.5249
 20
2.4679
 30
0.0
  0
SPLINE
  5
B3
330
1F
100
AcDbEntity
  8
ROUND
100
AcDbSpline
210
0.0
220
0.0
230
1.0
 70
    24
 71
     3
 72
     8
 73
     4
 74
     0
 42
0.0000000001
 43
0.0000000001
 40
0.0
 40
0.0
 40
0.0
 40
0.0
 40
1.0
 40
1.0
 40
1.0
 40
1.0
 10
-5.1255
 20
-10.3485
 30
0.0
 10
-5.1255
 20
-10.3485
 30
0.0
 10
-3.3563
 20
2.2421
 30
0.0
 10
-3.3563
 20
2.2421
 30
0.0
  0
SPLINE
  5
B4
330
1F
100
AcDbEntity
  8
ROUND
100
AcDbSpline
210
0.0
220
0.0
230
1.0
 70
    24
 71
     3
 72
     8
 73
     4
 74
     0
 42
0.0000000001
 43
0.0000000001
 40
0.0
 40
0.0
 40
0.0
 40
0.0
 40
1.0
 40
1.0
 40
1.0
 40
1.0
 10
-5.5246
 20
-10.3485
 30
0.0
 10
-5.5246
 20
-10.3485
 30
0.0
 10
-5.1317
 20
-10.3485
 30
0.0
 10
-5.1317
 20
-10.3485
 30
0.0
  0
SPLINE
  5
B5
330
1F
100
AcDbEntity
  8
ROUND
100
AcDbSpline
210
0.0
220
0.0
230
1.0
 70
    24
 71
     3
 72
     8
 73
     4
 74
     0
 42
0.0000000001
 43
0.0000000001
 40
0.0
 40
0.0
 40
0.0
 40
0.0
 40
1.0
 40
1.0
 40
1.0
 40
1.0
 10
-5.0585
 20
2.2421
 30
0.0
 10
-5.0585
 20
2.2421
 30
0.0
 10
-6.5912
 20
-10.3485
 30
0.0
 10
-6.5912
 20
-10.3485
 30
0.0
  0
SPLINE
  5
B6
330
1F
100
AcDbEntity
  8
ROUND
100
AcDbSpline
210
0.0
220
0.0
230
1.0
 70
    24
 71
     3
 72
     8
 73
     4
 74
     0
 42
0.0000000001
 43
0.0000000001
 40
0.0
 40
0.0
 40
0.0
 40
0.0
 40
1.0
 40
1.0
 40
1.0
 40
1.0
 10
-30.3522
 20
5.238
 30
0.0
 10
-30.3522
 20
5.238
 30
0.0
 10
0.8338
 20
5.238
 30
0.0
 10
0.8338
 20
5.238
 30
0.0
  0
SPLINE
  5
B7
330
1F
100
AcDbEntity
  8
ROUND
100
AcDbSpline
210
0.0
220
0.0
230
1.0
 70
    24
 71
     3
 72
     8
 73
     4
 74
     0
 42
0.0000000001
 43
0.0000000001
 40
0.0
 40
0.0
 40
0.0
 40
0.0
 40
1.0
 40
1.0
 40
1.0
 40
1.0
 10
-26.1625
 20
2.2421
 30
0.0
 10
-26.1625
 20
2.2421
 30
0.0
 10
-24.3927
 20
-10.3485
 30
0.0
 10
-24.3927
 20
-10.3485
 30
0.0
  0
SPLINE
  5
B8
330
1F
100
AcDbEntity
  8
ROUND
100
AcDbSpline
210
0.0
220
0.0
230
1.0
 70
    24
 71
     3
 72
     8
 73
     4
 74
     0
 42
0.0000000001
 43
0.0000000001
 40
0.0
 40
0.0
 40
0.0
 40
0.0
 40
1.0
 40
1.0
 40
1.0
 40
1.0
 10
-24.387
 20
-10.3485
 30
0.0
 10
-24.387
 20
-10.3485
 30
0.0
 10
-23.9942
 20
-10.3485
 30
0.0
 10
-23.9942
 20
-10.3485
 30
0.0
  0
SPLINE
  5
B9
330
1F
100
AcDbEntity
  8
ROUND
100
AcDbSpline
210
0.0
220
0.0
230
1.0
 70
    24
 71
     3
 72
     8
 73
     4
 74
     0
 42
0.0000000001
 43
0.0000000001
 40
0.0
 40
0.0
 40
0.0
 40
0.0
 40
1.0
 40
1.0
 40
1.0
 40
1.0
 10
-22.9276
 20
-10.3485
 30
0.0
 10
-22.9276
 20
-10.3485
 30
0.0
 10
-24.4597
 20
2.2421
 30
0.0
 10
-24.4597
 20
2.2421
 30
0.0
  0
SPLINE
  5
BA
330
1F
100
AcDbEntity
  8
ROUND
100
AcDbSpline
210
0.0
220
0.0
230
1.0
 70
    24
 71
     3
 72
     8
 73
     4
 74
     0
 42
0.0000000001
 43
0.0000000001
 40
0.0
 40
0.0
 40
0.0
 40
0.0
 40
1.0
 40
1.0
 40
1.0
 40
1.0
 10
-19.2733
 20
-10.3485
 30
0.0
 10
-19.2733
 20
-10.3485
 30
0.0
 10
-20.1584
 20
2.2421
 30
0.0
 10
-20.1584
 20
2.2421
 30
0.0
  0
SPLINE
  5
BB
330
1F
100
AcDbEntity
  8
ROUND
100
AcDbSpline
210
0.0
220
0.0
230
1.0
 70
    24
 71
     3
 72
     8
 73
     4
 74
     0
 42
0.0000000001
 43
0.0000000001
 40
0.0
 40
0.0
 40
0.0
 40
0.0
 40
1.0
 40
1.0
 40
1.0
 40
1.0
 10
-20.5445
 20
-10.3485
 30
0.0
 10
-20.5445
 20
-10.3485
 30
0.0
 10
-19.8639
 20
-10.3485
 30
0.0
 10
-19.8639
 20
-10.3485
 30
0.0
  0
SPLINE
  5
BC
330
1F
100
AcDbEntity
  8
ROUND
100
AcDbSpline
210
0.0
220
0.0
230
1.0
 70
    24
 71
     3
 72
     8
 73
     4
 74
     0
 42
0.0000000001
 43
0.0000000001
 40
0.0
 40
0.0
 40
0.0
 40
0.0
 40
1.0
 40
1.0
 40
1.0
 40
1.0
 10
-3.9912
 20
2.2421
 30
0.0
 10
-3.9912
 20
2.2421
 30
0.0
 10
-5.5246
 20
-10.3485
 30
0.0
 10
-5.5246
 20
-10.3485
 30
0.0
  0
SPLINE
  5
BD
330
1F
100
AcDbEntity
  8
ROUND
100
AcDbSpline
210
0.0
220
0.0
230
1.0
 70
    24
 71
     3
 72
     8
 73
     4
 74
     0
 42
0.0000000001
 43
0.0000000001
 40
0.0
 40
0.0
 40
0.0
 40
0.0
 40
1.0
 40
1.0
 40
1.0
 40
1.0
 10
-3.9863
 20
2.2421
 30
0.0
 10
-3.9863
 20
2.2421
 30
0.0
 10
-3.9912
 20
2.2421
 30
0.0
 10
-3.9912
 20
2.2421
 30
0.0
  0
SPLINE
  5
BE
330
1F
100
AcDbEntity
  8
ROUND
100
AcDbSpline
210
0.0
220
0.0
230
1.0
 70
    24
 71
     3
 72
     8
 73
     4
 74
     0
 42
0.0000000001
 43
0.0000000001
 40
0.0
 40
0.0
 40
0.0
 40
0.0
 40
1.0
 40
1.0
 40
1.0
 40
1.0
 10
-23.9942
 20
-10.3485
 30
0.0
 10
-23.9942
 20
-10.3485
 30
0.0
 10
-25.5276
 20
2.2421
 30
0.0
 10
-25.5276
 20
2.2421
 30
0.0
  0
SPLINE
  5
BF
330
1F
100
AcDbEntity
  8
ROUND
100
AcDbSpline
210
0.0
220
0.0
230
1.0
 70
    24
 71
     3
 72
     8
 73
     4
 74
     0
 42
0.0000000001
 43
0.0000000001
 40
0.0
 40
0.0
 40
0.0
 40
0.0
 40
1.0
 40
1.0
 40
1.0
 40
1.0
 10
-25.5324
 20
2.2421
 30
0.0
 10
-25.5324
 20
2.2421
 30
0.0
 10
-25.5276
 20
2.2421
 30
0.0
 10
-25.5276
 20
2.2421
 30
0.0
  0
SPLINE
  5
C0
330
1F
100
AcDbEntity
  8
ROUND
100
AcDbSpline
210
0.0
220
0.0
230
1.0
 70
    24
 71
     3
 72
     8
 73
     4
 74
     0
 42
0.0000000001
 43
0.0000000001
 40
0.0
 40
0.0
 40
0.0
 40
0.0
 40
1.0
 40
1.0
 40
1.0
 40
1.0
 10
-25.9204
 20
2.2421
 30
0.0
 10
-25.9204
 20
2.2421
 30
0.0
 10
-25.5276
 20
2.2421
 30
0.0
 10
-25.5276
 20
2.2421
 30
0.0
  0
SPLINE
  5
C1
330
1F
100
AcDbEntity
  8
ROUND
100
AcDbSpline
210
0.0
220
0.0
230
1.0
 70
    24
 71
     3
 72
     8
 73
     4
 74
     0
 42
0.0000000001
 43
0.0000000001
 40
0.0
 40
0.0
 40
0.0
 40
0.0
 40
1.0
 40
1.0
 40
1.0
 40
1.0
 10
-19.8639
 20
-10.3485
 30
0.0
 10
-19.8639
 20
-10.3485
 30
0.0
 10
-20.7495
 20
2.2421
 30
0.0
 10
-20.7495
 20
2.2421
 30
0.0
  0
SPLINE
  5
C2
330
1F
100
AcDbEntity
  8
ROUND
100
AcDbSpline
210
0.0
220
0.0
230
1.0
 70
    24
 71
     3
 72
     8
 73
     4
 74
     0
 42
0.0000000001
 43
0.0000000001
 40
0.0
 40
0.0
 40
0.0
 40
0.0
 40
1.0
 40
1.0
 40
1.0
 40
1.0
 10
-14.3663
 20
-23.8288
 30
0.0
 10
-14.3663
 20
-23.8288
 30
0.0
 10
-15.1524
 20
-23.8288
 30
0.0
 10
-15.1524
 20
-23.8288
 30
0.0
  0
SPLINE
  5
C3
330
1F
100
AcDbEntity
  8
ROUND
100
AcDbSpline
210
0.0
220
0.0
230
1.0
 70
    24
 71
     3
 72
     8
 73
     4
 74
     0
 42
0.0000000001
 43
0.0000000001
 40
0.0
 40
0.0
 40
0.0
 40
0.0
 40
1.0
 40
1.0
 40
1.0
 40
1.0
 10
-8.7693
 20
2.2421
 30
0.0
 10
-8.7693
 20
2.2421
 30
0.0
 10
-9.6543
 20
-10.3485
 30
0.0
 10
-9.6543
 20
-10.3485
 30
0.0
  0
SPLINE
  5
C4
330
1F
100
AcDbEntity
  8
ROUND
100
AcDbSpline
210
0.0
220
0.0
230
1.0
 70
    24
 71
     3
 72
     8
 73
     4
 74
     0
 42
0.0000000001
 43
0.0000000001
 40
0.0
 40
0.0
 40
0.0
 40
0.0
 40
1.0
 40
1.0
 40
1.0
 40
1.0
 10
-8.7667
 20
2.2421
 30
0.0
 10
-8.7667
 20
2.2421
 30
0.0
 10
-8.7693
 20
2.2421
 30
0.0
 10
-8.7693
 20
2.2421
 30
0.0
  0
SPLINE
  5
C5
330
1F
100
AcDbEntity
  8
ROUND
100
AcDbSpline
210
0.0
220
0.0
230
1.0
 70
    24
 71
     3
 72
     8
 73
     4
 74
     0
 42
0.0000000001
 43
0.0000000001
 40
0.0
 40
0.0
 40
0.0
 40
0.0
 40
1.0
 40
1.0
 40
1.0
 40
1.0
 10
-8.0884
 20
2.2421
 30
0.0
 10
-8.0884
 20
2.2421
 30
0.0
 10
-8.7693
 20
2.2421
 30
0.0
 10
-8.7693
 20
2.2421
 30
0.0
  0
SPLINE
  5
C6
330
1F
100
AcDbEntity
  8
ROUND
100
AcDbSpline
210
0.0
220
0.0
230
1.0
 70
    24
 71
     3
 72
     8
 73
     4
 74
     0
 42
0.0000000001
 43
0.0000000001
 40
0.0
 40
0.0
 40
0.0
 40
0.0
 40
1.0
 40
1.0
 40
1.0
 40
1.0
 10
-14.3663
 20
-10.3485
 30
0.0
 10
-14.3663
 20
-10.3485
 30
0.0
 10
-15.1524
 20
-10.3485
 30
0.0
 10
-15.1524
 20
-10.3485
 30
0.0
  0
SPLINE
  5
C7
330
1F
100
AcDbEntity
  8
ROUND
100
AcDbSpline
210
0.0
220
0.0
230
1.0
 70
     8
 71
     3
 72
     8
 73
     4
 74
     0
 42
0.0000000001
 43
0.0000000001
 40
0.0
 40
0.0
 40
0.0
 40
0.0
 40
1.0
 40
1.0
 40
1.0
 40
1.0
 10
-16.2759
 20
-25.3138
 30
0.0
 10
-16.8002
 20
-25.1421
 30
0.0
 10
-17.3189
 20
-24.9503
 30
0.0
 10
-17.8395
 20
-24.7685
 30
0.0
  0
SPLINE
  5
C8
330
1F
100
AcDbEntity
  8
ROUND
100
AcDbSpline
210
0.0
220
0.0
230
1.0
 70
     8
 71
     3
 72
     8
 73
     4
 74
     0
 42
0.0000000001
 43
0.0000000001
 40
0.0
 40
0.0
 40
0.0
 40
0.0
 40
1.0
 40
1.0
 40
1.0
 40
1.0
 10
-18.0165
 20
-24.6281
 30
0.0
 10
-17.9503
 20
-24.7015
 30
0.0
 10
-17.876
 20
-24.7619
 30
0.0
 10
-17.7817
 20
-24.7951
 30
0.0
  0
SPLINE
  5
C9
330
1F
100
AcDbEntity
  8
ROUND
100
AcDbSpline
210
0.0
220
0.0
230
1.0
 70
     8
 71
     3
 72
    12
 73
     8
 74
     0
 42
0.0000000001
 43
0.0000000001
 40
0.0
 40
0.0
 40
0.0
 40
0.0
 40
0.3333333333333333
 40
0.3333333333333333
 40
0.3333333333333333
 40
0.3333333333333333
 40
1.0
 40
1.0
 40
1.0
 40
1.0
 10
-19.0132
 20
-13.4957
 30
0.0
 10
-19.0132
 20
-13.4957
 30
0.0
 10
-18.9766
 20
-14.0188
 30
0.0
 10
-18.9766
 20
-14.0188
 30
0.0
 10
-18.9766
 20
-14.0188
 30
0.0
 10
-18.9766
 20
-14.0188
 30
0.0
 10
-18.3352
 20
-23.1444
 30
0.0
 10
-18.3352
 20
-23.1444
 30
0.0
  0
SPLINE
  5
CA
330
1F
100
AcDbEntity
  8
ROUND
100
AcDbSpline
210
0.0
220
0.0
230
1.0
 70
     8
 71
     3
 72
     8
 73
     4
 74
     0
 42
0.0000000001
 43
0.0000000001
 40
0.0
 40
0.0
 40
0.0
 40
0.0
 40
1.0
 40
1.0
 40
1.0
 40
1.0
 10
-18.3352
 20
-23.1444
 30
0.0
 10
-18.2985
 20
-23.667
 30
0.0
 10
-18.2985
 20
-24.2454
 30
0.0
 10
-17.9745
 20
-24.6889
 30
0.0
  0
SPLINE
  5
CB
330
1F
100
AcDbEntity
  8
ROUND
100
AcDbSpline
210
0.0
220
0.0
230
1.0
 70
     8
 71
     3
 72
     8
 73
     4
 74
     0
 42
0.0000000001
 43
0.0000000001
 40
0.0
 40
0.0
 40
0.0
 40
0.0
 40
1.0
 40
1.0
 40
1.0
 40
1.0
 10
-8.0461
 20
-26.0673
 30
0.0
 10
-8.3199
 20
-26.1001
 30
0.0
 10
-8.5981
 20
-26.0872
 30
0.0
 10
-8.8726
 20
-26.0872
 30
0.0
  0
SPLINE
  5
CC
330
1F
100
AcDbEntity
  8
ROUND
100
AcDbSpline
210
0.0
220
0.0
230
1.0
 70
    24
 71
     3
 72
    12
 73
     8
 74
     0
 42
0.0000000001
 43
0.0000000001
 40
0.0
 40
0.0
 40
0.0
 40
0.0
 40
0.3333333333333333
 40
0.3333333333333333
 40
0.3333333333333333
 40
0.3333333333333333
 40
1.0
 40
1.0
 40
1.0
 40
1.0
 10
-8.8726
 20
-26.0872
 30
0.0
 10
-8.8726
 20
-26.0872
 30
0.0
 10
-10.6891
 20
-26.0872
 30
0.0
 10
-10.6891
 20
-26.0872
 30
0.0
 10
-10.6891
 20
-26.0872
 30
0.0
 10
-10.6891
 20
-26.0872
 30
0.0
 10
-11.214
 20
-26.0872
 30
0.0
 10
-11.214
 20
-26.0872
 30
0.0
  0
SPLINE
  5
CD
330
1F
100
AcDbEntity
  8
ROUND
100
AcDbSpline
210
0.0
220
0.0
230
1.0
 70
     8
 71
     3
 72
     8
 73
     4
 74
     0
 42
0.0000000001
 43
0.0000000001
 40
0.0
 40
0.0
 40
0.0
 40
0.0
 40
1.0
 40
1.0
 40
1.0
 40
1.0
 10
-11.214
 20
-26.0872
 30
0.0
 10
-13.5746
 20
-26.0825
 30
0.0
 10
-15.9356
 20
-26.0872
 30
0.0
 10
-18.2968
 20
-26.0872
 30
0.0
  0
SPLINE
  5
CE
330
1F
100
AcDbEntity
  8
ROUND
100
AcDbSpline
210
0.0
220
0.0
230
1.0
 70
    24
 71
     3
 72
    16
 73
    12
 74
     0
 42
0.0000000001
 43
0.0000000001
 40
0.0
 40
0.0
 40
0.0
 40
0.0
 40
0.25
 40
0.25
 40
0.25
 40
0.25
 40
0.5
 40
0.5
 40
0.5
 40
0.5
 40
1.0
 40
1.0
 40
1.0
 40
1.0
 10
-18.2968
 20
-26.0872
 30
0.0
 10
-18.2968
 20
-26.0872
 30
0.0
 10
-18.3048
 20
-26.0872
 30
0.0
 10
-18.3048
 20
-26.0872
 30
0.0
 10
-18.3048
 20
-26.0872
 30
0.0
 10
-18.3048
 20
-26.0872
 30
0.0
 10
-18.8297
 20
-26.0872
 30
0.0
 10
-18.8297
 20
-26.0872
 30
0.0
 10
-18.8297
 20
-26.0872
 30
0.0
 10
-18.8297
 20
-26.0872
 30
0.0
 10
-20.6461
 20
-26.0872
 30
0.0
 10
-20.6461
 20
-26.0872
 30
0.0
  0
SPLINE
  5
CF
330
1F
100
AcDbEntity
  8
ROUND
100
AcDbSpline
210
0.0
220
0.0
230
1.0
 70
     8
 71
     3
 72
     8
 73
     4
 74
     0
 42
0.0000000001
 43
0.0000000001
 40
0.0
 40
0.0
 40
0.0
 40
0.0
 40
1.0
 40
1.0
 40
1.0
 40
1.0
 10
-20.6461
 20
-26.0872
 30
0.0
 10
-20.9207
 20
-26.0872
 30
0.0
 10
-21.1988
 20
-26.1001
 30
0.0
 10
-21.4726
 20
-26.0673
 30
0.0
  0
SPLINE
  5
D0
330
1F
100
AcDbEntity
  8
ROUND
100
AcDbSpline
210
0.0
220
0.0
230
1.0
 70
     8
 71
     3
 72
    12
 73
     8
 74
     0
 42
0.0000000001
 43
0.0000000001
 40
0.0
 40
0.0
 40
0.0
 40
0.0
 40
0.3333333333333333
 40
0.3333333333333333
 40
0.3333333333333333
 40
0.3333333333333333
 40
1.0
 40
1.0
 40
1.0
 40
1.0
 10
-24.004
 20
-13.4957
 30
0.0
 10
-24.004
 20
-13.4957
 30
0.0
 10
-23.9405
 20
-14.0165
 30
0.0
 10
-23.9405
 20
-14.0165
 30
0.0
 10
-23.9405
 20
-14.0165
 30
0.0
 10
-23.9405
 20
-14.0165
 30
0.0
 10
-22.8085
 20
-23.3084
 30
0.0
 10
-22.8085
 20
-23.3084
 30
0.0
  0
SPLINE
  5
D1
330
1F
100
AcDbEntity
  8
ROUND
100
AcDbSpline
210
0.0
220
0.0
230
1.0
 70
     8
 71
     3
 72
    16
 73
    12
 74
     0
 42
0.0000000001
 43
0.0000000001
 40
0.0
 40
0.0
 40
0.0
 40
0.0
 40
0.25
 40
0.25
 40
0.25
 40
0.25
 40
0.5
 40
0.5
 40
0.5
 40
0.5
 40
1.0
 40
1.0
 40
1.0
 40
1.0
 10
-22.8085
 20
-23.3084
 30
0.0
 10
-22.7681
 20
-23.6401
 30
0.0
 10
-22.7474
 20
-24.0019
 30
0.0
 10
-22.6409
 20
-24.3262
 30
0.0
 10
-22.6409
 20
-24.3262
 30
0.0
 10
-22.393
 20
-25.0787
 30
0.0
 10
-21.8583
 20
-25.785
 30
0.0
 10
-21.0612
 20
-26.0039
 30
0.0
 10
-21.0612
 20
-26.0039
 30
0.0
 10
-20.7389
 20
-26.0921
 30
0.0
 10
-20.4365
 20
-26.0872
 30
0.0
 10
-20.0993
 20
-26.0872
 30
0.0
  0
SPLINE
  5
D2
330
1F
100
AcDbEntity
  8
ROUND
100
AcDbSpline
210
0.0
220
0.0
230
1.0
 70
     8
 71
     3
 72
    12
 73
     8
 74
     0
 42
0.0000000001
 43
0.0000000001
 40
0.0
 40
0.0
 40
0.0
 40
0.0
 40
0.3333333333333333
 40
0.3333333333333333
 40
0.3333333333333333
 40
0.3333333333333333
 40
1.0
 40
1.0
 40
1.0
 40
1.0
 10
-20.3234
 20
-13.4957
 30
0.0
 10
-20.3234
 20
-13.4957
 30
0.0
 10
-20.2868
 20
-14.0188
 30
0.0
 10
-20.2868
 20
-14.0188
 30
0.0
 10
-20.2868
 20
-14.0188
 30
0.0
 10
-20.2868
 20
-14.0188
 30
0.0
 10
-19.6334
 20
-23.3055
 30
0.0
 10
-19.6334
 20
-23.3055
 30
0.0
  0
SPLINE
  5
D3
330
1F
100
AcDbEntity
  8
ROUND
100
AcDbSpline
210
0.0
220
0.0
230
1.0
 70
     8
 71
     3
 72
    20
 73
    16
 74
     0
 42
0.0000000001
 43
0.0000000001
 40
0.0
 40
0.0
 40
0.0
 40
0.0
 40
0.2
 40
0.2
 40
0.2
 40
0.2
 40
0.4
 40
0.4
 40
0.4
 40
0.4
 40
0.6
 40
0.6
 40
0.6
 40
0.6
 40
1.0
 40
1.0
 40
1.0
 40
1.0
 10
-19.6334
 20
-23.3055
 30
0.0
 10
-19.61
 20
-23.6427
 30
0.0
 10
-19.6
 20
-23.9916
 30
0.0
 10
-19.5363
 20
-24.3262
 30
0.0
 10
-19.5363
 20
-24.3262
 30
0.0
 10
-19.4489
 20
-24.7891
 30
0.0
 10
-19.313
 20
-25.2612
 30
0.0
 10
-19.0268
 20
-25.6438
 30
0.0
 10
-19.0268
 20
-25.6438
 30
0.0
 10
-18.8962
 20
-25.8188
 30
0.0
 10
-18.7268
 20
-25.9784
 30
0.0
 10
-18.5167
 20
-26.0501
 30
0.0
 10
-18.5167
 20
-26.0501
 30
0.0
 10
-18.3395
 20
-26.1104
 30
0.0
 10
-18.1406
 20
-26.0872
 30
0.0
 10
-17.9601
 20
-26.0872
 30
0.0
  0
SPLINE
  5
D4
330
1F
100
AcDbEntity
  8
ROUND
100
AcDbSpline
210
0.0
220
0.0
230
1.0
 70
    24
 71
     3
 72
     8
 73
     4
 74
     0
 42
0.0000000001
 43
0.0000000001
 40
0.0
 40
0.0
 40
0.0
 40
0.0
 40
1.0
 40
1.0
 40
1.0
 40
1.0
 10
-17.9601
 20
-26.0872
 30
0.0
 10
-17.9601
 20
-26.0872
 30
0.0
 10
-17.6151
 20
-26.0872
 30
0.0
 10
-17.6151
 20
-26.0872
 30
0.0
  0
SPLINE
  5
D5
330
1F
100
AcDbEntity
  8
ROUND
100
AcDbSpline
210
0.0
220
0.0
230
1.0
 70
     8
 71
     3
 72
     8
 73
     4
 74
     0
 42
0.0000000001
 43
0.0000000001
 40
0.0
 40
0.0
 40
0.0
 40
0.0
 40
1.0
 40
1.0
 40
1.0
 40
1.0
 10
-15.1529
 20
-26.0872
 30
0.0
 10
-15.1277
 20
-21.8905
 30
0.0
 10
-15.1524
 20
-17.6912
 30
0.0
 10
-15.1524
 20
-13.4957
 30
0.0
  0
SPLINE
  5
D6
330
1F
100
AcDbEntity
  8
ROUND
100
AcDbSpline
210
0.0
220
0.0
230
1.0
 70
     8
 71
     3
 72
    20
 73
    16
 74
     0
 42
0.0000000001
 43
0.0000000001
 40
0.0
 40
0.0
 40
0.0
 40
0.0
 40
0.2
 40
0.2
 40
0.2
 40
0.2
 40
0.4
 40
0.4
 40
0.4
 40
0.4
 40
0.6
 40
0.6
 40
0.6
 40
0.6
 40
1.0
 40
1.0
 40
1.0
 40
1.0
 10
-25.6565
 20
-10.3485
 30
0.0
 10
-25.6565
 20
-10.3485
 30
0.0
 10
-25.6474
 20
-10.8731
 30
0.0
 10
-25.6474
 20
-10.8731
 30
0.0
 10
-25.6474
 20
-10.8731
 30
0.0
 10
-25.6474
 20
-10.8731
 30
0.0
 10
-25.6121
 20
-12.894
 30
0.0
 10
-25.6121
 20
-12.894
 30
0.0
 10
-25.6121
 20
-12.894
 30
0.0
 10
-25.6121
 20
-12.894
 30
0.0
 10
-25.6028
 20
-13.4184
 30
0.0
 10
-25.6028
 20
-13.4184
 30
0.0
 10
-25.6028
 20
-13.4184
 30
0.0
 10
-25.6028
 20
-13.4184
 30
0.0
 10
-25.5951
 20
-13.4511
 30
0.0
 10
-25.5951
 20
-13.4511
 30
0.0
  0
SPLINE
  5
D7
330
1F
100
AcDbEntity
  8
ROUND
100
AcDbSpline
210
0.0
220
0.0
230
1.0
 70
     8
 71
     3
 72
     8
 73
     4
 74
     0
 42
0.0000000001
 43
0.0000000001
 40
0.0
 40
0.0
 40
0.0
 40
0.0
 40
1.0
 40
1.0
 40
1.0
 40
1.0
 10
-25.5951
 20
-13.4511
 30
0.0
 10
-25.5824
 20
-13.478
 30
0.0
 10
-25.5541
 20
-13.4957
 30
0.0
 10
-25.5245
 20
-13.4957
 30
0.0
  0
SPLINE
  5
D8
330
1F
100
AcDbEntity
  8
ROUND
100
AcDbSpline
210
0.0
220
0.0
230
1.0
 70
     8
 71
     3
 72
    16
 73
    12
 74
     0
 42
0.0000000001
 43
0.0000000001
 40
0.0
 40
0.0
 40
0.0
 40
0.0
 40
0.25
 40
0.25
 40
0.25
 40
0.25
 40
0.5
 40
0.5
 40
0.5
 40
0.5
 40
1.0
 40
1.0
 40
1.0
 40
1.0
 10
-25.5245
 20
-13.4957
 30
0.0
 10
-25.5245
 20
-13.4957
 30
0.0
 10
-24.9999
 20
-13.4957
 30
0.0
 10
-24.9999
 20
-13.4957
 30
0.0
 10
-24.9999
 20
-13.4957
 30
0.0
 10
-24.9999
 20
-13.4957
 30
0.0
 10
-4.5187
 20
-13.4957
 30
0.0
 10
-4.5187
 20
-13.4957
 30
0.0
 10
-4.5187
 20
-13.4957
 30
0.0
 10
-4.5187
 20
-13.4957
 30
0.0
 10
-3.9876
 20
-13.4952
 30
0.0
 10
-3.9876
 20
-13.4952
 30
0.0
  0
SPLINE
  5
D9
330
1F
100
AcDbEntity
  8
ROUND
100
AcDbSpline
210
0.0
220
0.0
230
1.0
 70
     8
 71
     3
 72
     8
 73
     4
 74
     0
 42
0.0000000001
 43
0.0000000001
 40
0.0
 40
0.0
 40
0.0
 40
0.0
 40
1.0
 40
1.0
 40
1.0
 40
1.0
 10
-3.9876
 20
-13.4952
 30
0.0
 10
-3.9479
 20
-13.4921
 30
0.0
 10
-3.9165
 20
-13.4581
 30
0.0
 10
-3.9157
 20
-13.4184
 30
0.0
  0
SPLINE
  5
DA
330
1F
100
AcDbEntity
  8
ROUND
100
AcDbSpline
210
0.0
220
0.0
230
1.0
 70
     8
 71
     3
 72
    16
 73
    12
 74
     0
 42
0.0000000001
 43
0.0000000001
 40
0.0
 40
0.0
 40
0.0
 40
0.0
 40
0.25
 40
0.25
 40
0.25
 40
0.25
 40
0.5
 40
0.5
 40
0.5
 40
0.5
 40
1.0
 40
1.0
 40
1.0
 40
1.0
 10
-3.9157
 20
-13.4184
 30
0.0
 10
-3.9157
 20
-13.4184
 30
0.0
 10
-3.9064
 20
-12.894
 30
0.0
 10
-3.9064
 20
-12.894
 30
0.0
 10
-3.9064
 20
-12.894
 30
0.0
 10
-3.9064
 20
-12.894
 30
0.0
 10
-3.8711
 20
-10.8731
 30
0.0
 10
-3.8711
 20
-10.8731
 30
0.0
 10
-3.8711
 20
-10.8731
 30
0.0
 10
-3.8711
 20
-10.8731
 30
0.0
 10
-3.8618
 20
-10.3485
 30
0.0
 10
-3.8618
 20
-10.3485
 30
0.0
  0
SPLINE
  5
DB
330
1F
100
AcDbEntity
  8
ROUND
100
AcDbSpline
210
0.0
220
0.0
230
1.0
 70
    24
 71
     3
 72
    12
 73
     8
 74
     0
 42
0.0000000001
 43
0.0000000001
 40
0.0
 40
0.0
 40
0.0
 40
0.0
 40
0.3333333333333333
 40
0.3333333333333333
 40
0.3333333333333333
 40
0.3333333333333333
 40
1.0
 40
1.0
 40
1.0
 40
1.0
 10
-3.9912
 20
2.2421
 30
0.0
 10
-3.9912
 20
2.2421
 30
0.0
 10
-3.4666
 20
2.2421
 30
0.0
 10
-3.4666
 20
2.2421
 30
0.0
 10
-3.4666
 20
2.2421
 30
0.0
 10
-3.4666
 20
2.2421
 30
0.0
 10
-2.3093
 20
2.2421
 30
0.0
 10
-2.3093
 20
2.2421
 30
0.0
  0
SPLINE
  5
DC
330
1F
100
AcDbEntity
  8
ROUND
100
AcDbSpline
210
0.0
220
0.0
230
1.0
 70
     8
 71
     3
 72
     8
 73
     4
 74
     0
 42
0.0000000001
 43
0.0000000001
 40
0.0
 40
0.0
 40
0.0
 40
0.0
 40
1.0
 40
1.0
 40
1.0
 40
1.0
 10
-2.3093
 20
2.2421
 30
0.0
 10
-2.1265
 20
2.2421
 30
0.0
 10
-1.5738
 20
2.1233
 30
0.0
 10
-1.5249
 20
2.4679
 30
0.0
  0
SPLINE
  5
DD
330
1F
100
AcDbEntity
  8
ROUND
100
AcDbSpline
210
0.0
220
0.0
230
1.0
 70
     8
 71
     3
 72
    16
 73
    12
 74
     0
 42
0.0000000001
 43
0.0000000001
 40
0.0
 40
0.0
 40
0.0
 40
0.0
 40
0.25
 40
0.25
 40
0.25
 40
0.25
 40
0.5
 40
0.5
 40
0.5
 40
0.5
 40
1.0
 40
1.0
 40
1.0
 40
1.0
 10
-1.5249
 20
2.4679
 30
0.0
 10
-1.5249
 20
2.4679
 30
0.0
 10
-1.4519
 20
2.9871
 30
0.0
 10
-1.4519
 20
2.9871
 30
0.0
 10
-1.4519
 20
2.9871
 30
0.0
 10
-1.4519
 20
2.9871
 30
0.0
 10
-1.2608
 20
4.3455
 30
0.0
 10
-1.2608
 20
4.3455
 30
0.0
 10
-1.2608
 20
4.3455
 30
0.0
 10
-1.2608
 20
4.3455
 30
0.0
 10
-1.1879
 20
4.865
 30
0.0
 10
-1.1879
 20
4.865
 30
0.0
  0
SPLINE
  5
DE
330
1F
100
AcDbEntity
  8
ROUND
100
AcDbSpline
210
0.0
220
0.0
230
1.0
 70
     8
 71
     3
 72
    16
 73
    12
 74
     0
 42
0.0000000001
 43
0.0000000001
 40
0.0
 40
0.0
 40
0.0
 40
0.0
 40
0.25
 40
0.25
 40
0.25
 40
0.25
 40
0.5
 40
0.5
 40
0.5
 40
0.5
 40
1.0
 40
1.0
 40
1.0
 40
1.0
 10
-30.4977
 20
8.0124
 30
0.0
 10
-30.4977
 20
8.0124
 30
0.0
 10
-30.4703
 20
7.4886
 30
0.0
 10
-30.4703
 20
7.4886
 30
0.0
 10
-30.4703
 20
7.4886
 30
0.0
 10
-30.4703
 20
7.4886
 30
0.0
 10
-30.3799
 20
5.7616
 30
0.0
 10
-30.3799
 20
5.7616
 30
0.0
 10
-30.3799
 20
5.7616
 30
0.0
 10
-30.3799
 20
5.7616
 30
0.0
 10
-30.3522
 20
5.238
 30
0.0
 10
-30.3522
 20
5.238
 30
0.0
  0
SPLINE
  5
DF
330
1F
100
AcDbEntity
  8
ROUND
100
AcDbSpline
210
0.0
220
0.0
230
1.0
 70
     8
 71
     3
 72
    12
 73
     8
 74
     0
 42
0.0000000001
 43
0.0000000001
 40
0.0
 40
0.0
 40
0.0
 40
0.0
 40
0.3333333333333333
 40
0.3333333333333333
 40
0.3333333333333333
 40
0.3333333333333333
 40
1.0
 40
1.0
 40
1.0
 40
1.0
 10
-30.3522
 20
5.238
 30
0.0
 10
-30.3497
 20
5.1934
 30
0.0
 10
-30.3399
 20
5.1498
 30
0.0
 10
-30.3232
 20
5.1091
 30
0.0
 10
-30.3232
 20
5.1091
 30
0.0
 10
-30.1816
 20
4.7639
 30
0.0
 10
-29.7122
 20
4.865
 30
0.0
 10
-29.4345
 20
4.865
 30
0.0
  0
SPLINE
  5
E0
330
1F
100
AcDbEntity
  8
ROUND
100
AcDbSpline
210
0.0
220
0.0
230
1.0
 70
    24
 71
     3
 72
    12
 73
     8
 74
     0
 42
0.0000000001
 43
0.0000000001
 40
0.0
 40
0.0
 40
0.0
 40
0.0
 40
0.3333333333333333
 40
0.3333333333333333
 40
0.3333333333333333
 40
0.3333333333333333
 40
1.0
 40
1.0
 40
1.0
 40
1.0
 10
-29.4345
 20
4.865
 30
0.0
 10
-29.4345
 20
4.865
 30
0.0
 10
-1.7127
 20
4.865
 30
0.0
 10
-1.7127
 20
4.865
 30
0.0
 10
-1.7127
 20
4.865
 30
0.0
 10
-1.7127
 20
4.865
 30
0.0
 10
-1.1879
 20
4.865
 30
0.0
 10
-1.1879
 20
4.865
 30
0.0
  0
SPLINE
  5
E1
330
1F
100
AcDbEntity
  8
ROUND
100
AcDbSpline
210
0.0
220
0.0
230
1.0
 70
     8
 71
     3
 72
    20
 73
    16
 74
     0
 42
0.0000000001
 43
0.0000000001
 40
0.0
 40
0.0
 40
0.0
 40
0.0
 40
0.2
 40
0.2
 40
0.2
 40
0.2
 40
0.4
 40
0.4
 40
0.4
 40
0.4
 40
0.6
 40
0.6
 40
0.6
 40
0.6
 40
1.0
 40
1.0
 40
1.0
 40
1.0
 10
0.9789
 20
8.0124
 30
0.0
 10
0.9789
 20
8.0124
 30
0.0
 10
0.9516
 20
7.4886
 30
0.0
 10
0.9516
 20
7.4886
 30
0.0
 10
0.9516
 20
7.4886
 30
0.0
 10
0.9516
 20
7.4886
 30
0.0
 10
0.8611
 20
5.7616
 30
0.0
 10
0.8611
 20
5.7616
 30
0.0
 10
0.8611
 20
5.7616
 30
0.0
 10
0.8611
 20
5.7616
 30
0.0
 10
0.8338
 20
5.238
 30
0.0
 10
0.8338
 20
5.238
 30
0.0
 10
0.8338
 20
5.238
 30
0.0
 10
0.8338
 20
5.238
 30
0.0
 10
0.8307
 20
5.205
 30
0.0
 10
0.8307
 20
5.205
 30
0.0
  0
SPLINE
  5
E2
330
1F
100
AcDbEntity
  8
ROUND
100
AcDbSpline
210
0.0
220
0.0
230
1.0
 70
     8
 71
     3
 72
     8
 73
     4
 74
     0
 42
0.0000000001
 43
0.0000000001
 40
0.0
 40
0.0
 40
0.0
 40
0.0
 40
1.0
 40
1.0
 40
1.0
 40
1.0
 10
0.8307
 20
5.205
 30
0.0
 10
0.8034
 20
5.0067
 30
0.0
 10
0.6353
 20
4.8729
 30
0.0
 10
0.4409
 20
4.865
 30
0.0
  0
SPLINE
  5
E3
330
1F
100
AcDbEntity
  8
ROUND
100
AcDbSpline
210
0.0
220
0.0
230
1.0
 70
    24
 71
     3
 72
    16
 73
    12
 74
     0
 42
0.0000000001
 43
0.0000000001
 40
0.0
 40
0.0
 40
0.0
 40
0.0
 40
0.25
 40
0.25
 40
0.25
 40
0.25
 40
0.5
 40
0.5
 40
0.5
 40
0.5
 40
1.0
 40
1.0
 40
1.0
 40
1.0
 10
0.4409
 20
4.865
 30
0.0
 10
0.4409
 20
4.865
 30
0.0
 10
-0.084
 20
4.865
 30
0.0
 10
-0.084
 20
4.865
 30
0.0
 10
-0.084
 20
4.865
 30
0.0
 10
-0.084
 20
4.865
 30
0.0
 10
-27.8062
 20
4.865
 30
0.0
 10
-27.8062
 20
4.865
 30
0.0
 10
-27.8062
 20
4.865
 30
0.0
 10
-27.8062
 20
4.865
 30
0.0
 10
-28.3309
 20
4.865
 30
0.0
 10
-28.3309
 20
4.865
 30
0.0
  0
SPLINE
  5
E4
330
1F
100
AcDbEntity
  8
ROUND
100
AcDbSpline
210
0.0
220
0.0
230
1.0
 70
    24
 71
     3
 72
    16
 73
    12
 74
     0
 42
0.0000000001
 43
0.0000000001
 40
0.0
 40
0.0
 40
0.0
 40
0.0
 40
0.25
 40
0.25
 40
0.25
 40
0.25
 40
0.5
 40
0.5
 40
0.5
 40
0.5
 40
1.0
 40
1.0
 40
1.0
 40
1.0
 10
-20.2308
 20
2.2421
 30
0.0
 10
-20.2308
 20
2.2421
 30
0.0
 10
-20.7552
 20
2.2421
 30
0.0
 10
-20.7552
 20
2.2421
 30
0.0
 10
-20.7552
 20
2.2421
 30
0.0
 10
-20.7552
 20
2.2421
 30
0.0
 10
-27.2094
 20
2.2421
 30
0.0
 10
-27.2094
 20
2.2421
 30
0.0
 10
-27.2094
 20
2.2421
 30
0.0
 10
-27.2094
 20
2.2421
 30
0.0
 10
-27.734
 20
2.2421
 30
0.0
 10
-27.734
 20
2.2421
 30
0.0
  0
SPLINE
  5
E5
330
1F
100
AcDbEntity
  8
ROUND
100
AcDbSpline
210
0.0
220
0.0
230
1.0
 70
     8
 71
     3
 72
     8
 73
     4
 74
     0
 42
0.0000000001
 43
0.0000000001
 40
0.0
 40
0.0
 40
0.0
 40
0.0
 40
1.0
 40
1.0
 40
1.0
 40
1.0
 10
-27.734
 20
2.2421
 30
0.0
 10
-28.0821
 20
2.2424
 30
0.0
 10
-28.0411
 20
2.8062
 30
0.0
 10
-28.0669
 20
2.9871
 30
0.0
  0
SPLINE
  5
E6
330
1F
100
AcDbEntity
  8
ROUND
100
AcDbSpline
210
0.0
220
0.0
230
1.0
 70
     8
 71
     3
 72
    12
 73
     8
 74
     0
 42
0.0000000001
 43
0.0000000001
 40
0.0
 40
0.0
 40
0.0
 40
0.0
 40
0.3333333333333333
 40
0.3333333333333333
 40
0.3333333333333333
 40
0.3333333333333333
 40
1.0
 40
1.0
 40
1.0
 40
1.0
 10
-28.0669
 20
2.9871
 30
0.0
 10
-28.0669
 20
2.9871
 30
0.0
 10
-28.2576
 20
4.3455
 30
0.0
 10
-28.2576
 20
4.3455
 30
0.0
 10
-28.2576
 20
4.3455
 30
0.0
 10
-28.2576
 20
4.3455
 30
0.0
 10
-28.3309
 20
4.865
 30
0.0
 10
-28.3309
 20
4.865
 30
0.0
  0
SPLINE
  5
E7
330
1F
100
AcDbEntity
  8
ROUND
100
AcDbSpline
210
0.0
220
0.0
230
1.0
 70
     8
 71
     3
 72
    16
 73
    12
 74
     0
 42
0.0000000001
 43
0.0000000001
 40
0.0
 40
0.0
 40
0.0
 40
0.0
 40
0.25
 40
0.25
 40
0.25
 40
0.25
 40
0.5
 40
0.5
 40
0.5
 40
0.5
 40
1.0
 40
1.0
 40
1.0
 40
1.0
 10
-9.4195
 20
-26.0872
 30
0.0
 10
-9.0805
 20
-26.0872
 30
0.0
 10
-8.7806
 20
-26.0923
 30
0.0
 10
-8.4576
 20
-26.0039
 30
0.0
 10
-8.4576
 20
-26.0039
 30
0.0
 10
-7.6607
 20
-25.7853
 30
0.0
 10
-7.1253
 20
-25.0782
 30
0.0
 10
-6.8781
 20
-24.3262
 30
0.0
 10
-6.8781
 20
-24.3262
 30
0.0
 10
-6.7708
 20
-24.0016
 30
0.0
 10
-6.7505
 20
-23.6391
 30
0.0
 10
-6.71
 20
-23.3063
 30
0.0
  0
SPLINE
  5
E8
330
1F
100
AcDbEntity
  8
ROUND
100
AcDbSpline
210
0.0
220
0.0
230
1.0
 70
     8
 71
     3
 72
    12
 73
     8
 74
     0
 42
0.0000000001
 43
0.0000000001
 40
0.0
 40
0.0
 40
0.0
 40
0.0
 40
0.3333333333333333
 40
0.3333333333333333
 40
0.3333333333333333
 40
0.3333333333333333
 40
1.0
 40
1.0
 40
1.0
 40
1.0
 10
-6.71
 20
-23.3063
 30
0.0
 10
-6.71
 20
-23.3063
 30
0.0
 10
-5.5785
 20
-14.0165
 30
0.0
 10
-5.5785
 20
-14.0165
 30
0.0
 10
-5.5785
 20
-14.0165
 30
0.0
 10
-5.5785
 20
-14.0165
 30
0.0
 10
-5.5151
 20
-13.4957
 30
0.0
 10
-5.5151
 20
-13.4957
 30
0.0
  0
SPLINE
  5
E9
330
1F
100
AcDbEntity
  8
ROUND
100
AcDbSpline
210
0.0
220
0.0
230
1.0
 70
     8
 71
     3
 72
     8
 73
     4
 74
     0
 42
0.0000000001
 43
0.0000000001
 40
0.0
 40
0.0
 40
0.0
 40
0.0
 40
1.0
 40
1.0
 40
1.0
 40
1.0
 10
-10.0663
 20
-24.7093
 30
0.0
 10
-9.9436
 20
-24.2454
 30
0.0
 10
-9.9188
 20
-23.7822
 30
0.0
 10
-9.8847
 20
-23.3037
 30
0.0
  0
SPLINE
  5
EA
330
1F
100
AcDbEntity
  8
ROUND
100
AcDbSpline
210
0.0
220
0.0
230
1.0
 70
     8
 71
     3
 72
    12
 73
     8
 74
     0
 42
0.0000000001
 43
0.0000000001
 40
0.0
 40
0.0
 40
0.0
 40
0.0
 40
0.3333333333333333
 40
0.3333333333333333
 40
0.3333333333333333
 40
0.3333333333333333
 40
1.0
 40
1.0
 40
1.0
 40
1.0
 10
-9.8847
 20
-23.3037
 30
0.0
 10
-9.8847
 20
-23.3037
 30
0.0
 10
-9.2318
 20
-14.0188
 30
0.0
 10
-9.2318
 20
-14.0188
 30
0.0
 10
-9.2318
 20
-14.0188
 30
0.0
 10
-9.2318
 20
-14.0188
 30
0.0
 10
-9.1952
 20
-13.4957
 30
0.0
 10
-9.1952
 20
-13.4957
 30
0.0
  0
SPLINE
  5
EB
330
1F
100
AcDbEntity
  8
ROUND
100
AcDbSpline
210
0.0
220
0.0
230
1.0
 70
     8
 71
     3
 72
     8
 73
     4
 74
     0
 42
0.0000000001
 43
0.0000000001
 40
0.0
 40
0.0
 40
0.0
 40
0.0
 40
1.0
 40
1.0
 40
1.0
 40
1.0
 10
-10.0552
 20
-24.6667
 30
0.0
 10
-10.2132
 20
-25.2418
 30
0.0
 10
-10.5231
 20
-26.0325
 30
0.0
 10
-11.2135
 20
-26.0872
 30
0.0
  0
SPLINE
  5
EC
330
1F
100
AcDbEntity
  8
ROUND
100
AcDbSpline
210
0.0
220
0.0
230
1.0
 70
    24
 71
     3
 72
     8
 73
     4
 74
     0
 42
0.0000000001
 43
0.0000000001
 40
0.0
 40
0.0
 40
0.0
 40
0.0
 40
1.0
 40
1.0
 40
1.0
 40
1.0
 10
-11.2135
 20
-26.0872
 30
0.0
 10
-11.2135
 20
-26.0872
 30
0.0
 10
-11.9033
 20
-26.0872
 30
0.0
 10
-11.9033
 20
-26.0872
 30
0.0
  0
SPLINE
  5
ED
330
1F
100
AcDbEntity
  8
ROUND
100
AcDbSpline
210
0.0
220
0.0
230
1.0
 70
     8
 71
     3
 72
    12
 73
     8
 74
     0
 42
0.0000000001
 43
0.0000000001
 40
0.0
 40
0.0
 40
0.0
 40
0.0
 40
0.3333333333333333
 40
0.3333333333333333
 40
0.3333333333333333
 40
0.3333333333333333
 40
1.0
 40
1.0
 40
1.0
 40
1.0
 10
-7.1307
 20
-13.4957
 30
0.0
 10
-7.1307
 20
-13.4957
 30
0.0
 10
-7.1941
 20
-14.0165
 30
0.0
 10
-7.1941
 20
-14.0165
 30
0.0
 10
-7.1941
 20
-14.0165
 30
0.0
 10
-7.1941
 20
-14.0165
 30
0.0
 10
-8.3032
 20
-23.1297
 30
0.0
 10
-8.3032
 20
-23.1297
 30
0.0
  0
SPLINE
  5
EE
330
1F
100
AcDbEntity
  8
ROUND
100
AcDbSpline
210
0.0
220
0.0
230
1.0
 70
     8
 71
     3
 72
    24
 73
    20
 74
     0
 42
0.0000000001
 43
0.0000000001
 40
0.0
 40
0.0
 40
0.0
 40
0.0
 40
0.1666666666666667
 40
0.1666666666666667
 40
0.1666666666666667
 40
0.1666666666666667
 40
0.3333333333333333
 40
0.3333333333333333
 40
0.3333333333333333
 40
0.3333333333333333
 40
0.5
 40
0.5
 40
0.5
 40
0.5
 40
0.6666666666666666
 40
0.6666666666666666
 40
0.6666666666666666
 40
0.6666666666666666
 40
1.0
 40
1.0
 40
1.0
 40
1.0
 10
-8.3032
 20
-23.1297
 30
0.0
 10
-8.3279
 20
-23.3326
 30
0.0
 10
-8.3436
 20
-23.5809
 30
0.0
 10
-8.3913
 20
-23.7951
 30
0.0
 10
-8.3913
 20
-23.7951
 30
0.0
 10
-8.4174
 20
-23.914
 30
0.0
 10
-8.4576
 20
-24.0292
 30
0.0
 10
-8.5123
 20
-24.1374
 30
0.0
 10
-8.5123
 20
-24.1374
 30
0.0
 10
-8.5535
 20
-24.2197
 30
0.0
 10
-8.6027
 20
-24.2978
 30
0.0
 10
-8.6597
 20
-24.37
 30
0.0
 10
-8.6597
 20
-24.37
 30
0.0
 10
-8.7074
 20
-24.43
 30
0.0
 10
-8.76
 20
-24.4862
 30
0.0
 10
-8.8177
 20
-24.5365
 30
0.0
 10
-8.8177
 20
-24.5365
 30
0.0
 10
-9.0712
 20
-24.7582
 30
0.0
 10
-9.3759
 20
-24.7788
 30
0.0
 10
-9.6994
 20
-24.8443
 30
0.0
  0
SPLINE
  5
EF
330
1F
100
AcDbEntity
  8
ROUND
100
AcDbSpline
210
0.0
220
0.0
230
1.0
 70
    24
 71
     3
 72
     8
 73
     4
 74
     0
 42
0.0000000001
 43
0.0000000001
 40
0.0
 40
0.0
 40
0.0
 40
0.0
 40
1.0
 40
1.0
 40
1.0
 40
1.0
 10
-9.6994
 20
-24.8443
 30
0.0
 10
-9.6994
 20
-24.8443
 30
0.0
 10
-10.1341
 20
-24.9322
 30
0.0
 10
-10.1341
 20
-24.9322
 30
0.0
  0
SPLINE
  5
F0
330
1F
100
AcDbEntity
  8
ROUND
100
AcDbSpline
210
0.0
220
0.0
230
1.0
 70
     8
 71
     3
 72
     8
 73
     4
 74
     0
 42
0.0000000001
 43
0.0000000001
 40
0.0
 40
0.0
 40
0.0
 40
0.0
 40
1.0
 40
1.0
 40
1.0
 40
1.0
 10
-11.7365
 20
-24.7951
 30
0.0
 10
-11.643
 20
-24.7616
 30
0.0
 10
-11.5684
 20
-24.7018
 30
0.0
 10
-11.5022
 20
-24.6281
 30
0.0
  0
SPLINE
  5
F1
330
1F
100
AcDbEntity
  8
ROUND
100
AcDbSpline
210
0.0
220
0.0
230
1.0
 70
     8
 71
     3
 72
     8
 73
     4
 74
     0
 42
0.0000000001
 43
0.0000000001
 40
0.0
 40
0.0
 40
0.0
 40
0.0
 40
1.0
 40
1.0
 40
1.0
 40
1.0
 10
-11.5445
 20
-24.6889
 30
0.0
 10
-11.2191
 20
-24.2442
 30
0.0
 10
-11.2202
 20
-23.6631
 30
0.0
 10
-11.183
 20
-23.1395
 30
0.0
  0
SPLINE
  5
F2
330
1F
100
AcDbEntity
  8
ROUND
100
AcDbSpline
210
0.0
220
0.0
230
1.0
 70
     8
 71
     3
 72
    12
 73
     8
 74
     0
 42
0.0000000001
 43
0.0000000001
 40
0.0
 40
0.0
 40
0.0
 40
0.0
 40
0.3333333333333333
 40
0.3333333333333333
 40
0.3333333333333333
 40
0.3333333333333333
 40
1.0
 40
1.0
 40
1.0
 40
1.0
 10
-11.183
 20
-23.1395
 30
0.0
 10
-11.183
 20
-23.1395
 30
0.0
 10
-10.5424
 20
-14.0188
 30
0.0
 10
-10.5424
 20
-14.0188
 30
0.0
 10
-10.5424
 20
-14.0188
 30
0.0
 10
-10.5424
 20
-14.0188
 30
0.0
 10
-10.5053
 20
-13.4957
 30
0.0
 10
-10.5053
 20
-13.4957
 30
0.0
  0
SPLINE
  5
F3
330
1F
100
AcDbEntity
  8
ROUND
100
AcDbSpline
210
0.0
220
0.0
230
1.0
 70
     8
 71
     3
 72
     8
 73
     4
 74
     0
 42
0.0000000001
 43
0.0000000001
 40
0.0
 40
0.0
 40
0.0
 40
0.0
 40
1.0
 40
1.0
 40
1.0
 40
1.0
 10
-13.2429
 20
-25.3138
 30
0.0
 10
-12.7182
 20
-25.1421
 30
0.0
 10
-12.2
 20
-24.9503
 30
0.0
 10
-11.6793
 20
-24.7685
 30
0.0
  0
SPLINE
  5
F4
330
1F
100
AcDbEntity
  8
ROUND
100
AcDbSpline
210
0.0
220
0.0
230
1.0
 70
     8
 71
     3
 72
     8
 73
     4
 74
     0
 42
0.0000000001
 43
0.0000000001
 40
0.0
 40
0.0
 40
0.0
 40
0.0
 40
1.0
 40
1.0
 40
1.0
 40
1.0
 10
-14.3663
 20
-13.4957
 30
0.0
 10
-14.3663
 20
-17.6914
 30
0.0
 10
-14.3908
 20
-21.8905
 30
0.0
 10
-14.3658
 20
-26.0872
 30
0.0
  0
SPLINE
  5
F5
330
1F
100
AcDbEntity
  8
ROUND
100
AcDbSpline
210
0.0
220
0.0
230
1.0
 70
     8
 71
     3
 72
    16
 73
    12
 74
     0
 42
0.0000000001
 43
0.0000000001
 40
0.0
 40
0.0
 40
0.0
 40
0.0
 40
0.25
 40
0.25
 40
0.25
 40
0.25
 40
0.5
 40
0.5
 40
0.5
 40
0.5
 40
1.0
 40
1.0
 40
1.0
 40
1.0
 10
-23.7619
 20
-23.8288
 30
0.0
 10
-23.7214
 20
-24.0493
 30
0.0
 10
-23.6742
 20
-24.2586
 30
0.0
 10
-23.5884
 20
-24.4666
 30
0.0
 10
-23.5884
 20
-24.4666
 30
0.0
 10
-23.3626
 20
-25.013
 30
0.0
 10
-22.9511
 20
-25.4734
 30
0.0
 10
-22.434
 20
-25.7592
 30
0.0
 10
-22.434
 20
-25.7592
 30
0.0
 10
-22.2373
 20
-25.868
 30
0.0
 10
-22.0341
 20
-25.9387
 30
0.0
 10
-21.8198
 20
-26.0039
 30
0.0
  0
SPLINE
  5
F6
330
1F
100
AcDbEntity
  8
ROUND
100
AcDbSpline
210
0.0
220
0.0
230
1.0
 70
     8
 71
     3
 72
    12
 73
     8
 74
     0
 42
0.0000000001
 43
0.0000000001
 40
0.0
 40
0.0
 40
0.0
 40
0.0
 40
0.3333333333333333
 40
0.3333333333333333
 40
0.3333333333333333
 40
0.3333333333333333
 40
1.0
 40
1.0
 40
1.0
 40
1.0
 10
-22.3881
 20
-13.4957
 30
0.0
 10
-22.3881
 20
-13.4957
 30
0.0
 10
-22.3249
 20
-14.0165
 30
0.0
 10
-22.3249
 20
-14.0165
 30
0.0
 10
-22.3249
 20
-14.0165
 30
0.0
 10
-22.3249
 20
-14.0165
 30
0.0
 10
-21.2194
 20
-23.0949
 30
0.0
 10
-21.2194
 20
-23.0949
 30
0.0
  0
SPLINE
  5
F7
330
1F
100
AcDbEntity
  8
ROUND
100
AcDbSpline
210
0.0
220
0.0
230
1.0
 70
     8
 71
     3
 72
    12
 73
     8
 74
     0
 42
0.0000000001
 43
0.0000000001
 40
0.0
 40
0.0
 40
0.0
 40
0.0
 40
0.3333333333333333
 40
0.3333333333333333
 40
0.3333333333333333
 40
0.3333333333333333
 40
1.0
 40
1.0
 40
1.0
 40
1.0
 10
-21.2194
 20
-23.0949
 30
0.0
 10
-21.1931
 20
-23.3146
 30
0.0
 10
-21.1764
 20
-23.6025
 30
0.0
 10
-21.1182
 20
-23.835
 30
0.0
 10
-21.1182
 20
-23.835
 30
0.0
 10
-21.0289
 20
-24.1916
 30
0.0
 10
-20.809
 20
-24.5053
 30
0.0
 10
-20.4868
 20
-24.6858
 30
0.0
  0
SPLINE
  5
F8
330
1F
100
AcDbEntity
  8
ROUND
100
AcDbSpline
210
0.0
220
0.0
230
1.0
 70
     8
 71
     3
 72
     8
 73
     4
 74
     0
 42
0.0000000001
 43
0.0000000001
 40
0.0
 40
0.0
 40
0.0
 40
0.0
 40
1.0
 40
1.0
 40
1.0
 40
1.0
 10
-20.5172
 20
-24.6677
 30
0.0
 10
-20.4316
 20
-24.7093
 30
0.0
 10
-20.3424
 20
-24.7383
 30
0.0
 10
-20.2493
 20
-24.7572
 30
0.0
  0
SPLINE
  5
F9
330
1F
100
AcDbEntity
  8
ROUND
100
AcDbSpline
210
0.0
220
0.0
230
1.0
 70
     8
 71
     3
 72
    16
 73
    12
 74
     0
 42
0.0000000001
 43
0.0000000001
 40
0.0
 40
0.0
 40
0.0
 40
0.0
 40
0.25
 40
0.25
 40
0.25
 40
0.25
 40
0.5
 40
0.5
 40
0.5
 40
0.5
 40
1.0
 40
1.0
 40
1.0
 40
1.0
 10
-5.7564
 20
-23.8288
 30
0.0
 10
-5.7971
 20
-24.0493
 30
0.0
 10
-5.8443
 20
-24.2586
 30
0.0
 10
-5.9304
 20
-24.4666
 30
0.0
 10
-5.9304
 20
-24.4666
 30
0.0
 10
-6.156
 20
-25.013
 30
0.0
 10
-6.5674
 20
-25.4734
 30
0.0
 10
-7.0848
 20
-25.7592
 30
0.0
 10
-7.0848
 20
-25.7592
 30
0.0
 10
-7.2815
 20
-25.868
 30
0.0
 10
-7.4847
 20
-25.9387
 30
0.0
 10
-7.6983
 20
-26.0039
 30
0.0
  0
SPLINE
  5
FA
330
1F
100
AcDbEntity
  8
ROUND
100
AcDbSpline
210
0.0
220
0.0
230
1.0
 70
     8
 71
     3
 72
    16
 73
    12
 74
     0
 42
0.0000000001
 43
0.0000000001
 40
0.0
 40
0.0
 40
0.0
 40
0.0
 40
0.25
 40
0.25
 40
0.25
 40
0.25
 40
0.5
 40
0.5
 40
0.5
 40
0.5
 40
1.0
 40
1.0
 40
1.0
 40
1.0
 10
-9.9219
 20
-23.8288
 30
0.0
 10
-9.9219
 20
-23.8288
 30
0.0
 10
-10.6025
 20
-23.8271
 30
0.0
 10
-10.6025
 20
-23.8271
 30
0.0
 10
-10.6025
 20
-23.8271
 30
0.0
 10
-10.6025
 20
-23.8271
 30
0.0
 10
-10.8912
 20
-23.7407
 30
0.0
 10
-10.8912
 20
-23.7407
 30
0.0
 10
-10.8912
 20
-23.7407
 30
0.0
 10
-10.8912
 20
-23.7407
 30
0.0
 10
-11.18
 20
-23.6538
 30
0.0
 10
-11.18
 20
-23.6538
 30
0.0
  0
SPLINE
  5
FB
330
1F
100
AcDbEntity
  8
ROUND
100
AcDbSpline
210
0.0
220
0.0
230
1.0
 70
     8
 71
     3
 72
     8
 73
     4
 74
     0
 42
0.0000000001
 43
0.0000000001
 40
0.0
 40
0.0
 40
0.0
 40
0.0
 40
1.0
 40
1.0
 40
1.0
 40
1.0
 10
-11.18
 20
-23.6538
 30
0.0
 10
-11.2104
 20
-23.6445
 30
0.0
 10
-11.2042
 20
-23.6489
 30
0.0
 10
-11.2179
 20
-23.6322
 30
0.0
  0
SPLINE
  5
FC
330
1F
100
AcDbEntity
  8
ROUND
100
AcDbSpline
210
0.0
220
0.0
230
1.0
 70
     8
 71
     3
 72
    16
 73
    12
 74
     0
 42
0.0000000001
 43
0.0000000001
 40
0.0
 40
0.0
 40
0.0
 40
0.0
 40
0.25
 40
0.25
 40
0.25
 40
0.25
 40
0.5
 40
0.5
 40
0.5
 40
0.5
 40
1.0
 40
1.0
 40
1.0
 40
1.0
 10
-10.4661
 20
-13.4957
 30
0.0
 10
-10.4661
 20
-13.4957
 30
0.0
 10
-10.5033
 20
-14.0188
 30
0.0
 10
-10.5033
 20
-14.0188
 30
0.0
 10
-10.5033
 20
-14.0188
 30
0.0
 10
-10.5033
 20
-14.0188
 30
0.0
 10
-11.1459
 20
-23.1656
 30
0.0
 10
-11.1459
 20
-23.1656
 30
0.0
 10
-11.1459
 20
-23.1656
 30
0.0
 10
-11.1459
 20
-23.1656
 30
0.0
 10
-11.1825
 20
-23.6889
 30
0.0
 10
-11.1825
 20
-23.6889
 30
0.0
  0
SPLINE
  5
FD
330
1F
100
AcDbEntity
  8
ROUND
100
AcDbSpline
210
0.0
220
0.0
230
1.0
 70
     8
 71
     3
 72
    12
 73
     8
 74
     0
 42
0.0000000001
 43
0.0000000001
 40
0.0
 40
0.0
 40
0.0
 40
0.0
 40
0.3333333333333333
 40
0.3333333333333333
 40
0.3333333333333333
 40
0.3333333333333333
 40
1.0
 40
1.0
 40
1.0
 40
1.0
 10
-11.1825
 20
-23.6889
 30
0.0
 10
-11.2086
 20
-24.0387
 30
0.0
 10
-11.2823
 20
-24.4148
 30
0.0
 10
-11.472
 20
-24.7155
 30
0.0
 10
-11.472
 20
-24.7155
 30
0.0
 10
-11.5659
 20
-24.8642
 30
0.0
 10
-11.6868
 20
-25.007
 30
0.0
 10
-11.8572
 20
-25.0668
 30
0.0
  0
SPLINE
  5
FE
330
1F
100
AcDbEntity
  8
ROUND
100
AcDbSpline
210
0.0
220
0.0
230
1.0
 70
     8
 71
     3
 72
     8
 73
     4
 74
     0
 42
0.0000000001
 43
0.0000000001
 40
0.0
 40
0.0
 40
0.0
 40
0.0
 40
1.0
 40
1.0
 40
1.0
 40
1.0
 10
-11.8572
 20
-25.0668
 30
0.0
 10
-12.3816
 20
-25.2524
 30
0.0
 10
-12.9072
 20
-25.4334
 30
0.0
 10
-13.4321
 20
-25.6164
 30
0.0
  0
SPLINE
  5
FF
330
1F
100
AcDbEntity
  8
ROUND
100
AcDbSpline
210
0.0
220
0.0
230
1.0
 70
    24
 71
     3
 72
     8
 73
     4
 74
     0
 42
0.0000000001
 43
0.0000000001
 40
0.0
 40
0.0
 40
0.0
 40
0.0
 40
1.0
 40
1.0
 40
1.0
 40
1.0
 10
-13.4321
 20
-25.6164
 30
0.0
 10
-13.4321
 20
-25.6164
 30
0.0
 10
-13.4698
 20
-25.6164
 30
0.0
 10
-13.4698
 20
-25.6164
 30
0.0
  0
SPLINE
  5
100
330
1F
100
AcDbEntity
  8
ROUND
100
AcDbSpline
210
0.0
220
0.0
230
1.0
 70
     8
 71
     3
 72
     8
 73
     4
 74
     0
 42
0.0000000001
 43
0.0000000001
 40
0.0
 40
0.0
 40
0.0
 40
0.0
 40
1.0
 40
1.0
 40
1.0
 40
1.0
 10
-13.4321
 20
-25.6164
 30
0.0
 10
-13.4282
 20
-25.4842
 30
0.0
 10
-13.3694
 20
-25.3661
 30
0.0
 10
-13.2429
 20
-25.3138
 30
0.0
  0
SPLINE
  5
101
330
1F
100
AcDbEntity
  8
ROUND
100
AcDbSpline
210
0.0
220
0.0
230
1.0
 70
     8
 71
     3
 72
     8
 73
     4
 74
     0
 42
0.0000000001
 43
0.0000000001
 40
0.0
 40
0.0
 40
0.0
 40
0.0
 40
1.0
 40
1.0
 40
1.0
 40
1.0
 10
-13.3395
 20
-25.3083
 30
0.0
 10
-13.3594
 20
-25.321
 30
0.0
 10
-13.3743
 20
-25.3357
 30
0.0
 10
-13.388
 20
-25.3542
 30
0.0
  0
SPLINE
  5
102
330
1F
100
AcDbEntity
  8
ROUND
100
AcDbSpline
210
0.0
220
0.0
230
1.0
 70
     8
 71
     3
 72
     8
 73
     4
 74
     0
 42
0.0000000001
 43
0.0000000001
 40
0.0
 40
0.0
 40
0.0
 40
0.0
 40
1.0
 40
1.0
 40
1.0
 40
1.0
 10
-16.211
 20
-25.3002
 30
0.0
 10
-16.1749
 20
-25.3032
 30
0.0
 10
-16.1514
 20
-25.3267
 30
0.0
 10
-16.1302
 20
-25.3542
 30
0.0
  0
SPLINE
  5
103
330
1F
100
AcDbEntity
  8
ROUND
100
AcDbSpline
210
0.0
220
0.0
230
1.0
 70
     8
 71
     3
 72
    12
 73
     8
 74
     0
 42
0.0000000001
 43
0.0000000001
 40
0.0
 40
0.0
 40
0.0
 40
0.0
 40
0.3333333333333333
 40
0.3333333333333333
 40
0.3333333333333333
 40
0.3333333333333333
 40
1.0
 40
1.0
 40
1.0
 40
1.0
 10
-19.0521
 20
-13.4957
 30
0.0
 10
-19.0521
 20
-13.4957
 30
0.0
 10
-19.0155
 20
-14.0188
 30
0.0
 10
-19.0155
 20
-14.0188
 30
0.0
 10
-19.0155
 20
-14.0188
 30
0.0
 10
-19.0155
 20
-14.0188
 30
0.0
 10
-18.3728
 20
-23.1656
 30
0.0
 10
-18.3728
 20
-23.1656
 30
0.0
  0
SPLINE
  5
104
330
1F
100
AcDbEntity
  8
ROUND
100
AcDbSpline
210
0.0
220
0.0
230
1.0
 70
     8
 71
     3
 72
    16
 73
    12
 74
     0
 42
0.0000000001
 43
0.0000000001
 40
0.0
 40
0.0
 40
0.0
 40
0.0
 40
0.25
 40
0.25
 40
0.25
 40
0.25
 40
0.5
 40
0.5
 40
0.5
 40
0.5
 40
1.0
 40
1.0
 40
1.0
 40
1.0
 10
-18.3728
 20
-23.1656
 30
0.0
 10
-18.3501
 20
-23.4909
 30
0.0
 10
-18.3395
 20
-23.8095
 30
0.0
 10
-18.2725
 20
-24.1274
 30
0.0
 10
-18.2725
 20
-24.1274
 30
0.0
 10
-18.205
 20
-24.4468
 30
0.0
 10
-18.054
 20
-24.8598
 30
0.0
 10
-17.7494
 20
-25.0269
 30
0.0
 10
-17.7494
 20
-25.0269
 30
0.0
 10
-17.719
 20
-25.0436
 30
0.0
 10
-17.6881
 20
-25.0575
 30
0.0
 10
-17.6549
 20
-25.0694
 30
0.0
  0
SPLINE
  5
105
330
1F
100
AcDbEntity
  8
ROUND
100
AcDbSpline
210
0.0
220
0.0
230
1.0
 70
     8
 71
     3
 72
    20
 73
    16
 74
     0
 42
0.0000000001
 43
0.0000000001
 40
0.0
 40
0.0
 40
0.0
 40
0.0
 40
0.2
 40
0.2
 40
0.2
 40
0.2
 40
0.4
 40
0.4
 40
0.4
 40
0.4
 40
0.6
 40
0.6
 40
0.6
 40
0.6
 40
1.0
 40
1.0
 40
1.0
 40
1.0
 10
-17.6549
 20
-25.0694
 30
0.0
 10
-17.6549
 20
-25.0694
 30
0.0
 10
-17.1596
 20
-25.2421
 30
0.0
 10
-17.1596
 20
-25.2421
 30
0.0
 10
-17.1596
 20
-25.2421
 30
0.0
 10
-17.1596
 20
-25.2421
 30
0.0
 10
-16.5819
 20
-25.444
 30
0.0
 10
-16.5819
 20
-25.444
 30
0.0
 10
-16.5819
 20
-25.444
 30
0.0
 10
-16.5819
 20
-25.444
 30
0.0
 10
-16.0864
 20
-25.6164
 30
0.0
 10
-16.0864
 20
-25.6164
 30
0.0
 10
-16.0864
 20
-25.6164
 30
0.0
 10
-16.0864
 20
-25.6164
 30
0.0
 10
-16.049
 20
-25.6164
 30
0.0
 10
-16.049
 20
-25.6164
 30
0.0
  0
SPLINE
  5
106
330
1F
100
AcDbEntity
  8
ROUND
100
AcDbSpline
210
0.0
220
0.0
230
1.0
 70
     8
 71
     3
 72
     8
 73
     4
 74
     0
 42
0.0000000001
 43
0.0000000001
 40
0.0
 40
0.0
 40
0.0
 40
0.0
 40
1.0
 40
1.0
 40
1.0
 40
1.0
 10
-16.0864
 20
-25.6164
 30
0.0
 10
-16.0905
 20
-25.4842
 30
0.0
 10
-16.1488
 20
-25.3661
 30
0.0
 10
-16.2759
 20
-25.3138
 30
0.0
  0
SPLINE
  5
107
330
1F
100
AcDbEntity
  8
ROUND
100
AcDbSpline
210
0.0
220
0.0
230
1.0
 70
     8
 71
     3
 72
    12
 73
     8
 74
     0
 42
0.0000000001
 43
0.0000000001
 40
0.0
 40
0.0
 40
0.0
 40
0.0
 40
0.3333333333333333
 40
0.3333333333333333
 40
0.3333333333333333
 40
0.3333333333333333
 40
1.0
 40
1.0
 40
1.0
 40
1.0
 10
-6.9739
 20
-13.4957
 30
0.0
 10
-6.9739
 20
-13.4957
 30
0.0
 10
-7.0374
 20
-14.0165
 30
0.0
 10
-7.0374
 20
-14.0165
 30
0.0
 10
-7.0374
 20
-14.0165
 30
0.0
 10
-7.0374
 20
-14.0165
 30
0.0
 10
-8.1514
 20
-23.1684
 30
0.0
 10
-8.1514
 20
-23.1684
 30
0.0
  0
SPLINE
  5
108
330
1F
100
AcDbEntity
  8
ROUND
100
AcDbSpline
210
0.0
220
0.0
230
1.0
 70
     8
 71
     3
 72
    12
 73
     8
 74
     0
 42
0.0000000001
 43
0.0000000001
 40
0.0
 40
0.0
 40
0.0
 40
0.0
 40
0.3333333333333333
 40
0.3333333333333333
 40
0.3333333333333333
 40
0.3333333333333333
 40
1.0
 40
1.0
 40
1.0
 40
1.0
 10
-8.1514
 20
-23.1684
 30
0.0
 10
-8.1856
 20
-23.4509
 30
0.0
 10
-8.199
 20
-23.7611
 30
0.0
 10
-8.2921
 20
-24.0377
 30
0.0
 10
-8.2921
 20
-24.0377
 30
0.0
 10
-8.4602
 20
-24.536
 30
0.0
 10
-8.8474
 20
-24.9588
 30
0.0
 10
-9.3748
 20
-25.0668
 30
0.0
  0
SPLINE
  5
109
330
1F
100
AcDbEntity
  8
ROUND
100
AcDbSpline
210
0.0
220
0.0
230
1.0
 70
    24
 71
     3
 72
     8
 73
     4
 74
     0
 42
0.0000000001
 43
0.0000000001
 40
0.0
 40
0.0
 40
0.0
 40
0.0
 40
1.0
 40
1.0
 40
1.0
 40
1.0
 10
-9.2712
 20
-24.758
 30
0.0
 10
-9.2712
 20
-24.758
 30
0.0
 10
-9.3419
 20
-24.7953
 30
0.0
 10
-9.3419
 20
-24.7953
 30
0.0
  0
SPLINE
  5
10A
330
1F
100
AcDbEntity
  8
ROUND
100
AcDbSpline
210
0.0
220
0.0
230
1.0
 70
     8
 71
     3
 72
     8
 73
     4
 74
     0
 42
0.0000000001
 43
0.0000000001
 40
0.0
 40
0.0
 40
0.0
 40
0.0
 40
1.0
 40
1.0
 40
1.0
 40
1.0
 10
-9.3419
 20
-24.7953
 30
0.0
 10
-9.407
 20
-24.8863
 30
0.0
 10
-9.3847
 20
-24.966
 30
0.0
 10
-9.3859
 20
-25.0694
 30
0.0
  0
SPLINE
  5
10B
330
1F
100
AcDbEntity
  8
ROUND
100
AcDbSpline
210
0.0
220
0.0
230
1.0
 70
    24
 71
     3
 72
     8
 73
     4
 74
     0
 42
0.0000000001
 43
0.0000000001
 40
0.0
 40
0.0
 40
0.0
 40
0.0
 40
1.0
 40
1.0
 40
1.0
 40
1.0
 10
-9.3859
 20
-25.0694
 30
0.0
 10
-9.3859
 20
-25.0694
 30
0.0
 10
-9.4037
 20
-26.0872
 30
0.0
 10
-9.4037
 20
-26.0872
 30
0.0
  0
SPLINE
  5
10C
330
1F
100
AcDbEntity
  8
ROUND
100
AcDbSpline
210
0.0
220
0.0
230
1.0
 70
     8
 71
     3
 72
    16
 73
    12
 74
     0
 42
0.0000000001
 43
0.0000000001
 40
0.0
 40
0.0
 40
0.0
 40
0.0
 40
0.25
 40
0.25
 40
0.25
 40
0.25
 40
0.5
 40
0.5
 40
0.5
 40
0.5
 40
1.0
 40
1.0
 40
1.0
 40
1.0
 10
-9.1366
 20
-24.7322
 30
0.0
 10
-9.1366
 20
-24.7322
 30
0.0
 10
-9.224
 20
-24.7541
 30
0.0
 10
-9.224
 20
-24.7541
 30
0.0
 10
-9.224
 20
-24.7541
 30
0.0
 10
-9.224
 20
-24.7541
 30
0.0
 10
-9.2539
 20
-24.7541
 30
0.0
 10
-9.2539
 20
-24.7541
 30
0.0
 10
-9.2539
 20
-24.7541
 30
0.0
 10
-9.2539
 20
-24.7541
 30
0.0
 10
-9.3246
 20
-24.792
 30
0.0
 10
-9.3246
 20
-24.792
 30
0.0
  0
SPLINE
  5
10D
330
1F
100
AcDbEntity
  8
ROUND
100
AcDbSpline
210
0.0
220
0.0
230
1.0
 70
     8
 71
     3
 72
     8
 73
     4
 74
     0
 42
0.0000000001
 43
0.0000000001
 40
0.0
 40
0.0
 40
0.0
 40
0.0
 40
1.0
 40
1.0
 40
1.0
 40
1.0
 10
-9.3246
 20
-24.792
 30
0.0
 10
-9.3877
 20
-24.8802
 30
0.0
 10
-9.3697
 20
-24.9655
 30
0.0
 10
-9.3687
 20
-25.0655
 30
0.0
  0
SPLINE
  5
10E
330
1F
100
AcDbEntity
  8
ROUND
100
AcDbSpline
210
0.0
220
0.0
230
1.0
 70
     8
 71
     3
 72
    12
 73
     8
 74
     0
 42
0.0000000001
 43
0.0000000001
 40
0.0
 40
0.0
 40
0.0
 40
0.0
 40
0.3333333333333333
 40
0.3333333333333333
 40
0.3333333333333333
 40
0.3333333333333333
 40
1.0
 40
1.0
 40
1.0
 40
1.0
 10
-8.2147
 20
-23.6889
 30
0.0
 10
-8.2147
 20
-23.6889
 30
0.0
 10
-8.3238
 20
-23.6678
 30
0.0
 10
-8.3238
 20
-23.6678
 30
0.0
 10
-8.3238
 20
-23.6678
 30
0.0
 10
-8.3238
 20
-23.6678
 30
0.0
 10
-8.3666
 20
-23.6504
 30
0.0
 10
-8.3666
 20
-23.6504
 30
0.0
  0
SPLINE
  5
10F
330
1F
100
AcDbEntity
  8
ROUND
100
AcDbSpline
210
0.0
220
0.0
230
1.0
 70
     8
 71
     3
 72
     8
 73
     4
 74
     0
 42
0.0000000001
 43
0.0000000001
 40
0.0
 40
0.0
 40
0.0
 40
0.0
 40
1.0
 40
1.0
 40
1.0
 40
1.0
 10
-8.3622
 20
-23.6157
 30
0.0
 10
-8.3248
 20
-23.644
 30
0.0
 10
-8.2545
 20
-23.6469
 30
0.0
 10
-8.2103
 20
-23.6538
 30
0.0
  0
SPLINE
  5
110
330
1F
100
AcDbEntity
  8
ROUND
100
AcDbSpline
210
0.0
220
0.0
230
1.0
 70
    24
 71
     3
 72
     8
 73
     4
 74
     0
 42
0.0000000001
 43
0.0000000001
 40
0.0
 40
0.0
 40
0.0
 40
0.0
 40
1.0
 40
1.0
 40
1.0
 40
1.0
 10
-8.2103
 20
-23.6538
 30
0.0
 10
-8.2103
 20
-23.6538
 30
0.0
 10
-7.6929
 20
-23.7397
 30
0.0
 10
-7.6929
 20
-23.7397
 30
0.0
  0
SPLINE
  5
111
330
1F
100
AcDbEntity
  8
ROUND
100
AcDbSpline
210
0.0
220
0.0
230
1.0
 70
     8
 71
     3
 72
     8
 73
     4
 74
     0
 42
0.0000000001
 43
0.0000000001
 40
0.0
 40
0.0
 40
0.0
 40
0.0
 40
1.0
 40
1.0
 40
1.0
 40
1.0
 10
-7.6929
 20
-23.7397
 30
0.0
 10
-7.1276
 20
-23.8332
 30
0.0
 10
-7.2776
 20
-23.8266
 30
0.0
 10
-6.7734
 20
-23.8288
 30
0.0
  0
SPLINE
  5
112
330
1F
100
AcDbEntity
  8
ROUND
100
AcDbSpline
210
0.0
220
0.0
230
1.0
 70
     8
 71
     3
 72
    16
 73
    12
 74
     0
 42
0.0000000001
 43
0.0000000001
 40
0.0
 40
0.0
 40
0.0
 40
0.0
 40
0.25
 40
0.25
 40
0.25
 40
0.25
 40
0.5
 40
0.5
 40
0.5
 40
0.5
 40
1.0
 40
1.0
 40
1.0
 40
1.0
 10
-19.2591
 20
-25.2462
 30
0.0
 10
-19.5894
 20
-25.1792
 30
0.0
 10
-19.9253
 20
-25.1225
 30
0.0
 10
-20.2519
 20
-25.0405
 30
0.0
 10
-20.2519
 20
-25.0405
 30
0.0
 10
-20.7539
 20
-24.9139
 30
0.0
 10
-21.1027
 20
-24.4452
 30
0.0
 10
-21.2465
 20
-23.973
 30
0.0
 10
-21.2465
 20
-23.973
 30
0.0
 10
-21.3259
 20
-23.7118
 30
0.0
 10
-21.3396
 20
-23.3958
 30
0.0
 10
-21.3711
 20
-23.1382
 30
0.0
  0
SPLINE
  5
113
330
1F
100
AcDbEntity
  8
ROUND
100
AcDbSpline
210
0.0
220
0.0
230
1.0
 70
     8
 71
     3
 72
    12
 73
     8
 74
     0
 42
0.0000000001
 43
0.0000000001
 40
0.0
 40
0.0
 40
0.0
 40
0.0
 40
0.3333333333333333
 40
0.3333333333333333
 40
0.3333333333333333
 40
0.3333333333333333
 40
1.0
 40
1.0
 40
1.0
 40
1.0
 10
-21.3711
 20
-23.1382
 30
0.0
 10
-21.3711
 20
-23.1382
 30
0.0
 10
-22.4811
 20
-14.0165
 30
0.0
 10
-22.4811
 20
-14.0165
 30
0.0
 10
-22.4811
 20
-14.0165
 30
0.0
 10
-22.4811
 20
-14.0165
 30
0.0
 10
-22.5445
 20
-13.4957
 30
0.0
 10
-22.5445
 20
-13.4957
 30
0.0
  0
SPLINE
  5
114
330
1F
100
AcDbEntity
  8
ROUND
100
AcDbSpline
210
0.0
220
0.0
230
1.0
 70
    24
 71
     3
 72
     8
 73
     4
 74
     0
 42
0.0000000001
 43
0.0000000001
 40
0.0
 40
0.0
 40
0.0
 40
0.0
 40
1.0
 40
1.0
 40
1.0
 40
1.0
 10
-20.247
 20
-24.758
 30
0.0
 10
-20.247
 20
-24.758
 30
0.0
 10
-20.1769
 20
-24.7953
 30
0.0
 10
-20.1769
 20
-24.7953
 30
0.0
  0
SPLINE
  5
115
330
1F
100
AcDbEntity
  8
ROUND
100
AcDbSpline
210
0.0
220
0.0
230
1.0
 70
     8
 71
     3
 72
     8
 73
     4
 74
     0
 42
0.0000000001
 43
0.0000000001
 40
0.0
 40
0.0
 40
0.0
 40
0.0
 40
1.0
 40
1.0
 40
1.0
 40
1.0
 10
-20.1769
 20
-24.7953
 30
0.0
 10
-20.1114
 20
-24.8863
 30
0.0
 10
-20.1341
 20
-24.9658
 30
0.0
 10
-20.1329
 20
-25.0694
 30
0.0
  0
SPLINE
  5
116
330
1F
100
AcDbEntity
  8
ROUND
100
AcDbSpline
210
0.0
220
0.0
230
1.0
 70
    24
 71
     3
 72
     8
 73
     4
 74
     0
 42
0.0000000001
 43
0.0000000001
 40
0.0
 40
0.0
 40
0.0
 40
0.0
 40
1.0
 40
1.0
 40
1.0
 40
1.0
 10
-20.1329
 20
-25.0694
 30
0.0
 10
-20.1329
 20
-25.0694
 30
0.0
 10
-20.115
 20
-26.0872
 30
0.0
 10
-20.115
 20
-26.0872
 30
0.0
  0
SPLINE
  5
117
330
1F
100
AcDbEntity
  8
ROUND
100
AcDbSpline
210
0.0
220
0.0
230
1.0
 70
     8
 71
     3
 72
     8
 73
     4
 74
     0
 42
0.0000000001
 43
0.0000000001
 40
0.0
 40
0.0
 40
0.0
 40
0.0
 40
1.0
 40
1.0
 40
1.0
 40
1.0
 10
-20.3821
 20
-24.7322
 30
0.0
 10
-20.3416
 20
-24.7443
 30
0.0
 10
-20.2235
 20
-24.7508
 30
0.0
 10
-20.1942
 20
-24.792
 30
0.0
  0
SPLINE
  5
118
330
1F
100
AcDbEntity
  8
ROUND
100
AcDbSpline
210
0.0
220
0.0
230
1.0
 70
     8
 71
     3
 72
    12
 73
     8
 74
     0
 42
0.0000000001
 43
0.0000000001
 40
0.0
 40
0.0
 40
0.0
 40
0.0
 40
0.3333333333333333
 40
0.3333333333333333
 40
0.3333333333333333
 40
0.3333333333333333
 40
1.0
 40
1.0
 40
1.0
 40
1.0
 10
-20.1942
 20
-24.792
 30
0.0
 10
-20.1942
 20
-24.792
 30
0.0
 10
-20.1486
 20
-24.9155
 30
0.0
 10
-20.1486
 20
-24.9155
 30
0.0
 10
-20.1486
 20
-24.9155
 30
0.0
 10
-20.1486
 20
-24.9155
 30
0.0
 10
-20.1498
 20
-25.0655
 30
0.0
 10
-20.1498
 20
-25.0655
 30
0.0
  0
SPLINE
  5
119
330
1F
100
AcDbEntity
  8
ROUND
100
AcDbSpline
210
0.0
220
0.0
230
1.0
 70
     8
 71
     3
 72
    16
 73
    12
 74
     0
 42
0.0000000001
 43
0.0000000001
 40
0.0
 40
0.0
 40
0.0
 40
0.0
 40
0.25
 40
0.25
 40
0.25
 40
0.25
 40
0.5
 40
0.5
 40
0.5
 40
0.5
 40
1.0
 40
1.0
 40
1.0
 40
1.0
 10
-19.5968
 20
-23.8288
 30
0.0
 10
-19.5968
 20
-23.8288
 30
0.0
 10
-18.916
 20
-23.8288
 30
0.0
 10
-18.916
 20
-23.8288
 30
0.0
 10
-18.916
 20
-23.8288
 30
0.0
 10
-18.916
 20
-23.8288
 30
0.0
 10
-18.627
 20
-23.7415
 30
0.0
 10
-18.627
 20
-23.7415
 30
0.0
 10
-18.627
 20
-23.7415
 30
0.0
 10
-18.627
 20
-23.7415
 30
0.0
 10
-18.3383
 20
-23.6538
 30
0.0
 10
-18.3383
 20
-23.6538
 30
0.0
  0
SPLINE
  5
11A
330
1F
100
AcDbEntity
  8
ROUND
100
AcDbSpline
210
0.0
220
0.0
230
1.0
 70
     8
 71
     3
 72
     8
 73
     4
 74
     0
 42
0.0000000001
 43
0.0000000001
 40
0.0
 40
0.0
 40
0.0
 40
0.0
 40
1.0
 40
1.0
 40
1.0
 40
1.0
 10
-18.3383
 20
-23.6538
 30
0.0
 10
-18.3078
 20
-23.6445
 30
0.0
 10
-18.3145
 20
-23.6489
 30
0.0
 10
-18.3012
 20
-23.6319
 30
0.0
  0
SPLINE
  5
11B
330
1F
100
AcDbEntity
  8
ROUND
100
AcDbSpline
210
0.0
220
0.0
230
1.0
 70
     8
 71
     3
 72
    12
 73
     8
 74
     0
 42
0.0000000001
 43
0.0000000001
 40
0.0
 40
0.0
 40
0.0
 40
0.0
 40
0.3333333333333333
 40
0.3333333333333333
 40
0.3333333333333333
 40
0.3333333333333333
 40
1.0
 40
1.0
 40
1.0
 40
1.0
 10
-21.1524
 20
-23.6504
 30
0.0
 10
-21.1524
 20
-23.6504
 30
0.0
 10
-21.1952
 20
-23.6678
 30
0.0
 10
-21.1952
 20
-23.6678
 30
0.0
 10
-21.1952
 20
-23.6678
 30
0.0
 10
-21.1952
 20
-23.6678
 30
0.0
 10
-21.3038
 20
-23.6889
 30
0.0
 10
-21.3038
 20
-23.6889
 30
0.0
  0
SPLINE
  5
11C
330
1F
100
AcDbEntity
  8
ROUND
100
AcDbSpline
210
0.0
220
0.0
230
1.0
 70
     8
 71
     3
 72
     8
 73
     4
 74
     0
 42
0.0000000001
 43
0.0000000001
 40
0.0
 40
0.0
 40
0.0
 40
0.0
 40
1.0
 40
1.0
 40
1.0
 40
1.0
 10
-21.1565
 20
-23.6157
 30
0.0
 10
-21.1939
 20
-23.644
 30
0.0
 10
-21.2646
 20
-23.6469
 30
0.0
 10
-21.3079
 20
-23.6538
 30
0.0
  0
SPLINE
  5
11D
330
1F
100
AcDbEntity
  8
ROUND
100
AcDbSpline
210
0.0
220
0.0
230
1.0
 70
    24
 71
     3
 72
     8
 73
     4
 74
     0
 42
0.0000000001
 43
0.0000000001
 40
0.0
 40
0.0
 40
0.0
 40
0.0
 40
1.0
 40
1.0
 40
1.0
 40
1.0
 10
-21.3079
 20
-23.6538
 30
0.0
 10
-21.3079
 20
-23.6538
 30
0.0
 10
-21.8255
 20
-23.7397
 30
0.0
 10
-21.8255
 20
-23.7397
 30
0.0
  0
SPLINE
  5
11E
330
1F
100
AcDbEntity
  8
ROUND
100
AcDbSpline
210
0.0
220
0.0
230
1.0
 70
     8
 71
     3
 72
     8
 73
     4
 74
     0
 42
0.0000000001
 43
0.0000000001
 40
0.0
 40
0.0
 40
0.0
 40
0.0
 40
1.0
 40
1.0
 40
1.0
 40
1.0
 10
-21.8255
 20
-23.7397
 30
0.0
 10
-22.3912
 20
-23.8332
 30
0.0
 10
-22.2406
 20
-23.8266
 30
0.0
 10
-22.7451
 20
-23.8288
 30
0.0
  0
SPLINE
  5
11F
330
1F
100
AcDbEntity
  8
ROUND
100
AcDbSpline
210
0.0
220
0.0
230
1.0
 70
     8
 71
     3
 72
    20
 73
    16
 74
     0
 42
0.0000000001
 43
0.0000000001
 40
0.0
 40
0.0
 40
0.0
 40
0.0
 40
0.2
 40
0.2
 40
0.2
 40
0.2
 40
0.4
 40
0.4
 40
0.4
 40
0.4
 40
0.6
 40
0.6
 40
0.6
 40
0.6
 40
1.0
 40
1.0
 40
1.0
 40
1.0
 10
-17.7806
 20
-24.7953
 30
0.0
 10
-17.7806
 20
-24.7953
 30
0.0
 10
-17.6796
 20
-24.9194
 30
0.0
 10
-17.6796
 20
-24.9194
 30
0.0
 10
-17.6796
 20
-24.9194
 30
0.0
 10
-17.6796
 20
-24.9194
 30
0.0
 10
-17.6549
 20
-25.0694
 30
0.0
 10
-17.6549
 20
-25.0694
 30
0.0
 10
-17.6549
 20
-25.0694
 30
0.0
 10
-17.6549
 20
-25.0694
 30
0.0
 10
-17.6394
 20
-25.578
 30
0.0
 10
-17.6394
 20
-25.578
 30
0.0
 10
-17.6394
 20
-25.578
 30
0.0
 10
-17.6394
 20
-25.578
 30
0.0
 10
-17.6244
 20
-26.0872
 30
0.0
 10
-17.6244
 20
-26.0872
 30
0.0
  0
SPLINE
  5
120
330
1F
100
AcDbEntity
  8
ROUND
100
AcDbSpline
210
0.0
220
0.0
230
1.0
 70
     8
 71
     3
 72
    20
 73
    16
 74
     0
 42
0.0000000001
 43
0.0000000001
 40
0.0
 40
0.0
 40
0.0
 40
0.0
 40
0.2
 40
0.2
 40
0.2
 40
0.2
 40
0.4
 40
0.4
 40
0.4
 40
0.4
 40
0.6
 40
0.6
 40
0.6
 40
0.6
 40
1.0
 40
1.0
 40
1.0
 40
1.0
 10
-11.8946
 20
-26.0872
 30
0.0
 10
-11.8946
 20
-26.0872
 30
0.0
 10
-11.8791
 20
-25.578
 30
0.0
 10
-11.8791
 20
-25.578
 30
0.0
 10
-11.8791
 20
-25.578
 30
0.0
 10
-11.8791
 20
-25.578
 30
0.0
 10
-11.8637
 20
-25.0694
 30
0.0
 10
-11.8637
 20
-25.0694
 30
0.0
 10
-11.8637
 20
-25.0694
 30
0.0
 10
-11.8637
 20
-25.0694
 30
0.0
 10
-11.8394
 20
-24.9194
 30
0.0
 10
-11.8394
 20
-24.9194
 30
0.0
 10
-11.8394
 20
-24.9194
 30
0.0
 10
-11.8394
 20
-24.9194
 30
0.0
 10
-11.7378
 20
-24.7953
 30
0.0
 10
-11.7378
 20
-24.7953
 30
0.0
  0
SPLINE
  5
121
330
1F
100
AcDbEntity
  8
ROUND
100
AcDbSpline
210
0.0
220
0.0
230
1.0
 70
     8
 71
     3
 72
    20
 73
    16
 74
     0
 42
0.0000000001
 43
0.0000000001
 40
0.0
 40
0.0
 40
0.0
 40
0.0
 40
0.2
 40
0.2
 40
0.2
 40
0.2
 40
0.4
 40
0.4
 40
0.4
 40
0.4
 40
0.6
 40
0.6
 40
0.6
 40
0.6
 40
1.0
 40
1.0
 40
1.0
 40
1.0
 10
-9.876
 20
-13.4957
 30
0.0
 10
-9.876
 20
-13.4957
 30
0.0
 10
-9.9126
 20
-14.0188
 30
0.0
 10
-9.9126
 20
-14.0188
 30
0.0
 10
-9.9126
 20
-14.0188
 30
0.0
 10
-9.9126
 20
-14.0188
 30
0.0
 10
-10.5659
 20
-23.3055
 30
0.0
 10
-10.5659
 20
-23.3055
 30
0.0
 10
-10.5659
 20
-23.3055
 30
0.0
 10
-10.5659
 20
-23.3055
 30
0.0
 10
-10.6025
 20
-23.8288
 30
0.0
 10
-10.6025
 20
-23.8288
 30
0.0
 10
-10.6025
 20
-23.8288
 30
0.0
 10
-10.6025
 20
-23.8288
 30
0.0
 10
-10.6172
 20
-23.9998
 30
0.0
 10
-10.6172
 20
-23.9998
 30
0.0
  0
SPLINE
  5
122
330
1F
100
AcDbEntity
  8
ROUND
100
AcDbSpline
210
0.0
220
0.0
230
1.0
 70
     8
 71
     3
 72
    12
 73
     8
 74
     0
 42
0.0000000001
 43
0.0000000001
 40
0.0
 40
0.0
 40
0.0
 40
0.0
 40
0.3333333333333333
 40
0.3333333333333333
 40
0.3333333333333333
 40
0.3333333333333333
 40
1.0
 40
1.0
 40
1.0
 40
1.0
 10
-10.6172
 20
-23.9998
 30
0.0
 10
-10.6806
 20
-24.5373
 30
0.0
 10
-10.8064
 20
-25.0856
 30
0.0
 10
-11.1044
 20
-25.5466
 30
0.0
 10
-11.1044
 20
-25.5466
 30
0.0
 10
-11.2898
 20
-25.8327
 30
0.0
 10
-11.545
 20
-26.0596
 30
0.0
 10
-11.8946
 20
-26.0872
 30
0.0
  0
SPLINE
  5
123
330
1F
100
AcDbEntity
  8
ROUND
100
AcDbSpline
210
0.0
220
0.0
230
1.0
 70
     8
 71
     3
 72
    16
 73
    12
 74
     0
 42
0.0000000001
 43
0.0000000001
 40
0.0
 40
0.0
 40
0.0
 40
0.0
 40
0.25
 40
0.25
 40
0.25
 40
0.25
 40
0.5
 40
0.5
 40
0.5
 40
0.5
 40
1.0
 40
1.0
 40
1.0
 40
1.0
 10
-5.1632
 20
4.865
 30
0.0
 10
-5.1632
 20
4.865
 30
0.0
 10
-5.2147
 20
4.3432
 30
0.0
 10
-5.2147
 20
4.3432
 30
0.0
 10
-5.2147
 20
4.3432
 30
0.0
 10
-5.2147
 20
4.3432
 30
0.0
 10
-5.3491
 20
2.9897
 30
0.0
 10
-5.3491
 20
2.9897
 30
0.0
 10
-5.3491
 20
2.9897
 30
0.0
 10
-5.3491
 20
2.9897
 30
0.0
 10
-5.4011
 20
2.4679
 30
0.0
 10
-5.4011
 20
2.4679
 30
0.0
  0
SPLINE
  5
124
330
1F
100
AcDbEntity
  8
ROUND
100
AcDbSpline
210
0.0
220
0.0
230
1.0
 70
     8
 71
     3
 72
     8
 73
     4
 74
     0
 42
0.0000000001
 43
0.0000000001
 40
0.0
 40
0.0
 40
0.0
 40
0.0
 40
1.0
 40
1.0
 40
1.0
 40
1.0
 10
-5.4011
 20
2.4679
 30
0.0
 10
-5.4117
 20
2.3656
 30
0.0
 10
-5.4704
 20
2.2485
 30
0.0
 10
-5.5847
 20
2.2421
 30
0.0
  0
SPLINE
  5
125
330
1F
100
AcDbEntity
  8
ROUND
100
AcDbSpline
210
0.0
220
0.0
230
1.0
 70
     8
 71
     3
 72
    12
 73
     8
 74
     0
 42
0.0000000001
 43
0.0000000001
 40
0.0
 40
0.0
 40
0.0
 40
0.0
 40
0.3333333333333333
 40
0.3333333333333333
 40
0.3333333333333333
 40
0.3333333333333333
 40
1.0
 40
1.0
 40
1.0
 40
1.0
 10
-5.908
 20
-13.4957
 30
0.0
 10
-5.908
 20
-13.4957
 30
0.0
 10
-5.9714
 20
-14.0165
 30
0.0
 10
-5.9714
 20
-14.0165
 30
0.0
 10
-5.9714
 20
-14.0165
 30
0.0
 10
-5.9714
 20
-14.0165
 30
0.0
 10
-7.1034
 20
-23.3084
 30
0.0
 10
-7.1034
 20
-23.3084
 30
0.0
  0
SPLINE
  5
126
330
1F
100
AcDbEntity
  8
ROUND
100
AcDbSpline
210
0.0
220
0.0
230
1.0
 70
     8
 71
     3
 72
    20
 73
    16
 74
     0
 42
0.0000000001
 43
0.0000000001
 40
0.0
 40
0.0
 40
0.0
 40
0.0
 40
0.2
 40
0.2
 40
0.2
 40
0.2
 40
0.4
 40
0.4
 40
0.4
 40
0.4
 40
0.6
 40
0.6
 40
0.6
 40
0.6
 40
1.0
 40
1.0
 40
1.0
 40
1.0
 10
-7.1034
 20
-23.3084
 30
0.0
 10
-7.1364
 20
-23.5826
 30
0.0
 10
-7.1531
 20
-23.8912
 30
0.0
 10
-7.2274
 20
-24.1656
 30
0.0
 10
-7.2274
 20
-24.1656
 30
0.0
 10
-7.3978
 20
-24.7995
 30
0.0
 10
-7.7306
 20
-25.3584
 30
0.0
 10
-8.281
 20
-25.7356
 30
0.0
 10
-8.281
 20
-25.7356
 30
0.0
 10
-8.4478
 20
-25.8495
 30
0.0
 10
-8.6311
 20
-25.9291
 30
0.0
 10
-8.8208
 20
-25.9949
 30
0.0
 10
-8.8208
 20
-25.9949
 30
0.0
 10
-9.0091
 20
-26.0596
 30
0.0
 10
-9.2062
 20
-26.0781
 30
0.0
 10
-9.4037
 20
-26.0872
 30
0.0
  0
SPLINE
  5
127
330
1F
100
AcDbEntity
  8
ROUND
100
AcDbSpline
210
0.0
220
0.0
230
1.0
 70
     8
 71
     3
 72
    12
 73
     8
 74
     0
 42
0.0000000001
 43
0.0000000001
 40
0.0
 40
0.0
 40
0.0
 40
0.0
 40
0.3333333333333333
 40
0.3333333333333333
 40
0.3333333333333333
 40
0.3333333333333333
 40
1.0
 40
1.0
 40
1.0
 40
1.0
 10
-8.1776
 20
-26.0803
 30
0.0
 10
-7.2758
 20
-25.9907
 30
0.0
 10
-6.412
 20
-25.4811
 30
0.0
 10
-6.0173
 20
-24.6384
 30
0.0
 10
-6.0173
 20
-24.6384
 30
0.0
 10
-5.8938
 20
-24.3749
 30
0.0
 10
-5.8151
 20
-24.1158
 30
0.0
 10
-5.7649
 20
-23.8288
 30
0.0
  0
SPLINE
  5
128
330
1F
100
AcDbEntity
  8
ROUND
100
AcDbSpline
210
0.0
220
0.0
230
1.0
 70
     8
 71
     3
 72
     8
 73
     4
 74
     0
 42
0.0000000001
 43
0.0000000001
 40
0.0
 40
0.0
 40
0.0
 40
0.0
 40
1.0
 40
1.0
 40
1.0
 40
1.0
 10
-13.388
 20
-25.3542
 30
0.0
 10
-13.5275
 20
-25.5435
 30
0.0
 10
-13.4715
 20
-25.9235
 30
0.0
 10
-13.4723
 20
-26.0872
 30
0.0
  0
SPLINE
  5
129
330
1F
100
AcDbEntity
  8
ROUND
100
AcDbSpline
210
0.0
220
0.0
230
1.0
 70
     8
 71
     3
 72
    20
 73
    16
 74
     0
 42
0.0000000001
 43
0.0000000001
 40
0.0
 40
0.0
 40
0.0
 40
0.0
 40
0.2
 40
0.2
 40
0.2
 40
0.2
 40
0.4
 40
0.4
 40
0.4
 40
0.4
 40
0.6
 40
0.6
 40
0.6
 40
0.6
 40
1.0
 40
1.0
 40
1.0
 40
1.0
 10
-20.115
 20
-26.0872
 30
0.0
 10
-20.3128
 20
-26.0781
 30
0.0
 10
-20.5085
 20
-26.0594
 30
0.0
 10
-20.6977
 20
-25.9949
 30
0.0
 10
-20.6977
 20
-25.9949
 30
0.0
 10
-20.8575
 20
-25.9399
 30
0.0
 10
-21.0107
 20
-25.8771
 30
0.0
 10
-21.155
 20
-25.7877
 30
0.0
 10
-21.155
 20
-25.7877
 30
0.0
 10
-21.7505
 20
-25.4187
 30
0.0
 10
-22.1122
 20
-24.8301
 30
0.0
 10
-22.2914
 20
-24.1656
 30
0.0
 10
-22.2914
 20
-24.1656
 30
0.0
 10
-22.3654
 20
-23.8902
 30
0.0
 10
-22.3821
 20
-23.5814
 30
0.0
 10
-22.4156
 20
-23.3063
 30
0.0
  0
SPLINE
  5
12A
330
1F
100
AcDbEntity
  8
ROUND
100
AcDbSpline
210
0.0
220
0.0
230
1.0
 70
     8
 71
     3
 72
    12
 73
     8
 74
     0
 42
0.0000000001
 43
0.0000000001
 40
0.0
 40
0.0
 40
0.0
 40
0.0
 40
0.3333333333333333
 40
0.3333333333333333
 40
0.3333333333333333
 40
0.3333333333333333
 40
1.0
 40
1.0
 40
1.0
 40
1.0
 10
-22.4156
 20
-23.3063
 30
0.0
 10
-22.4156
 20
-23.3063
 30
0.0
 10
-23.5472
 20
-14.0165
 30
0.0
 10
-23.5472
 20
-14.0165
 30
0.0
 10
-23.5472
 20
-14.0165
 30
0.0
 10
-23.5472
 20
-14.0165
 30
0.0
 10
-23.6108
 20
-13.4957
 30
0.0
 10
-23.6108
 20
-13.4957
 30
0.0
  0
SPLINE
  5
12B
330
1F
100
AcDbEntity
  8
ROUND
100
AcDbSpline
210
0.0
220
0.0
230
1.0
 70
     8
 71
     3
 72
    12
 73
     8
 74
     0
 42
0.0000000001
 43
0.0000000001
 40
0.0
 40
0.0
 40
0.0
 40
0.0
 40
0.3333333333333333
 40
0.3333333333333333
 40
0.3333333333333333
 40
0.3333333333333333
 40
1.0
 40
1.0
 40
1.0
 40
1.0
 10
-21.3409
 20
-26.0803
 30
0.0
 10
-22.2484
 20
-25.9905
 30
0.0
 10
-23.0983
 20
-25.4793
 30
0.0
 10
-23.5015
 20
-24.6384
 30
0.0
 10
-23.5015
 20
-24.6384
 30
0.0
 10
-23.6265
 20
-24.3767
 30
0.0
 10
-23.7036
 20
-24.1145
 30
0.0
 10
-23.7536
 20
-23.8288
 30
0.0
  0
SPLINE
  5
12C
330
1F
100
AcDbEntity
  8
ROUND
100
AcDbSpline
210
0.0
220
0.0
230
1.0
 70
    24
 71
     3
 72
     8
 73
     4
 74
     0
 42
0.0000000001
 43
0.0000000001
 40
0.0
 40
0.0
 40
0.0
 40
0.0
 40
1.0
 40
1.0
 40
1.0
 40
1.0
 10
-21.43
 20
2.2421
 30
0.0
 10
-21.43
 20
2.2421
 30
0.0
 10
-20.7495
 20
2.2421
 30
0.0
 10
-20.7495
 20
2.2421
 30
0.0
  0
SPLINE
  5
12D
330
1F
100
AcDbEntity
  8
ROUND
100
AcDbSpline
210
0.0
220
0.0
230
1.0
 70
     8
 71
     3
 72
    12
 73
     8
 74
     0
 42
0.0000000001
 43
0.0000000001
 40
0.0
 40
0.0
 40
0.0
 40
0.0
 40
0.3333333333333333
 40
0.3333333333333333
 40
0.3333333333333333
 40
0.3333333333333333
 40
1.0
 40
1.0
 40
1.0
 40
1.0
 10
-17.6244
 20
-26.0872
 30
0.0
 10
-17.974
 20
-26.0596
 30
0.0
 10
-18.2303
 20
-25.8309
 30
0.0
 10
-18.4151
 20
-25.545
 30
0.0
 10
-18.4151
 20
-25.545
 30
0.0
 10
-18.7126
 20
-25.0849
 30
0.0
 10
-18.8379
 20
-24.537
 30
0.0
 10
-18.9011
 20
-23.9998
 30
0.0
  0
SPLINE
  5
12E
330
1F
100
AcDbEntity
  8
ROUND
100
AcDbSpline
210
0.0
220
0.0
230
1.0
 70
     8
 71
     3
 72
    20
 73
    16
 74
     0
 42
0.0000000001
 43
0.0000000001
 40
0.0
 40
0.0
 40
0.0
 40
0.0
 40
0.2
 40
0.2
 40
0.2
 40
0.2
 40
0.4
 40
0.4
 40
0.4
 40
0.4
 40
0.6
 40
0.6
 40
0.6
 40
0.6
 40
1.0
 40
1.0
 40
1.0
 40
1.0
 10
-18.9011
 20
-23.9998
 30
0.0
 10
-18.9011
 20
-23.9998
 30
0.0
 10
-18.916
 20
-23.8271
 30
0.0
 10
-18.916
 20
-23.8271
 30
0.0
 10
-18.916
 20
-23.8271
 30
0.0
 10
-18.916
 20
-23.8271
 30
0.0
 10
-18.9532
 20
-23.3037
 30
0.0
 10
-18.9532
 20
-23.3037
 30
0.0
 10
-18.9532
 20
-23.3037
 30
0.0
 10
-18.9532
 20
-23.3037
 30
0.0
 10
-19.6061
 20
-14.0188
 30
0.0
 10
-19.6061
 20
-14.0188
 30
0.0
 10
-19.6061
 20
-14.0188
 30
0.0
 10
-19.6061
 20
-14.0188
 30
0.0
 10
-19.6427
 20
-13.4957
 30
0.0
 10
-19.6427
 20
-13.4957
 30
0.0
  0
SPLINE
  5
12F
330
1F
100
AcDbEntity
  8
ROUND
100
AcDbSpline
210
0.0
220
0.0
230
1.0
 70
     8
 71
     3
 72
     8
 73
     4
 74
     0
 42
0.0000000001
 43
0.0000000001
 40
0.0
 40
0.0
 40
0.0
 40
0.0
 40
1.0
 40
1.0
 40
1.0
 40
1.0
 10
-16.0459
 20
-26.0872
 30
0.0
 10
-16.0472
 20
-25.8918
 30
0.0
 10
-15.9938
 20
-25.5548
 30
0.0
 10
-16.1302
 20
-25.3542
 30
0.0
  0
SPLINE
  5
130
330
1F
100
AcDbEntity
  8
ROUND
100
AcDbSpline
210
0.0
220
0.0
230
1.0
 70
    24
 71
     3
 72
     8
 73
     4
 74
     0
 42
0.0000000001
 43
0.0000000001
 40
0.0
 40
0.0
 40
0.0
 40
0.0
 40
1.0
 40
1.0
 40
1.0
 40
1.0
 10
-13.4475
 20
21.6688
 30
0.0
 10
-13.4475
 20
21.6688
 30
0.0
 10
-13.4475
 20
8.0124
 30
0.0
 10
-13.4475
 20
8.0124
 30
0.0
  0
SPLINE
  5
131
330
1F
100
AcDbEntity
  8
ROUND
100
AcDbSpline
210
0.0
220
0.0
230
1.0
 70
    24
 71
     3
 72
     8
 73
     4
 74
     0
 42
0.0000000001
 43
0.0000000001
 40
0.0
 40
0.0
 40
0.0
 40
0.0
 40
1.0
 40
1.0
 40
1.0
 40
1.0
 10
-16.0706
 20
8.0124
 30
0.0
 10
-16.0706
 20
8.0124
 30
0.0
 10
-16.0706
 20
21.6688
 30
0.0
 10
-16.0706
 20
21.6688
 30
0.0
  0
SPLINE
  5
132
330
1F
100
AcDbEntity
  8
ROUND
100
AcDbSpline
210
0.0
220
0.0
230
1.0
 70
    24
 71
     3
 72
     8
 73
     4
 74
     0
 42
0.0000000001
 43
0.0000000001
 40
0.0
 40
0.0
 40
0.0
 40
0.0
 40
1.0
 40
1.0
 40
1.0
 40
1.0
 10
-14.7595
 20
21.7836
 30
0.0
 10
-14.7595
 20
21.7836
 30
0.0
 10
-14.7595
 20
8.0124
 30
0.0
 10
-14.7595
 20
8.0124
 30
0.0
  0
SPLINE
  5
133
330
1F
100
AcDbEntity
  8
ROUND
100
AcDbSpline
210
0.0
220
0.0
230
1.0
 70
     8
 71
     3
 72
    16
 73
    12
 74
     0
 42
0.0000000001
 43
0.0000000001
 40
0.0
 40
0.0
 40
0.0
 40
0.0
 40
0.25
 40
0.25
 40
0.25
 40
0.25
 40
0.5
 40
0.5
 40
0.5
 40
0.5
 40
1.0
 40
1.0
 40
1.0
 40
1.0
 10
-14.2266
 20
6.5618
 30
0.0
 10
-14.1547
 20
6.7936
 30
0.0
 10
-14.2784
 20
7.0593
 30
0.0
 10
-14.4836
 20
7.1782
 30
0.0
 10
-14.4836
 20
7.1782
 30
0.0
 10
-14.5963
 20
7.2432
 30
0.0
 10
-14.6342
 20
7.2357
 30
0.0
 10
-14.7595
 20
7.2519
 30
0.0
 10
-14.7595
 20
7.2519
 30
0.0
 10
-14.8072
 20
7.2488
 30
0.0
 10
-14.8518
 20
7.2483
 30
0.0
 10
-14.8987
 20
7.2339
 30
0.0
  0
SPLINE
  5
134
330
1F
100
AcDbEntity
  8
ROUND
100
AcDbSpline
210
0.0
220
0.0
230
1.0
 70
     8
 71
     3
 72
     8
 73
     4
 74
     0
 42
0.0000000001
 43
0.0000000001
 40
0.0
 40
0.0
 40
0.0
 40
0.0
 40
1.0
 40
1.0
 40
1.0
 40
1.0
 10
-14.8987
 20
6.1687
 30
0.0
 10
-14.5123
 20
6.0485
 30
0.0
 10
-14.1063
 20
6.4543
 30
0.0
 10
-14.2266
 20
6.8405
 30
0.0
  0
SPLINE
  5
135
330
1F
100
AcDbEntity
  8
ROUND
100
AcDbSpline
210
0.0
220
0.0
230
1.0
 70
     8
 71
     3
 72
     8
 73
     4
 74
     0
 42
0.0000000001
 43
0.0000000001
 40
0.0
 40
0.0
 40
0.0
 40
0.0
 40
1.0
 40
1.0
 40
1.0
 40
1.0
 10
-15.2919
 20
6.8405
 30
0.0
 10
-15.412
 20
6.4543
 30
0.0
 10
-15.006
 20
6.048
 30
0.0
 10
-14.6201
 20
6.1687
 30
0.0
  0
SPLINE
  5
136
330
1F
100
AcDbEntity
  8
ROUND
100
AcDbSpline
210
0.0
220
0.0
230
1.0
 70
     8
 71
     3
 72
    16
 73
    12
 74
     0
 42
0.0000000001
 43
0.0000000001
 40
0.0
 40
0.0
 40
0.0
 40
0.0
 40
0.25
 40
0.25
 40
0.25
 40
0.25
 40
0.5
 40
0.5
 40
0.5
 40
0.5
 40
1.0
 40
1.0
 40
1.0
 40
1.0
 10
-14.6201
 20
7.2339
 30
0.0
 10
-14.6665
 20
7.2483
 30
0.0
 10
-14.711
 20
7.2488
 30
0.0
 10
-14.7595
 20
7.2519
 30
0.0
 10
-14.7595
 20
7.2519
 30
0.0
 10
-14.8845
 20
7.2357
 30
0.0
 10
-14.9225
 20
7.2432
 30
0.0
 10
-15.0346
 20
7.1782
 30
0.0
 10
-15.0346
 20
7.1782
 30
0.0
 10
-15.2403
 20
7.0593
 30
0.0
 10
-15.3643
 20
6.7936
 30
0.0
 10
-15.2919
 20
6.5618
 30
0.0
  0
SPLINE
  5
137
330
1F
100
AcDbEntity
  8
ROUND
100
AcDbSpline
210
0.0
220
0.0
230
1.0
 70
     8
 71
     3
 72
    28
 73
    24
 74
     0
 42
0.0000000001
 43
0.0000000001
 40
0.0
 40
0.0
 40
0.0
 40
0.0
 40
0.1428571428571428
 40
0.1428571428571428
 40
0.1428571428571428
 40
0.1428571428571428
 40
0.2857142857142857
 40
0.2857142857142857
 40
0.2857142857142857
 40
0.2857142857142857
 40
0.4285714285714285
 40
0.4285714285714285
 40
0.4285714285714285
 40
0.4285714285714285
 40
0.5714285714285714
 40
0.5714285714285714
 40
0.5714285714285714
 40
0.5714285714285714
 40
0.7142857142857143
 40
0.7142857142857143
 40
0.7142857142857143
 40
0.7142857142857143
 40
1.0
 40
1.0
 40
1.0
 40
1.0
 10
-16.0706
 20
21.6688
 30
0.0
 10
-16.0706
 20
21.6688
 30
0.0
 10
-15.5484
 20
21.7147
 30
0.0
 10
-15.5484
 20
21.7147
 30
0.0
 10
-15.5484
 20
21.7147
 30
0.0
 10
-15.5484
 20
21.7147
 30
0.0
 10
-15.2818
 20
21.7382
 30
0.0
 10
-15.2818
 20
21.7382
 30
0.0
 10
-15.2818
 20
21.7382
 30
0.0
 10
-15.2818
 20
21.7382
 30
0.0
 10
-14.7595
 20
21.7836
 30
0.0
 10
-14.7595
 20
21.7836
 30
0.0
 10
-14.7595
 20
21.7836
 30
0.0
 10
-14.7595
 20
21.7836
 30
0.0
 10
-14.2369
 20
21.7382
 30
0.0
 10
-14.2369
 20
21.7382
 30
0.0
 10
-14.2369
 20
21.7382
 30
0.0
 10
-14.2369
 20
21.7382
 30
0.0
 10
-13.9706
 20
21.7147
 30
0.0
 10
-13.9706
 20
21.7147
 30
0.0
 10
-13.9706
 20
21.7147
 30
0.0
 10
-13.9706
 20
21.7147
 30
0.0
 10
-13.4475
 20
21.6688
 30
0.0
 10
-13.4475
 20
21.6688
 30
0.0
  0
SPLINE
  5
138
330
1F
100
AcDbEntity
  8
ROUND
100
AcDbSpline
210
0.0
220
0.0
230
1.0
 70
    11
 71
     3
 72
    28
 73
    24
 74
     0
 42
0.0000000001
 43
0.0000000001
 40
0.0
 40
0.0
 40
0.0
 40
0.0
 40
0.1428571428571428
 40
0.1428571428571428
 40
0.1428571428571428
 40
0.1428571428571428
 40
0.2857142857142857
 40
0.2857142857142857
 40
0.2857142857142857
 40
0.2857142857142857
 40
0.4285714285714285
 40
0.4285714285714285
 40
0.4285714285714285
 40
0.4285714285714285
 40
0.5714285714285714
 40
0.5714285714285714
 40
0.5714285714285714
 40
0.5714285714285714
 40
0.7142857142857143
 40
0.7142857142857143
 40
0.7142857142857143
 40
0.7142857142857143
 40
1.0
 40
1.0
 40
1.0
 40
1.0
 10
-15.179
 20
6.701
 30
0.0
 10
-15.1746
 20
6.7814
 30
0.0
 10
-15.1578
 20
6.8554
 30
0.0
 10
-15.1145
 20
6.9243
 30
0.0
 10
-15.1145
 20
6.9243
 30
0.0
 10
-15.081
 20
6.9779
 30
0.0
 10
-15.0359
 20
7.0232
 30
0.0
 10
-14.9825
 20
7.0563
 30
0.0
 10
-14.9825
 20
7.0563
 30
0.0
 10
-14.9291
 20
7.0897
 30
0.0
 10
-14.8685
 20
7.1114
 30
0.0
 10
-14.8064
 20
7.1182
 30
0.0
 10
-14.8064
 20
7.1182
 30
0.0
 10
-14.3741
 20
7.1671
 30
0.0
 10
-14.1676
 20
6.577
 30
0.0
 10
-14.5362
 20
6.346
 30
0.0
 10
-14.5362
 20
6.346
 30
0.0
 10
-14.6051
 20
6.3025
 30
0.0
 10
-14.6788
 20
6.286
 30
0.0
 10
-14.7595
 20
6.2816
 30
0.0
 10
-14.7595
 20
6.2816
 30
0.0
 10
-14.9974
 20
6.2949
 30
0.0
 10
-15.1658
 20
6.463
 30
0.0
 10
-15.179
 20
6.701
 30
0.0
  0
SPLINE
  5
139
330
1F
100
AcDbEntity
  8
ROUND
100
AcDbSpline
210
0.0
220
0.0
230
1.0
 70
    24
 71
     3
 72
     8
 73
     4
 74
     0
 42
0.0000000001
 43
0.0000000001
 40
0.0
 40
0.0
 40
0.0
 40
0.0
 40
1.0
 40
1.0
 40
1.0
 40
1.0
 10
10.8788
 20
2.2421
 30
0.0
 10
10.8788
 20
2.2421
 30
0.0
 10
12.6496
 20
-10.3485
 30
0.0
 10
12.6496
 20
-10.3485
 30
0.0
  0
SPLINE
  5
13A
330
1F
100
AcDbEntity
  8
ROUND
100
AcDbSpline
210
0.0
220
0.0
230
1.0
 70
    24
 71
     3
 72
     8
 73
     4
 74
     0
 42
0.0000000001
 43
0.0000000001
 40
0.0
 40
0.0
 40
0.0
 40
0.0
 40
1.0
 40
1.0
 40
1.0
 40
1.0
 10
12.6422
 20
-10.3485
 30
0.0
 10
12.6422
 20
-10.3485
 30
0.0
 10
13.7659
 20
-10.3485
 30
0.0
 10
13.7659
 20
-10.3485
 30
0.0
  0
SPLINE
  5
13B
330
1F
100
AcDbEntity
  8
ROUND
100
AcDbSpline
210
0.0
220
0.0
230
1.0
 70
    24
 71
     3
 72
     8
 73
     4
 74
     0
 42
0.0000000001
 43
0.0000000001
 40
0.0
 40
0.0
 40
0.0
 40
0.0
 40
1.0
 40
1.0
 40
1.0
 40
1.0
 10
17.4852
 20
-10.3485
 30
0.0
 10
17.4852
 20
-10.3485
 30
0.0
 10
14.4788
 20
-10.3485
 30
0.0
 10
14.4788
 20
-10.3485
 30
0.0
  0
SPLINE
  5
13C
330
1F
100
AcDbEntity
  8
ROUND
100
AcDbSpline
210
0.0
220
0.0
230
1.0
 70
    24
 71
     3
 72
     8
 73
     4
 74
     0
 42
0.0000000001
 43
0.0000000001
 40
0.0
 40
0.0
 40
0.0
 40
0.0
 40
1.0
 40
1.0
 40
1.0
 40
1.0
 10
13.9118
 20
-10.3485
 30
0.0
 10
13.9118
 20
-10.3485
 30
0.0
 10
12.3787
 20
2.2421
 30
0.0
 10
12.3787
 20
2.2421
 30
0.0
  0
SPLINE
  5
13D
330
1F
100
AcDbEntity
  8
ROUND
100
AcDbSpline
210
0.0
220
0.0
230
1.0
 70
    24
 71
     3
 72
     8
 73
     4
 74
     0
 42
0.0000000001
 43
0.0000000001
 40
0.0
 40
0.0
 40
0.0
 40
0.0
 40
1.0
 40
1.0
 40
1.0
 40
1.0
 10
7.8015
 20
8.0124
 30
0.0
 10
7.8015
 20
8.0124
 30
0.0
 10
39.278
 20
8.0124
 30
0.0
 10
39.278
 20
8.0124
 30
0.0
  0
SPLINE
  5
13E
330
1F
100
AcDbEntity
  8
ROUND
100
AcDbSpline
210
0.0
220
0.0
230
1.0
 70
    24
 71
     3
 72
     8
 73
     4
 74
     0
 42
0.0000000001
 43
0.0000000001
 40
0.0
 40
0.0
 40
0.0
 40
0.0
 40
1.0
 40
1.0
 40
1.0
 40
1.0
 10
34.7008
 20
2.2421
 30
0.0
 10
34.7008
 20
2.2421
 30
0.0
 10
33.1671
 20
-10.3485
 30
0.0
 10
33.1671
 20
-10.3485
 30
0.0
  0
SPLINE
  5
13F
330
1F
100
AcDbEntity
  8
ROUND
100
AcDbSpline
210
0.0
220
0.0
230
1.0
 70
    24
 71
     3
 72
     8
 73
     4
 74
     0
 42
0.0000000001
 43
0.0000000001
 40
0.0
 40
0.0
 40
0.0
 40
0.0
 40
1.0
 40
1.0
 40
1.0
 40
1.0
 10
33.3133
 20
-10.3485
 30
0.0
 10
33.3133
 20
-10.3485
 30
0.0
 10
34.4371
 20
-10.3485
 30
0.0
 10
34.4371
 20
-10.3485
 30
0.0
  0
SPLINE
  5
140
330
1F
100
AcDbEntity
  8
ROUND
100
AcDbSpline
210
0.0
220
0.0
230
1.0
 70
    24
 71
     3
 72
     8
 73
     4
 74
     0
 42
0.0000000001
 43
0.0000000001
 40
0.0
 40
0.0
 40
0.0
 40
0.0
 40
1.0
 40
1.0
 40
1.0
 40
1.0
 10
34.4298
 20
-10.3485
 30
0.0
 10
34.4298
 20
-10.3485
 30
0.0
 10
36.2004
 20
2.2421
 30
0.0
 10
36.2004
 20
2.2421
 30
0.0
  0
SPLINE
  5
141
330
1F
100
AcDbEntity
  8
ROUND
100
AcDbSpline
210
0.0
220
0.0
230
1.0
 70
    24
 71
     3
 72
     8
 73
     4
 74
     0
 42
0.0000000001
 43
0.0000000001
 40
0.0
 40
0.0
 40
0.0
 40
0.0
 40
1.0
 40
1.0
 40
1.0
 40
1.0
 10
33.0362
 20
-13.4957
 30
0.0
 10
33.0362
 20
-13.4957
 30
0.0
 10
34.2927
 20
-13.4957
 30
0.0
 10
34.2927
 20
-13.4957
 30
0.0
  0
SPLINE
  5
142
330
1F
100
AcDbEntity
  8
ROUND
100
AcDbSpline
210
0.0
220
0.0
230
1.0
 70
    24
 71
     3
 72
     8
 73
     4
 74
     0
 42
0.0000000001
 43
0.0000000001
 40
0.0
 40
0.0
 40
0.0
 40
0.0
 40
1.0
 40
1.0
 40
1.0
 40
1.0
 10
34.2561
 20
-13.4957
 30
0.0
 10
34.2561
 20
-13.4957
 30
0.0
 10
33.6315
 20
-13.4957
 30
0.0
 10
33.6315
 20
-13.4957
 30
0.0
  0
SPLINE
  5
143
330
1F
100
AcDbEntity
  8
ROUND
100
AcDbSpline
210
0.0
220
0.0
230
1.0
 70
    24
 71
     3
 72
     8
 73
     4
 74
     0
 42
0.0000000001
 43
0.0000000001
 40
0.0
 40
0.0
 40
0.0
 40
0.0
 40
1.0
 40
1.0
 40
1.0
 40
1.0
 10
32.1267
 20
-13.4957
 30
0.0
 10
32.1267
 20
-13.4957
 30
0.0
 10
34.0014
 20
-13.4957
 30
0.0
 10
34.0014
 20
-13.4957
 30
0.0
  0
SPLINE
  5
144
330
1F
100
AcDbEntity
  8
ROUND
100
AcDbSpline
210
0.0
220
0.0
230
1.0
 70
    24
 71
     3
 72
     8
 73
     4
 74
     0
 42
0.0000000001
 43
0.0000000001
 40
0.0
 40
0.0
 40
0.0
 40
0.0
 40
1.0
 40
1.0
 40
1.0
 40
1.0
 10
33.4997
 20
-13.4957
 30
0.0
 10
33.4997
 20
-13.4957
 30
0.0
 10
33.7126
 20
-13.4957
 30
0.0
 10
33.7126
 20
-13.4957
 30
0.0
  0
SPLINE
  5
145
330
1F
100
AcDbEntity
  8
ROUND
100
AcDbSpline
210
0.0
220
0.0
230
1.0
 70
    24
 71
     3
 72
     8
 73
     4
 74
     0
 42
0.0000000001
 43
0.0000000001
 40
0.0
 40
0.0
 40
0.0
 40
0.0
 40
1.0
 40
1.0
 40
1.0
 40
1.0
 10
33.4997
 20
-13.4957
 30
0.0
 10
33.4997
 20
-13.4957
 30
0.0
 10
33.8689
 20
-13.4957
 30
0.0
 10
33.8689
 20
-13.4957
 30
0.0
  0
SPLINE
  5
146
330
1F
100
AcDbEntity
  8
ROUND
100
AcDbSpline
210
0.0
220
0.0
230
1.0
 70
    24
 71
     3
 72
     8
 73
     4
 74
     0
 42
0.0000000001
 43
0.0000000001
 40
0.0
 40
0.0
 40
0.0
 40
0.0
 40
1.0
 40
1.0
 40
1.0
 40
1.0
 10
33.7423
 20
-13.4957
 30
0.0
 10
33.7423
 20
-13.4957
 30
0.0
 10
34.0014
 20
-13.4957
 30
0.0
 10
34.0014
 20
-13.4957
 30
0.0
  0
SPLINE
  5
147
330
1F
100
AcDbEntity
  8
ROUND
100
AcDbSpline
210
0.0
220
0.0
230
1.0
 70
    24
 71
     3
 72
     8
 73
     4
 74
     0
 42
0.0000000001
 43
0.0000000001
 40
0.0
 40
0.0
 40
0.0
 40
0.0
 40
1.0
 40
1.0
 40
1.0
 40
1.0
 10
33.7423
 20
-13.4957
 30
0.0
 10
33.7423
 20
-13.4957
 30
0.0
 10
34.1102
 20
-13.4957
 30
0.0
 10
34.1102
 20
-13.4957
 30
0.0
  0
SPLINE
  5
148
330
1F
100
AcDbEntity
  8
ROUND
100
AcDbSpline
210
0.0
220
0.0
230
1.0
 70
    24
 71
     3
 72
     8
 73
     4
 74
     0
 42
0.0000000001
 43
0.0000000001
 40
0.0
 40
0.0
 40
0.0
 40
0.0
 40
1.0
 40
1.0
 40
1.0
 40
1.0
 10
33.6315
 20
-13.4957
 30
0.0
 10
33.6315
 20
-13.4957
 30
0.0
 10
33.8707
 20
-13.4957
 30
0.0
 10
33.8707
 20
-13.4957
 30
0.0
  0
SPLINE
  5
149
330
1F
100
AcDbEntity
  8
ROUND
100
AcDbSpline
210
0.0
220
0.0
230
1.0
 70
    24
 71
     3
 72
     8
 73
     4
 74
     0
 42
0.0000000001
 43
0.0000000001
 40
0.0
 40
0.0
 40
0.0
 40
0.0
 40
1.0
 40
1.0
 40
1.0
 40
1.0
 10
33.3319
 20
-13.4957
 30
0.0
 10
33.3319
 20
-13.4957
 30
0.0
 10
32.7843
 20
-13.4957
 30
0.0
 10
32.7843
 20
-13.4957
 30
0.0
  0
SPLINE
  5
14A
330
1F
100
AcDbEntity
  8
ROUND
100
AcDbSpline
210
0.0
220
0.0
230
1.0
 70
    24
 71
     3
 72
     8
 73
     4
 74
     0
 42
0.0000000001
 43
0.0000000001
 40
0.0
 40
0.0
 40
0.0
 40
0.0
 40
1.0
 40
1.0
 40
1.0
 40
1.0
 10
31.8514
 20
-13.4957
 30
0.0
 10
31.8514
 20
-13.4957
 30
0.0
 10
33.1081
 20
-13.4957
 30
0.0
 10
33.1081
 20
-13.4957
 30
0.0
  0
SPLINE
  5
14B
330
1F
100
AcDbEntity
  8
ROUND
100
AcDbSpline
210
0.0
220
0.0
230
1.0
 70
    24
 71
     3
 72
     8
 73
     4
 74
     0
 42
0.0000000001
 43
0.0000000001
 40
0.0
 40
0.0
 40
0.0
 40
0.0
 40
1.0
 40
1.0
 40
1.0
 40
1.0
 10
34.195
 20
-13.4957
 30
0.0
 10
34.195
 20
-13.4957
 30
0.0
 10
33.8328
 20
-13.4957
 30
0.0
 10
33.8328
 20
-13.4957
 30
0.0
  0
SPLINE
  5
14C
330
1F
100
AcDbEntity
  8
ROUND
100
AcDbSpline
210
0.0
220
0.0
230
1.0
 70
    24
 71
     3
 72
     8
 73
     4
 74
     0
 42
0.0000000001
 43
0.0000000001
 40
0.0
 40
0.0
 40
0.0
 40
0.0
 40
1.0
 40
1.0
 40
1.0
 40
1.0
 10
32.7843
 20
-13.4957
 30
0.0
 10
32.7843
 20
-13.4957
 30
0.0
 10
32.8625
 20
-13.4957
 30
0.0
 10
32.8625
 20
-13.4957
 30
0.0
  0
SPLINE
  5
14D
330
1F
100
AcDbEntity
  8
ROUND
100
AcDbSpline
210
0.0
220
0.0
230
1.0
 70
    24
 71
     3
 72
     8
 73
     4
 74
     0
 42
0.0000000001
 43
0.0000000001
 40
0.0
 40
0.0
 40
0.0
 40
0.0
 40
1.0
 40
1.0
 40
1.0
 40
1.0
 10
33.8328
 20
-13.4957
 30
0.0
 10
33.8328
 20
-13.4957
 30
0.0
 10
34.1102
 20
-13.4957
 30
0.0
 10
34.1102
 20
-13.4957
 30
0.0
  0
SPLINE
  5
14E
330
1F
100
AcDbEntity
  8
ROUND
100
AcDbSpline
210
0.0
220
0.0
230
1.0
 70
    24
 71
     3
 72
     8
 73
     4
 74
     0
 42
0.0000000001
 43
0.0000000001
 40
0.0
 40
0.0
 40
0.0
 40
0.0
 40
1.0
 40
1.0
 40
1.0
 40
1.0
 10
33.1081
 20
-13.4957
 30
0.0
 10
33.1081
 20
-13.4957
 30
0.0
 10
32.9872
 20
-13.4957
 30
0.0
 10
32.9872
 20
-13.4957
 30
0.0
  0
SPLINE
  5
14F
330
1F
100
AcDbEntity
  8
ROUND
100
AcDbSpline
210
0.0
220
0.0
230
1.0
 70
    24
 71
     3
 72
     8
 73
     4
 74
     0
 42
0.0000000001
 43
0.0000000001
 40
0.0
 40
0.0
 40
0.0
 40
0.0
 40
1.0
 40
1.0
 40
1.0
 40
1.0
 10
31.559
 20
-13.4957
 30
0.0
 10
31.559
 20
-13.4957
 30
0.0
 10
32.0016
 20
-13.4957
 30
0.0
 10
32.0016
 20
-13.4957
 30
0.0
  0
SPLINE
  5
150
330
1F
100
AcDbEntity
  8
ROUND
100
AcDbSpline
210
0.0
220
0.0
230
1.0
 70
    24
 71
     3
 72
     8
 73
     4
 74
     0
 42
0.0000000001
 43
0.0000000001
 40
0.0
 40
0.0
 40
0.0
 40
0.0
 40
1.0
 40
1.0
 40
1.0
 40
1.0
 10
33.7126
 20
-13.4957
 30
0.0
 10
33.7126
 20
-13.4957
 30
0.0
 10
33.3486
 20
-13.4957
 30
0.0
 10
33.3486
 20
-13.4957
 30
0.0
  0
SPLINE
  5
151
330
1F
100
AcDbEntity
  8
ROUND
100
AcDbSpline
210
0.0
220
0.0
230
1.0
 70
    24
 71
     3
 72
     8
 73
     4
 74
     0
 42
0.0000000001
 43
0.0000000001
 40
0.0
 40
0.0
 40
0.0
 40
0.0
 40
1.0
 40
1.0
 40
1.0
 40
1.0
 10
32.5959
 20
-13.4957
 30
0.0
 10
32.5959
 20
-13.4957
 30
0.0
 10
28.0009
 20
-13.4957
 30
0.0
 10
28.0009
 20
-13.4957
 30
0.0
  0
SPLINE
  5
152
330
1F
100
AcDbEntity
  8
ROUND
100
AcDbSpline
210
0.0
220
0.0
230
1.0
 70
    24
 71
     3
 72
     8
 73
     4
 74
     0
 42
0.0000000001
 43
0.0000000001
 40
0.0
 40
0.0
 40
0.0
 40
0.0
 40
1.0
 40
1.0
 40
1.0
 40
1.0
 10
30.5892
 20
-13.4957
 30
0.0
 10
30.5892
 20
-13.4957
 30
0.0
 10
28.4197
 20
-13.4957
 30
0.0
 10
28.4197
 20
-13.4957
 30
0.0
  0
SPLINE
  5
153
330
1F
100
AcDbEntity
  8
ROUND
100
AcDbSpline
210
0.0
220
0.0
230
1.0
 70
    24
 71
     3
 72
     8
 73
     4
 74
     0
 42
0.0000000001
 43
0.0000000001
 40
0.0
 40
0.0
 40
0.0
 40
0.0
 40
1.0
 40
1.0
 40
1.0
 40
1.0
 10
29.4909
 20
-13.4957
 30
0.0
 10
29.4909
 20
-13.4957
 30
0.0
 10
28.767
 20
-13.4957
 30
0.0
 10
28.767
 20
-13.4957
 30
0.0
  0
SPLINE
  5
154
330
1F
100
AcDbEntity
  8
ROUND
100
AcDbSpline
210
0.0
220
0.0
230
1.0
 70
    24
 71
     3
 72
     8
 73
     4
 74
     0
 42
0.0000000001
 43
0.0000000001
 40
0.0
 40
0.0
 40
0.0
 40
0.0
 40
1.0
 40
1.0
 40
1.0
 40
1.0
 10
24.5164
 20
-13.4957
 30
0.0
 10
24.5164
 20
-13.4957
 30
0.0
 10
28.4724
 20
-13.4957
 30
0.0
 10
28.4724
 20
-13.4957
 30
0.0
  0
SPLINE
  5
155
330
1F
100
AcDbEntity
  8
ROUND
100
AcDbSpline
210
0.0
220
0.0
230
1.0
 70
    24
 71
     3
 72
     8
 73
     4
 74
     0
 42
0.0000000001
 43
0.0000000001
 40
0.0
 40
0.0
 40
0.0
 40
0.0
 40
1.0
 40
1.0
 40
1.0
 40
1.0
 10
28.0117
 20
-13.4957
 30
0.0
 10
28.0117
 20
-13.4957
 30
0.0
 10
19.0678
 20
-13.4957
 30
0.0
 10
19.0678
 20
-13.4957
 30
0.0
  0
SPLINE
  5
156
330
1F
100
AcDbEntity
  8
ROUND
100
AcDbSpline
210
0.0
220
0.0
230
1.0
 70
    24
 71
     3
 72
     8
 73
     4
 74
     0
 42
0.0000000001
 43
0.0000000001
 40
0.0
 40
0.0
 40
0.0
 40
0.0
 40
1.0
 40
1.0
 40
1.0
 40
1.0
 10
23.9327
 20
-25.2478
 30
0.0
 10
23.9327
 20
-25.2478
 30
0.0
 10
24.2447
 20
-25.2478
 30
0.0
 10
24.2447
 20
-25.2478
 30
0.0
  0
SPLINE
  5
157
330
1F
100
AcDbEntity
  8
ROUND
100
AcDbSpline
210
0.0
220
0.0
230
1.0
 70
    24
 71
     3
 72
     8
 73
     4
 74
     0
 42
0.0000000001
 43
0.0000000001
 40
0.0
 40
0.0
 40
0.0
 40
0.0
 40
1.0
 40
1.0
 40
1.0
 40
1.0
 10
24.3757
 20
-25.2478
 30
0.0
 10
24.3757
 20
-25.2478
 30
0.0
 10
24.7201
 20
-25.2478
 30
0.0
 10
24.7201
 20
-25.2478
 30
0.0
  0
SPLINE
  5
158
330
1F
100
AcDbEntity
  8
ROUND
100
AcDbSpline
210
0.0
220
0.0
230
1.0
 70
    24
 71
     3
 72
     8
 73
     4
 74
     0
 42
0.0000000001
 43
0.0000000001
 40
0.0
 40
0.0
 40
0.0
 40
0.0
 40
1.0
 40
1.0
 40
1.0
 40
1.0
 10
32.1267
 20
-13.4957
 30
0.0
 10
32.1267
 20
-13.4957
 30
0.0
 10
32.3087
 20
-13.4957
 30
0.0
 10
32.3087
 20
-13.4957
 30
0.0
  0
SPLINE
  5
159
330
1F
100
AcDbEntity
  8
ROUND
100
AcDbSpline
210
0.0
220
0.0
230
1.0
 70
    24
 71
     3
 72
     8
 73
     4
 74
     0
 42
0.0000000001
 43
0.0000000001
 40
0.0
 40
0.0
 40
0.0
 40
0.0
 40
1.0
 40
1.0
 40
1.0
 40
1.0
 10
33.5335
 20
-13.4957
 30
0.0
 10
33.5335
 20
-13.4957
 30
0.0
 10
33.1775
 20
-13.4957
 30
0.0
 10
33.1775
 20
-13.4957
 30
0.0
  0
SPLINE
  5
15A
330
1F
100
AcDbEntity
  8
ROUND
100
AcDbSpline
210
0.0
220
0.0
230
1.0
 70
    24
 71
     3
 72
     8
 73
     4
 74
     0
 42
0.0000000001
 43
0.0000000001
 40
0.0
 40
0.0
 40
0.0
 40
0.0
 40
1.0
 40
1.0
 40
1.0
 40
1.0
 10
32.3087
 20
-13.4957
 30
0.0
 10
32.3087
 20
-13.4957
 30
0.0
 10
31.8514
 20
-13.4957
 30
0.0
 10
31.8514
 20
-13.4957
 30
0.0
  0
SPLINE
  5
15B
330
1F
100
AcDbEntity
  8
ROUND
100
AcDbSpline
210
0.0
220
0.0
230
1.0
 70
    24
 71
     3
 72
     8
 73
     4
 74
     0
 42
0.0000000001
 43
0.0000000001
 40
0.0
 40
0.0
 40
0.0
 40
0.0
 40
1.0
 40
1.0
 40
1.0
 40
1.0
 10
31.6753
 20
-13.4957
 30
0.0
 10
31.6753
 20
-13.4957
 30
0.0
 10
29.5866
 20
-13.4957
 30
0.0
 10
29.5866
 20
-13.4957
 30
0.0
  0
SPLINE
  5
15C
330
1F
100
AcDbEntity
  8
ROUND
100
AcDbSpline
210
0.0
220
0.0
230
1.0
 70
    24
 71
     3
 72
     8
 73
     4
 74
     0
 42
0.0000000001
 43
0.0000000001
 40
0.0
 40
0.0
 40
0.0
 40
0.0
 40
1.0
 40
1.0
 40
1.0
 40
1.0
 10
28.4234
 20
-13.4957
 30
0.0
 10
28.4234
 20
-13.4957
 30
0.0
 10
28.9222
 20
-13.4957
 30
0.0
 10
28.9222
 20
-13.4957
 30
0.0
  0
SPLINE
  5
15D
330
1F
100
AcDbEntity
  8
ROUND
100
AcDbSpline
210
0.0
220
0.0
230
1.0
 70
    24
 71
     3
 72
     8
 73
     4
 74
     0
 42
0.0000000001
 43
0.0000000001
 40
0.0
 40
0.0
 40
0.0
 40
0.0
 40
1.0
 40
1.0
 40
1.0
 40
1.0
 10
28.0009
 20
-13.4957
 30
0.0
 10
28.0009
 20
-13.4957
 30
0.0
 10
28.0117
 20
-13.4957
 30
0.0
 10
28.0117
 20
-13.4957
 30
0.0
  0
SPLINE
  5
15E
330
1F
100
AcDbEntity
  8
ROUND
100
AcDbSpline
210
0.0
220
0.0
230
1.0
 70
    24
 71
     3
 72
     8
 73
     4
 74
     0
 42
0.0000000001
 43
0.0000000001
 40
0.0
 40
0.0
 40
0.0
 40
0.0
 40
1.0
 40
1.0
 40
1.0
 40
1.0
 10
28.0009
 20
-13.4957
 30
0.0
 10
28.0009
 20
-13.4957
 30
0.0
 10
28.4724
 20
-13.4957
 30
0.0
 10
28.4724
 20
-13.4957
 30
0.0
  0
SPLINE
  5
15F
330
1F
100
AcDbEntity
  8
ROUND
100
AcDbSpline
210
0.0
220
0.0
230
1.0
 70
    24
 71
     3
 72
     8
 73
     4
 74
     0
 42
0.0000000001
 43
0.0000000001
 40
0.0
 40
0.0
 40
0.0
 40
0.0
 40
1.0
 40
1.0
 40
1.0
 40
1.0
 10
30.9681
 20
-13.4957
 30
0.0
 10
30.9681
 20
-13.4957
 30
0.0
 10
30.9274
 20
-13.4957
 30
0.0
 10
30.9274
 20
-13.4957
 30
0.0
  0
SPLINE
  5
160
330
1F
100
AcDbEntity
  8
ROUND
100
AcDbSpline
210
0.0
220
0.0
230
1.0
 70
    24
 71
     3
 72
     8
 73
     4
 74
     0
 42
0.0000000001
 43
0.0000000001
 40
0.0
 40
0.0
 40
0.0
 40
0.0
 40
1.0
 40
1.0
 40
1.0
 40
1.0
 10
32.5959
 20
-13.4957
 30
0.0
 10
32.5959
 20
-13.4957
 30
0.0
 10
32.1267
 20
-13.4957
 30
0.0
 10
32.1267
 20
-13.4957
 30
0.0
  0
SPLINE
  5
161
330
1F
100
AcDbEntity
  8
ROUND
100
AcDbSpline
210
0.0
220
0.0
230
1.0
 70
    24
 71
     3
 72
     8
 73
     4
 74
     0
 42
0.0000000001
 43
0.0000000001
 40
0.0
 40
0.0
 40
0.0
 40
0.0
 40
1.0
 40
1.0
 40
1.0
 40
1.0
 10
31.2512
 20
-13.4957
 30
0.0
 10
31.2512
 20
-13.4957
 30
0.0
 10
31.3308
 20
-13.4957
 30
0.0
 10
31.3308
 20
-13.4957
 30
0.0
  0
SPLINE
  5
162
330
1F
100
AcDbEntity
  8
ROUND
100
AcDbSpline
210
0.0
220
0.0
230
1.0
 70
    24
 71
     3
 72
     8
 73
     4
 74
     0
 42
0.0000000001
 43
0.0000000001
 40
0.0
 40
0.0
 40
0.0
 40
0.0
 40
1.0
 40
1.0
 40
1.0
 40
1.0
 10
32.0016
 20
-13.4957
 30
0.0
 10
32.0016
 20
-13.4957
 30
0.0
 10
31.559
 20
-13.4957
 30
0.0
 10
31.559
 20
-13.4957
 30
0.0
  0
SPLINE
  5
163
330
1F
100
AcDbEntity
  8
ROUND
100
AcDbSpline
210
0.0
220
0.0
230
1.0
 70
    24
 71
     3
 72
     8
 73
     4
 74
     0
 42
0.0000000001
 43
0.0000000001
 40
0.0
 40
0.0
 40
0.0
 40
0.0
 40
1.0
 40
1.0
 40
1.0
 40
1.0
 10
31.2512
 20
-13.4957
 30
0.0
 10
31.2512
 20
-13.4957
 30
0.0
 10
31.6753
 20
-13.4957
 30
0.0
 10
31.6753
 20
-13.4957
 30
0.0
  0
SPLINE
  5
164
330
1F
100
AcDbEntity
  8
ROUND
100
AcDbSpline
210
0.0
220
0.0
230
1.0
 70
    24
 71
     3
 72
     8
 73
     4
 74
     0
 42
0.0000000001
 43
0.0000000001
 40
0.0
 40
0.0
 40
0.0
 40
0.0
 40
1.0
 40
1.0
 40
1.0
 40
1.0
 10
32.3912
 20
-13.4957
 30
0.0
 10
32.3912
 20
-13.4957
 30
0.0
 10
32.8625
 20
-13.4957
 30
0.0
 10
32.8625
 20
-13.4957
 30
0.0
  0
SPLINE
  5
165
330
1F
100
AcDbEntity
  8
ROUND
100
AcDbSpline
210
0.0
220
0.0
230
1.0
 70
    24
 71
     3
 72
     8
 73
     4
 74
     0
 42
0.0000000001
 43
0.0000000001
 40
0.0
 40
0.0
 40
0.0
 40
0.0
 40
1.0
 40
1.0
 40
1.0
 40
1.0
 10
33.3486
 20
-13.4957
 30
0.0
 10
33.3486
 20
-13.4957
 30
0.0
 10
33.5335
 20
-13.4957
 30
0.0
 10
33.5335
 20
-13.4957
 30
0.0
  0
SPLINE
  5
166
330
1F
100
AcDbEntity
  8
ROUND
100
AcDbSpline
210
0.0
220
0.0
230
1.0
 70
    24
 71
     3
 72
     8
 73
     4
 74
     0
 42
0.0000000001
 43
0.0000000001
 40
0.0
 40
0.0
 40
0.0
 40
0.0
 40
1.0
 40
1.0
 40
1.0
 40
1.0
 10
33.3319
 20
-13.4957
 30
0.0
 10
33.3319
 20
-13.4957
 30
0.0
 10
33.1775
 20
-13.4957
 30
0.0
 10
33.1775
 20
-13.4957
 30
0.0
  0
SPLINE
  5
167
330
1F
100
AcDbEntity
  8
ROUND
100
AcDbSpline
210
0.0
220
0.0
230
1.0
 70
    24
 71
     3
 72
     8
 73
     4
 74
     0
 42
0.0000000001
 43
0.0000000001
 40
0.0
 40
0.0
 40
0.0
 40
0.0
 40
1.0
 40
1.0
 40
1.0
 40
1.0
 10
33.9875
 20
-13.4957
 30
0.0
 10
33.9875
 20
-13.4957
 30
0.0
 10
32.5343
 20
-23.8271
 30
0.0
 10
32.5343
 20
-23.8271
 30
0.0
  0
SPLINE
  5
168
330
1F
100
AcDbEntity
  8
ROUND
100
AcDbSpline
210
0.0
220
0.0
230
1.0
 70
    24
 71
     3
 72
     8
 73
     4
 74
     0
 42
0.0000000001
 43
0.0000000001
 40
0.0
 40
0.0
 40
0.0
 40
0.0
 40
1.0
 40
1.0
 40
1.0
 40
1.0
 10
30.3079
 20
-26.0596
 30
0.0
 10
30.3079
 20
-26.0596
 30
0.0
 10
30.3845
 20
-26.0501
 30
0.0
 10
30.3845
 20
-26.0501
 30
0.0
  0
SPLINE
  5
169
330
1F
100
AcDbEntity
  8
ROUND
100
AcDbSpline
210
0.0
220
0.0
230
1.0
 70
    24
 71
     3
 72
     8
 73
     4
 74
     0
 42
0.0000000001
 43
0.0000000001
 40
0.0
 40
0.0
 40
0.0
 40
0.0
 40
1.0
 40
1.0
 40
1.0
 40
1.0
 10
30.2868
 20
-26.0629
 30
0.0
 10
30.2868
 20
-26.0629
 30
0.0
 10
30.3845
 20
-26.0501
 30
0.0
 10
30.3845
 20
-26.0501
 30
0.0
  0
SPLINE
  5
16A
330
1F
100
AcDbEntity
  8
ROUND
100
AcDbSpline
210
0.0
220
0.0
230
1.0
 70
    24
 71
     3
 72
     8
 73
     4
 74
     0
 42
0.0000000001
 43
0.0000000001
 40
0.0
 40
0.0
 40
0.0
 40
0.0
 40
1.0
 40
1.0
 40
1.0
 40
1.0
 10
33.9029
 20
-13.4957
 30
0.0
 10
33.9029
 20
-13.4957
 30
0.0
 10
34.195
 20
-13.4957
 30
0.0
 10
34.195
 20
-13.4957
 30
0.0
  0
SPLINE
  5
16B
330
1F
100
AcDbEntity
  8
ROUND
100
AcDbSpline
210
0.0
220
0.0
230
1.0
 70
    24
 71
     3
 72
     8
 73
     4
 74
     0
 42
0.0000000001
 43
0.0000000001
 40
0.0
 40
0.0
 40
0.0
 40
0.0
 40
1.0
 40
1.0
 40
1.0
 40
1.0
 10
33.9029
 20
-13.4957
 30
0.0
 10
33.9029
 20
-13.4957
 30
0.0
 10
34.2561
 20
-13.4957
 30
0.0
 10
34.2561
 20
-13.4957
 30
0.0
  0
SPLINE
  5
16C
330
1F
100
AcDbEntity
  8
ROUND
100
AcDbSpline
210
0.0
220
0.0
230
1.0
 70
    24
 71
     3
 72
     8
 73
     4
 74
     0
 42
0.0000000001
 43
0.0000000001
 40
0.0
 40
0.0
 40
0.0
 40
0.0
 40
1.0
 40
1.0
 40
1.0
 40
1.0
 10
22.9005
 20
-25.2478
 30
0.0
 10
22.9005
 20
-25.2478
 30
0.0
 10
23.1465
 20
-25.2478
 30
0.0
 10
23.1465
 20
-25.2478
 30
0.0
  0
SPLINE
  5
16D
330
1F
100
AcDbEntity
  8
ROUND
100
AcDbSpline
210
0.0
220
0.0
230
1.0
 70
    24
 71
     3
 72
     8
 73
     4
 74
     0
 42
0.0000000001
 43
0.0000000001
 40
0.0
 40
0.0
 40
0.0
 40
0.0
 40
1.0
 40
1.0
 40
1.0
 40
1.0
 10
24.3757
 20
-25.2478
 30
0.0
 10
24.3757
 20
-25.2478
 30
0.0
 10
24.3757
 20
-25.3002
 30
0.0
 10
24.3757
 20
-25.3002
 30
0.0
  0
SPLINE
  5
16E
330
1F
100
AcDbEntity
  8
ROUND
100
AcDbSpline
210
0.0
220
0.0
230
1.0
 70
    24
 71
     3
 72
     8
 73
     4
 74
     0
 42
0.0000000001
 43
0.0000000001
 40
0.0
 40
0.0
 40
0.0
 40
0.0
 40
1.0
 40
1.0
 40
1.0
 40
1.0
 10
24.2447
 20
-25.3002
 30
0.0
 10
24.2447
 20
-25.3002
 30
0.0
 10
24.2447
 20
-25.2478
 30
0.0
 10
24.2447
 20
-25.2478
 30
0.0
  0
SPLINE
  5
16F
330
1F
100
AcDbEntity
  8
ROUND
100
AcDbSpline
210
0.0
220
0.0
230
1.0
 70
    24
 71
     3
 72
     8
 73
     4
 74
     0
 42
0.0000000001
 43
0.0000000001
 40
0.0
 40
0.0
 40
0.0
 40
0.0
 40
1.0
 40
1.0
 40
1.0
 40
1.0
 10
24.7201
 20
-25.3002
 30
0.0
 10
24.7201
 20
-25.3002
 30
0.0
 10
24.7201
 20
-25.2478
 30
0.0
 10
24.7201
 20
-25.2478
 30
0.0
  0
SPLINE
  5
170
330
1F
100
AcDbEntity
  8
ROUND
100
AcDbSpline
210
0.0
220
0.0
230
1.0
 70
    24
 71
     3
 72
     8
 73
     4
 74
     0
 42
0.0000000001
 43
0.0000000001
 40
0.0
 40
0.0
 40
0.0
 40
0.0
 40
1.0
 40
1.0
 40
1.0
 40
1.0
 10
21.9841
 20
-25.3002
 30
0.0
 10
21.9841
 20
-25.3002
 30
0.0
 10
23.1465
 20
-25.3002
 30
0.0
 10
23.1465
 20
-25.3002
 30
0.0
  0
SPLINE
  5
171
330
1F
100
AcDbEntity
  8
ROUND
100
AcDbSpline
210
0.0
220
0.0
230
1.0
 70
    24
 71
     3
 72
     8
 73
     4
 74
     0
 42
0.0000000001
 43
0.0000000001
 40
0.0
 40
0.0
 40
0.0
 40
0.0
 40
1.0
 40
1.0
 40
1.0
 40
1.0
 10
22.4249
 20
-25.2478
 30
0.0
 10
22.4249
 20
-25.2478
 30
0.0
 10
22.7691
 20
-25.2478
 30
0.0
 10
22.7691
 20
-25.2478
 30
0.0
  0
SPLINE
  5
172
330
1F
100
AcDbEntity
  8
ROUND
100
AcDbSpline
210
0.0
220
0.0
230
1.0
 70
    24
 71
     3
 72
     8
 73
     4
 74
     0
 42
0.0000000001
 43
0.0000000001
 40
0.0
 40
0.0
 40
0.0
 40
0.0
 40
1.0
 40
1.0
 40
1.0
 40
1.0
 10
22.9005
 20
-25.2478
 30
0.0
 10
22.9005
 20
-25.2478
 30
0.0
 10
22.9005
 20
-25.3002
 30
0.0
 10
22.9005
 20
-25.3002
 30
0.0
  0
SPLINE
  5
173
330
1F
100
AcDbEntity
  8
ROUND
100
AcDbSpline
210
0.0
220
0.0
230
1.0
 70
    24
 71
     3
 72
     8
 73
     4
 74
     0
 42
0.0000000001
 43
0.0000000001
 40
0.0
 40
0.0
 40
0.0
 40
0.0
 40
1.0
 40
1.0
 40
1.0
 40
1.0
 10
22.7691
 20
-25.3002
 30
0.0
 10
22.7691
 20
-25.3002
 30
0.0
 10
22.7691
 20
-25.2478
 30
0.0
 10
22.7691
 20
-25.2478
 30
0.0
  0
SPLINE
  5
174
330
1F
100
AcDbEntity
  8
ROUND
100
AcDbSpline
210
0.0
220
0.0
230
1.0
 70
    24
 71
     3
 72
     8
 73
     4
 74
     0
 42
0.0000000001
 43
0.0000000001
 40
0.0
 40
0.0
 40
0.0
 40
0.0
 40
1.0
 40
1.0
 40
1.0
 40
1.0
 10
22.1243
 20
-25.3107
 30
0.0
 10
22.1243
 20
-25.3107
 30
0.0
 10
21.9722
 20
-25.3017
 30
0.0
 10
21.9722
 20
-25.3017
 30
0.0
  0
SPLINE
  5
175
330
1F
100
AcDbEntity
  8
ROUND
100
AcDbSpline
210
0.0
220
0.0
230
1.0
 70
    24
 71
     3
 72
     8
 73
     4
 74
     0
 42
0.0000000001
 43
0.0000000001
 40
0.0
 40
0.0
 40
0.0
 40
0.0
 40
1.0
 40
1.0
 40
1.0
 40
1.0
 10
21.9841
 20
-25.3002
 30
0.0
 10
21.9841
 20
-25.3002
 30
0.0
 10
22.0028
 20
-25.3002
 30
0.0
 10
22.0028
 20
-25.3002
 30
0.0
  0
SPLINE
  5
176
330
1F
100
AcDbEntity
  8
ROUND
100
AcDbSpline
210
0.0
220
0.0
230
1.0
 70
    24
 71
     3
 72
     8
 73
     4
 74
     0
 42
0.0000000001
 43
0.0000000001
 40
0.0
 40
0.0
 40
0.0
 40
0.0
 40
1.0
 40
1.0
 40
1.0
 40
1.0
 10
22.0139
 20
-25.3107
 30
0.0
 10
22.0139
 20
-25.3107
 30
0.0
 10
20.4595
 20
-24.768
 30
0.0
 10
20.4595
 20
-24.768
 30
0.0
  0
SPLINE
  5
177
330
1F
100
AcDbEntity
  8
ROUND
100
AcDbSpline
210
0.0
220
0.0
230
1.0
 70
    24
 71
     3
 72
     8
 73
     4
 74
     0
 42
0.0000000001
 43
0.0000000001
 40
0.0
 40
0.0
 40
0.0
 40
0.0
 40
1.0
 40
1.0
 40
1.0
 40
1.0
 10
22.4249
 20
-25.3002
 30
0.0
 10
22.4249
 20
-25.3002
 30
0.0
 10
22.4249
 20
-25.2478
 30
0.0
 10
22.4249
 20
-25.2478
 30
0.0
  0
SPLINE
  5
178
330
1F
100
AcDbEntity
  8
ROUND
100
AcDbSpline
210
0.0
220
0.0
230
1.0
 70
    24
 71
     3
 72
     8
 73
     4
 74
     0
 42
0.0000000001
 43
0.0000000001
 40
0.0
 40
0.0
 40
0.0
 40
0.0
 40
1.0
 40
1.0
 40
1.0
 40
1.0
 10
14.545
 20
-23.8271
 30
0.0
 10
14.545
 20
-23.8271
 30
0.0
 10
13.0917
 20
-13.4957
 30
0.0
 10
13.0917
 20
-13.4957
 30
0.0
  0
SPLINE
  5
179
330
1F
100
AcDbEntity
  8
ROUND
100
AcDbSpline
210
0.0
220
0.0
230
1.0
 70
    24
 71
     3
 72
     8
 73
     4
 74
     0
 42
0.0000000001
 43
0.0000000001
 40
0.0
 40
0.0
 40
0.0
 40
0.0
 40
1.0
 40
1.0
 40
1.0
 40
1.0
 10
16.6947
 20
-26.0501
 30
0.0
 10
16.6947
 20
-26.0501
 30
0.0
 10
16.7713
 20
-26.0596
 30
0.0
 10
16.7713
 20
-26.0596
 30
0.0
  0
SPLINE
  5
17A
330
1F
100
AcDbEntity
  8
ROUND
100
AcDbSpline
210
0.0
220
0.0
230
1.0
 70
    24
 71
     3
 72
     8
 73
     4
 74
     0
 42
0.0000000001
 43
0.0000000001
 40
0.0
 40
0.0
 40
0.0
 40
0.0
 40
1.0
 40
1.0
 40
1.0
 40
1.0
 10
16.6947
 20
-26.0501
 30
0.0
 10
16.6947
 20
-26.0501
 30
0.0
 10
16.7927
 20
-26.0629
 30
0.0
 10
16.7927
 20
-26.0629
 30
0.0
  0
SPLINE
  5
17B
330
1F
100
AcDbEntity
  8
ROUND
100
AcDbSpline
210
0.0
220
0.0
230
1.0
 70
    24
 71
     3
 72
     8
 73
     4
 74
     0
 42
0.0000000001
 43
0.0000000001
 40
0.0
 40
0.0
 40
0.0
 40
0.0
 40
1.0
 40
1.0
 40
1.0
 40
1.0
 10
29.594
 20
-10.3485
 30
0.0
 10
29.594
 20
-10.3485
 30
0.0
 10
32.6005
 20
-10.3485
 30
0.0
 10
32.6005
 20
-10.3485
 30
0.0
  0
SPLINE
  5
17C
330
1F
100
AcDbEntity
  8
ROUND
100
AcDbSpline
210
0.0
220
0.0
230
1.0
 70
    24
 71
     3
 72
     8
 73
     4
 74
     0
 42
0.0000000001
 43
0.0000000001
 40
0.0
 40
0.0
 40
0.0
 40
0.0
 40
1.0
 40
1.0
 40
1.0
 40
1.0
 10
30.2102
 20
2.2421
 30
0.0
 10
30.2102
 20
2.2421
 30
0.0
 10
29.3252
 20
-10.3485
 30
0.0
 10
29.3252
 20
-10.3485
 30
0.0
  0
SPLINE
  5
17D
330
1F
100
AcDbEntity
  8
ROUND
100
AcDbSpline
210
0.0
220
0.0
230
1.0
 70
    24
 71
     3
 72
     8
 73
     4
 74
     0
 42
0.0000000001
 43
0.0000000001
 40
0.0
 40
0.0
 40
0.0
 40
0.0
 40
1.0
 40
1.0
 40
1.0
 40
1.0
 10
24.2524
 20
-10.3485
 30
0.0
 10
24.2524
 20
-10.3485
 30
0.0
 10
28.3592
 20
-10.3485
 30
0.0
 10
28.3592
 20
-10.3485
 30
0.0
  0
SPLINE
  5
17E
330
1F
100
AcDbEntity
  8
ROUND
100
AcDbSpline
210
0.0
220
0.0
230
1.0
 70
    24
 71
     3
 72
     8
 73
     4
 74
     0
 42
0.0000000001
 43
0.0000000001
 40
0.0
 40
0.0
 40
0.0
 40
0.0
 40
1.0
 40
1.0
 40
1.0
 40
1.0
 10
28.0147
 20
-10.3485
 30
0.0
 10
28.0147
 20
-10.3485
 30
0.0
 10
28.8993
 20
2.2421
 30
0.0
 10
28.8993
 20
2.2421
 30
0.0
  0
SPLINE
  5
17F
330
1F
100
AcDbEntity
  8
ROUND
100
AcDbSpline
210
0.0
220
0.0
230
1.0
 70
    24
 71
     3
 72
     8
 73
     4
 74
     0
 42
0.0000000001
 43
0.0000000001
 40
0.0
 40
0.0
 40
0.0
 40
0.0
 40
1.0
 40
1.0
 40
1.0
 40
1.0
 10
23.9327
 20
2.2421
 30
0.0
 10
23.9327
 20
2.2421
 30
0.0
 10
23.9327
 20
-10.3485
 30
0.0
 10
23.9327
 20
-10.3485
 30
0.0
  0
SPLINE
  5
180
330
1F
100
AcDbEntity
  8
ROUND
100
AcDbSpline
210
0.0
220
0.0
230
1.0
 70
    24
 71
     3
 72
     8
 73
     4
 74
     0
 42
0.0000000001
 43
0.0000000001
 40
0.0
 40
0.0
 40
0.0
 40
0.0
 40
1.0
 40
1.0
 40
1.0
 40
1.0
 10
23.1465
 20
-10.3485
 30
0.0
 10
23.1465
 20
-10.3485
 30
0.0
 10
23.1465
 20
2.2421
 30
0.0
 10
23.1465
 20
2.2421
 30
0.0
  0
SPLINE
  5
181
330
1F
100
AcDbEntity
  8
ROUND
100
AcDbSpline
210
0.0
220
0.0
230
1.0
 70
    24
 71
     3
 72
     8
 73
     4
 74
     0
 42
0.0000000001
 43
0.0000000001
 40
0.0
 40
0.0
 40
0.0
 40
0.0
 40
1.0
 40
1.0
 40
1.0
 40
1.0
 10
18.7201
 20
-10.3485
 30
0.0
 10
18.7201
 20
-10.3485
 30
0.0
 10
22.8271
 20
-10.3485
 30
0.0
 10
22.8271
 20
-10.3485
 30
0.0
  0
SPLINE
  5
182
330
1F
100
AcDbEntity
  8
ROUND
100
AcDbSpline
210
0.0
220
0.0
230
1.0
 70
    24
 71
     3
 72
     8
 73
     4
 74
     0
 42
0.0000000001
 43
0.0000000001
 40
0.0
 40
0.0
 40
0.0
 40
0.0
 40
1.0
 40
1.0
 40
1.0
 40
1.0
 10
16.8688
 20
2.2421
 30
0.0
 10
16.8688
 20
2.2421
 30
0.0
 10
17.7544
 20
-10.3485
 30
0.0
 10
17.7544
 20
-10.3485
 30
0.0
  0
SPLINE
  5
183
330
1F
100
AcDbEntity
  8
ROUND
100
AcDbSpline
210
0.0
220
0.0
230
1.0
 70
    24
 71
     3
 72
     8
 73
     4
 74
     0
 42
0.0000000001
 43
0.0000000001
 40
0.0
 40
0.0
 40
0.0
 40
0.0
 40
1.0
 40
1.0
 40
1.0
 40
1.0
 10
19.0647
 20
-10.3485
 30
0.0
 10
19.0647
 20
-10.3485
 30
0.0
 10
18.1803
 20
2.2421
 30
0.0
 10
18.1803
 20
2.2421
 30
0.0
  0
SPLINE
  5
184
330
1F
100
AcDbEntity
  8
ROUND
100
AcDbSpline
210
0.0
220
0.0
230
1.0
 70
    24
 71
     3
 72
     8
 73
     4
 74
     0
 42
0.0000000001
 43
0.0000000001
 40
0.0
 40
0.0
 40
0.0
 40
0.0
 40
1.0
 40
1.0
 40
1.0
 40
1.0
 10
33.0839
 20
2.2421
 30
0.0
 10
33.0839
 20
2.2421
 30
0.0
 10
31.5512
 20
-10.3485
 30
0.0
 10
31.5512
 20
-10.3485
 30
0.0
  0
SPLINE
  5
185
330
1F
100
AcDbEntity
  8
ROUND
100
AcDbSpline
210
0.0
220
0.0
230
1.0
 70
    24
 71
     3
 72
     8
 73
     4
 74
     0
 42
0.0000000001
 43
0.0000000001
 40
0.0
 40
0.0
 40
0.0
 40
0.0
 40
1.0
 40
1.0
 40
1.0
 40
1.0
 10
13.9956
 20
2.2421
 30
0.0
 10
13.9956
 20
2.2421
 30
0.0
 10
15.5282
 20
-10.3485
 30
0.0
 10
15.5282
 20
-10.3485
 30
0.0
  0
SPLINE
  5
186
330
1F
100
AcDbEntity
  8
ROUND
100
AcDbSpline
210
0.0
220
0.0
230
1.0
 70
    24
 71
     3
 72
     8
 73
     4
 74
     0
 42
0.0000000001
 43
0.0000000001
 40
0.0
 40
0.0
 40
0.0
 40
0.0
 40
1.0
 40
1.0
 40
1.0
 40
1.0
 10
13.9059
 20
-10.3485
 30
0.0
 10
13.9059
 20
-10.3485
 30
0.0
 10
12.1363
 20
2.2421
 30
0.0
 10
12.1363
 20
2.2421
 30
0.0
  0
SPLINE
  5
187
330
1F
100
AcDbEntity
  8
ROUND
100
AcDbSpline
210
0.0
220
0.0
230
1.0
 70
    24
 71
     3
 72
     8
 73
     4
 74
     0
 42
0.0000000001
 43
0.0000000001
 40
0.0
 40
0.0
 40
0.0
 40
0.0
 40
1.0
 40
1.0
 40
1.0
 40
1.0
 10
10.3055
 20
2.4679
 30
0.0
 10
10.3055
 20
2.4679
 30
0.0
 10
36.7743
 20
2.4679
 30
0.0
 10
36.7743
 20
2.4679
 30
0.0
  0
SPLINE
  5
188
330
1F
100
AcDbEntity
  8
ROUND
100
AcDbSpline
210
0.0
220
0.0
230
1.0
 70
    24
 71
     3
 72
     8
 73
     4
 74
     0
 42
0.0000000001
 43
0.0000000001
 40
0.0
 40
0.0
 40
0.0
 40
0.0
 40
1.0
 40
1.0
 40
1.0
 40
1.0
 10
33.1731
 20
-10.3485
 30
0.0
 10
33.1731
 20
-10.3485
 30
0.0
 10
34.9426
 20
2.2421
 30
0.0
 10
34.9426
 20
2.2421
 30
0.0
  0
SPLINE
  5
189
330
1F
100
AcDbEntity
  8
ROUND
100
AcDbSpline
210
0.0
220
0.0
230
1.0
 70
    24
 71
     3
 72
     8
 73
     4
 74
     0
 42
0.0000000001
 43
0.0000000001
 40
0.0
 40
0.0
 40
0.0
 40
0.0
 40
1.0
 40
1.0
 40
1.0
 40
1.0
 10
32.7743
 20
-10.3485
 30
0.0
 10
32.7743
 20
-10.3485
 30
0.0
 10
33.1671
 20
-10.3485
 30
0.0
 10
33.1671
 20
-10.3485
 30
0.0
  0
SPLINE
  5
18A
330
1F
100
AcDbEntity
  8
ROUND
100
AcDbSpline
210
0.0
220
0.0
230
1.0
 70
    24
 71
     3
 72
     8
 73
     4
 74
     0
 42
0.0000000001
 43
0.0000000001
 40
0.0
 40
0.0
 40
0.0
 40
0.0
 40
1.0
 40
1.0
 40
1.0
 40
1.0
 10
33.2403
 20
2.2421
 30
0.0
 10
33.2403
 20
2.2421
 30
0.0
 10
31.7078
 20
-10.3485
 30
0.0
 10
31.7078
 20
-10.3485
 30
0.0
  0
SPLINE
  5
18B
330
1F
100
AcDbEntity
  8
ROUND
100
AcDbSpline
210
0.0
220
0.0
230
1.0
 70
    24
 71
     3
 72
     8
 73
     4
 74
     0
 42
0.0000000001
 43
0.0000000001
 40
0.0
 40
0.0
 40
0.0
 40
0.0
 40
1.0
 40
1.0
 40
1.0
 40
1.0
 10
28.9387
 20
2.2421
 30
0.0
 10
28.9387
 20
2.2421
 30
0.0
 10
28.0537
 20
-10.3485
 30
0.0
 10
28.0537
 20
-10.3485
 30
0.0
  0
SPLINE
  5
18C
330
1F
100
AcDbEntity
  8
ROUND
100
AcDbSpline
210
0.0
220
0.0
230
1.0
 70
    24
 71
     3
 72
     8
 73
     4
 74
     0
 42
0.0000000001
 43
0.0000000001
 40
0.0
 40
0.0
 40
0.0
 40
0.0
 40
1.0
 40
1.0
 40
1.0
 40
1.0
 10
28.6443
 20
-10.3485
 30
0.0
 10
28.6443
 20
-10.3485
 30
0.0
 10
29.3252
 20
-10.3485
 30
0.0
 10
29.3252
 20
-10.3485
 30
0.0
  0
SPLINE
  5
18D
330
1F
100
AcDbEntity
  8
ROUND
100
AcDbSpline
210
0.0
220
0.0
230
1.0
 70
    24
 71
     3
 72
     8
 73
     4
 74
     0
 42
0.0000000001
 43
0.0000000001
 40
0.0
 40
0.0
 40
0.0
 40
0.0
 40
1.0
 40
1.0
 40
1.0
 40
1.0
 10
19.0255
 20
-10.3485
 30
0.0
 10
19.0255
 20
-10.3485
 30
0.0
 10
18.141
 20
2.2421
 30
0.0
 10
18.141
 20
2.2421
 30
0.0
  0
SPLINE
  5
18E
330
1F
100
AcDbEntity
  8
ROUND
100
AcDbSpline
210
0.0
220
0.0
230
1.0
 70
    24
 71
     3
 72
     8
 73
     4
 74
     0
 42
0.0000000001
 43
0.0000000001
 40
0.0
 40
0.0
 40
0.0
 40
0.0
 40
1.0
 40
1.0
 40
1.0
 40
1.0
 10
17.7544
 20
-10.3485
 30
0.0
 10
17.7544
 20
-10.3485
 30
0.0
 10
18.4349
 20
-10.3485
 30
0.0
 10
18.4349
 20
-10.3485
 30
0.0
  0
SPLINE
  5
18F
330
1F
100
AcDbEntity
  8
ROUND
100
AcDbSpline
210
0.0
220
0.0
230
1.0
 70
    24
 71
     3
 72
     8
 73
     4
 74
     0
 42
0.0000000001
 43
0.0000000001
 40
0.0
 40
0.0
 40
0.0
 40
0.0
 40
1.0
 40
1.0
 40
1.0
 40
1.0
 10
7.9466
 20
5.238
 30
0.0
 10
7.9466
 20
5.238
 30
0.0
 10
39.1326
 20
5.238
 30
0.0
 10
39.1326
 20
5.238
 30
0.0
  0
SPLINE
  5
190
330
1F
100
AcDbEntity
  8
ROUND
100
AcDbSpline
210
0.0
220
0.0
230
1.0
 70
    24
 71
     3
 72
     8
 73
     4
 74
     0
 42
0.0000000001
 43
0.0000000001
 40
0.0
 40
0.0
 40
0.0
 40
0.0
 40
1.0
 40
1.0
 40
1.0
 40
1.0
 10
23.5397
 20
4.865
 30
0.0
 10
23.5397
 20
4.865
 30
0.0
 10
23.5397
 20
8.0124
 30
0.0
 10
23.5397
 20
8.0124
 30
0.0
  0
SPLINE
  5
191
330
1F
100
AcDbEntity
  8
ROUND
100
AcDbSpline
210
0.0
220
0.0
230
1.0
 70
    24
 71
     3
 72
     8
 73
     4
 74
     0
 42
0.0000000001
 43
0.0000000001
 40
0.0
 40
0.0
 40
0.0
 40
0.0
 40
1.0
 40
1.0
 40
1.0
 40
1.0
 10
15.3712
 20
-10.3485
 30
0.0
 10
15.3712
 20
-10.3485
 30
0.0
 10
13.8389
 20
2.2421
 30
0.0
 10
13.8389
 20
2.2421
 30
0.0
  0
SPLINE
  5
192
330
1F
100
AcDbEntity
  8
ROUND
100
AcDbSpline
210
0.0
220
0.0
230
1.0
 70
    24
 71
     3
 72
     8
 73
     4
 74
     0
 42
0.0000000001
 43
0.0000000001
 40
0.0
 40
0.0
 40
0.0
 40
0.0
 40
1.0
 40
1.0
 40
1.0
 40
1.0
 10
13.9118
 20
-10.3485
 30
0.0
 10
13.9118
 20
-10.3485
 30
0.0
 10
14.3047
 20
-10.3485
 30
0.0
 10
14.3047
 20
-10.3485
 30
0.0
  0
SPLINE
  5
193
330
1F
100
AcDbEntity
  8
ROUND
100
AcDbSpline
210
0.0
220
0.0
230
1.0
 70
    24
 71
     3
 72
     8
 73
     4
 74
     0
 42
0.0000000001
 43
0.0000000001
 40
0.0
 40
0.0
 40
0.0
 40
0.0
 40
1.0
 40
1.0
 40
1.0
 40
1.0
 10
15.537
 20
-23.6876
 30
0.0
 10
15.537
 20
-23.6876
 30
0.0
 10
14.545
 20
-23.8271
 30
0.0
 10
14.545
 20
-23.8271
 30
0.0
  0
SPLINE
  5
194
330
1F
100
AcDbEntity
  8
ROUND
100
AcDbSpline
210
0.0
220
0.0
230
1.0
 70
    24
 71
     3
 72
     8
 73
     4
 74
     0
 42
0.0000000001
 43
0.0000000001
 40
0.0
 40
0.0
 40
0.0
 40
0.0
 40
1.0
 40
1.0
 40
1.0
 40
1.0
 10
22.2429
 20
-25.5486
 30
0.0
 10
22.2429
 20
-25.5486
 30
0.0
 10
23.1465
 20
-25.5486
 30
0.0
 10
23.1465
 20
-25.5486
 30
0.0
  0
SPLINE
  5
195
330
1F
100
AcDbEntity
  8
ROUND
100
AcDbSpline
210
0.0
220
0.0
230
1.0
 70
    24
 71
     3
 72
     8
 73
     4
 74
     0
 42
0.0000000001
 43
0.0000000001
 40
0.0
 40
0.0
 40
0.0
 40
0.0
 40
1.0
 40
1.0
 40
1.0
 40
1.0
 10
23.9327
 20
-25.5486
 30
0.0
 10
23.9327
 20
-25.5486
 30
0.0
 10
24.8361
 20
-25.5486
 30
0.0
 10
24.8361
 20
-25.5486
 30
0.0
  0
SPLINE
  5
196
330
1F
100
AcDbEntity
  8
ROUND
100
AcDbSpline
210
0.0
220
0.0
230
1.0
 70
    24
 71
     3
 72
     8
 73
     4
 74
     0
 42
0.0000000001
 43
0.0000000001
 40
0.0
 40
0.0
 40
0.0
 40
0.0
 40
1.0
 40
1.0
 40
1.0
 40
1.0
 10
12.6958
 20
-13.4184
 30
0.0
 10
12.6958
 20
-13.4184
 30
0.0
 10
34.3834
 20
-13.4184
 30
0.0
 10
34.3834
 20
-13.4184
 30
0.0
  0
SPLINE
  5
197
330
1F
100
AcDbEntity
  8
ROUND
100
AcDbSpline
210
0.0
220
0.0
230
1.0
 70
    24
 71
     3
 72
     8
 73
     4
 74
     0
 42
0.0000000001
 43
0.0000000001
 40
0.0
 40
0.0
 40
0.0
 40
0.0
 40
1.0
 40
1.0
 40
1.0
 40
1.0
 10
28.9238
 20
-25.0668
 30
0.0
 10
28.9238
 20
-25.0668
 30
0.0
 10
28.0397
 20
-25.2462
 30
0.0
 10
28.0397
 20
-25.2462
 30
0.0
  0
SPLINE
  5
198
330
1F
100
AcDbEntity
  8
ROUND
100
AcDbSpline
210
0.0
220
0.0
230
1.0
 70
    24
 71
     3
 72
     8
 73
     4
 74
     0
 42
0.0000000001
 43
0.0000000001
 40
0.0
 40
0.0
 40
0.0
 40
0.0
 40
1.0
 40
1.0
 40
1.0
 40
1.0
 10
27.116
 20
-23.6889
 30
0.0
 10
27.116
 20
-23.6889
 30
0.0
 10
27.0787
 20
-23.6678
 30
0.0
 10
27.0787
 20
-23.6678
 30
0.0
  0
SPLINE
  5
199
330
1F
100
AcDbEntity
  8
ROUND
100
AcDbSpline
210
0.0
220
0.0
230
1.0
 70
    24
 71
     3
 72
     8
 73
     4
 74
     0
 42
0.0000000001
 43
0.0000000001
 40
0.0
 40
0.0
 40
0.0
 40
0.0
 40
1.0
 40
1.0
 40
1.0
 40
1.0
 10
32.5343
 20
-23.8271
 30
0.0
 10
32.5343
 20
-23.8271
 30
0.0
 10
31.5428
 20
-23.6876
 30
0.0
 10
31.5428
 20
-23.6876
 30
0.0
  0
SPLINE
  5
19A
330
1F
100
AcDbEntity
  8
ROUND
100
AcDbSpline
210
0.0
220
0.0
230
1.0
 70
    24
 71
     3
 72
     8
 73
     4
 74
     0
 42
0.0000000001
 43
0.0000000001
 40
0.0
 40
0.0
 40
0.0
 40
0.0
 40
1.0
 40
1.0
 40
1.0
 40
1.0
 10
23.5397
 20
-13.4885
 30
0.0
 10
23.5397
 20
-13.4885
 30
0.0
 10
23.5397
 20
-10.3485
 30
0.0
 10
23.5397
 20
-10.3485
 30
0.0
  0
SPLINE
  5
19B
330
1F
100
AcDbEntity
  8
ROUND
100
AcDbSpline
210
0.0
220
0.0
230
1.0
 70
    24
 71
     3
 72
     8
 73
     4
 74
     0
 42
0.0000000001
 43
0.0000000001
 40
0.0
 40
0.0
 40
0.0
 40
0.0
 40
1.0
 40
1.0
 40
1.0
 40
1.0
 10
23.9327
 20
-10.3485
 30
0.0
 10
23.9327
 20
-10.3485
 30
0.0
 10
23.1465
 20
-10.3485
 30
0.0
 10
23.1465
 20
-10.3485
 30
0.0
  0
SPLINE
  5
19C
330
1F
100
AcDbEntity
  8
ROUND
100
AcDbSpline
210
0.0
220
0.0
230
1.0
 70
    24
 71
     3
 72
     8
 73
     4
 74
     0
 42
0.0000000001
 43
0.0000000001
 40
0.0
 40
0.0
 40
0.0
 40
0.0
 40
1.0
 40
1.0
 40
1.0
 40
1.0
 10
23.5397
 20
-13.4885
 30
0.0
 10
23.5397
 20
-13.4885
 30
0.0
 10
23.5397
 20
-13.4947
 30
0.0
 10
23.5397
 20
-13.4947
 30
0.0
  0
SPLINE
  5
19D
330
1F
100
AcDbEntity
  8
ROUND
100
AcDbSpline
210
0.0
220
0.0
230
1.0
 70
    24
 71
     3
 72
     8
 73
     4
 74
     0
 42
0.0000000001
 43
0.0000000001
 40
0.0
 40
0.0
 40
0.0
 40
0.0
 40
1.0
 40
1.0
 40
1.0
 40
1.0
 10
20.0008
 20
-23.6678
 30
0.0
 10
20.0008
 20
-23.6678
 30
0.0
 10
19.9632
 20
-23.6889
 30
0.0
 10
19.9632
 20
-23.6889
 30
0.0
  0
SPLINE
  5
19E
330
1F
100
AcDbEntity
  8
ROUND
100
AcDbSpline
210
0.0
220
0.0
230
1.0
 70
    24
 71
     3
 72
     8
 73
     4
 74
     0
 42
0.0000000001
 43
0.0000000001
 40
0.0
 40
0.0
 40
0.0
 40
0.0
 40
1.0
 40
1.0
 40
1.0
 40
1.0
 10
18.0519
 20
-24.758
 30
0.0
 10
18.0519
 20
-24.758
 30
0.0
 10
18.9145
 20
-24.933
 30
0.0
 10
18.9145
 20
-24.933
 30
0.0
  0
SPLINE
  5
19F
330
1F
100
AcDbEntity
  8
ROUND
100
AcDbSpline
210
0.0
220
0.0
230
1.0
 70
    24
 71
     3
 72
     8
 73
     4
 74
     0
 42
0.0000000001
 43
0.0000000001
 40
0.0
 40
0.0
 40
0.0
 40
0.0
 40
1.0
 40
1.0
 40
1.0
 40
1.0
 10
14.0431
 20
-13.4957
 30
0.0
 10
14.0431
 20
-13.4957
 30
0.0
 10
14.3021
 20
-13.4957
 30
0.0
 10
14.3021
 20
-13.4957
 30
0.0
  0
SPLINE
  5
1A0
330
1F
100
AcDbEntity
  8
ROUND
100
AcDbSpline
210
0.0
220
0.0
230
1.0
 70
    24
 71
     3
 72
     8
 73
     4
 74
     0
 42
0.0000000001
 43
0.0000000001
 40
0.0
 40
0.0
 40
0.0
 40
0.0
 40
1.0
 40
1.0
 40
1.0
 40
1.0
 10
14.2954
 20
-13.4957
 30
0.0
 10
14.2954
 20
-13.4957
 30
0.0
 10
14.3016
 20
-13.4957
 30
0.0
 10
14.3016
 20
-13.4957
 30
0.0
  0
SPLINE
  5
1A1
330
1F
100
AcDbEntity
  8
ROUND
100
AcDbSpline
210
0.0
220
0.0
230
1.0
 70
    24
 71
     3
 72
     8
 73
     4
 74
     0
 42
0.0000000001
 43
0.0000000001
 40
0.0
 40
0.0
 40
0.0
 40
0.0
 40
1.0
 40
1.0
 40
1.0
 40
1.0
 10
14.3047
 20
-10.3485
 30
0.0
 10
14.3047
 20
-10.3485
 30
0.0
 10
12.7716
 20
2.2421
 30
0.0
 10
12.7716
 20
2.2421
 30
0.0
  0
SPLINE
  5
1A2
330
1F
100
AcDbEntity
  8
ROUND
100
AcDbSpline
210
0.0
220
0.0
230
1.0
 70
    24
 71
     3
 72
     8
 73
     4
 74
     0
 42
0.0000000001
 43
0.0000000001
 40
0.0
 40
0.0
 40
0.0
 40
0.0
 40
1.0
 40
1.0
 40
1.0
 40
1.0
 10
18.4349
 20
-10.3485
 30
0.0
 10
18.4349
 20
-10.3485
 30
0.0
 10
17.5497
 20
2.2421
 30
0.0
 10
17.5497
 20
2.2421
 30
0.0
  0
SPLINE
  5
1A3
330
1F
100
AcDbEntity
  8
ROUND
100
AcDbSpline
210
0.0
220
0.0
230
1.0
 70
    24
 71
     3
 72
     8
 73
     4
 74
     0
 42
0.0000000001
 43
0.0000000001
 40
0.0
 40
0.0
 40
0.0
 40
0.0
 40
1.0
 40
1.0
 40
1.0
 40
1.0
 10
17.9753
 20
-13.4957
 30
0.0
 10
17.9753
 20
-13.4957
 30
0.0
 10
17.9797
 20
-13.4957
 30
0.0
 10
17.9797
 20
-13.4957
 30
0.0
  0
SPLINE
  5
1A4
330
1F
100
AcDbEntity
  8
ROUND
100
AcDbSpline
210
0.0
220
0.0
230
1.0
 70
    24
 71
     3
 72
     8
 73
     4
 74
     0
 42
0.0000000001
 43
0.0000000001
 40
0.0
 40
0.0
 40
0.0
 40
0.0
 40
1.0
 40
1.0
 40
1.0
 40
1.0
 10
18.6595
 20
-13.4957
 30
0.0
 10
18.6595
 20
-13.4957
 30
0.0
 10
19.1846
 20
-13.4957
 30
0.0
 10
19.1846
 20
-13.4957
 30
0.0
  0
SPLINE
  5
1A5
330
1F
100
AcDbEntity
  8
ROUND
100
AcDbSpline
210
0.0
220
0.0
230
1.0
 70
    24
 71
     3
 72
     8
 73
     4
 74
     0
 42
0.0000000001
 43
0.0000000001
 40
0.0
 40
0.0
 40
0.0
 40
0.0
 40
1.0
 40
1.0
 40
1.0
 40
1.0
 10
17.9799
 20
-13.4957
 30
0.0
 10
17.9799
 20
-13.4957
 30
0.0
 10
17.4927
 20
-13.4957
 30
0.0
 10
17.4927
 20
-13.4957
 30
0.0
  0
SPLINE
  5
1A6
330
1F
100
AcDbEntity
  8
ROUND
100
AcDbSpline
210
0.0
220
0.0
230
1.0
 70
    24
 71
     3
 72
     8
 73
     4
 74
     0
 42
0.0000000001
 43
0.0000000001
 40
0.0
 40
0.0
 40
0.0
 40
0.0
 40
1.0
 40
1.0
 40
1.0
 40
1.0
 10
29.0999
 20
-13.4957
 30
0.0
 10
29.0999
 20
-13.4957
 30
0.0
 10
29.5866
 20
-13.4957
 30
0.0
 10
29.5866
 20
-13.4957
 30
0.0
  0
SPLINE
  5
1A7
330
1F
100
AcDbEntity
  8
ROUND
100
AcDbSpline
210
0.0
220
0.0
230
1.0
 70
    24
 71
     3
 72
     8
 73
     4
 74
     0
 42
0.0000000001
 43
0.0000000001
 40
0.0
 40
0.0
 40
0.0
 40
0.0
 40
1.0
 40
1.0
 40
1.0
 40
1.0
 10
29.1001
 20
-13.4957
 30
0.0
 10
29.1001
 20
-13.4957
 30
0.0
 10
29.1037
 20
-13.4957
 30
0.0
 10
29.1037
 20
-13.4957
 30
0.0
  0
SPLINE
  5
1A8
330
1F
100
AcDbEntity
  8
ROUND
100
AcDbSpline
210
0.0
220
0.0
230
1.0
 70
    24
 71
     3
 72
     8
 73
     4
 74
     0
 42
0.0000000001
 43
0.0000000001
 40
0.0
 40
0.0
 40
0.0
 40
0.0
 40
1.0
 40
1.0
 40
1.0
 40
1.0
 10
28.42
 20
-13.4957
 30
0.0
 10
28.42
 20
-13.4957
 30
0.0
 10
27.8946
 20
-13.4957
 30
0.0
 10
27.8946
 20
-13.4957
 30
0.0
  0
SPLINE
  5
1A9
330
1F
100
AcDbEntity
  8
ROUND
100
AcDbSpline
210
0.0
220
0.0
230
1.0
 70
    24
 71
     3
 72
     8
 73
     4
 74
     0
 42
0.0000000001
 43
0.0000000001
 40
0.0
 40
0.0
 40
0.0
 40
0.0
 40
1.0
 40
1.0
 40
1.0
 40
1.0
 10
32.7773
 20
-13.4957
 30
0.0
 10
32.7773
 20
-13.4957
 30
0.0
 10
33.0362
 20
-13.4957
 30
0.0
 10
33.0362
 20
-13.4957
 30
0.0
  0
SPLINE
  5
1AA
330
1F
100
AcDbEntity
  8
ROUND
100
AcDbSpline
210
0.0
220
0.0
230
1.0
 70
    24
 71
     3
 72
     8
 73
     4
 74
     0
 42
0.0000000001
 43
0.0000000001
 40
0.0
 40
0.0
 40
0.0
 40
0.0
 40
1.0
 40
1.0
 40
1.0
 40
1.0
 10
32.7773
 20
-13.4957
 30
0.0
 10
32.7773
 20
-13.4957
 30
0.0
 10
32.7843
 20
-13.4957
 30
0.0
 10
32.7843
 20
-13.4957
 30
0.0
  0
SPLINE
  5
1AB
330
1F
100
AcDbEntity
  8
ROUND
100
AcDbSpline
210
0.0
220
0.0
230
1.0
 70
    24
 71
     3
 72
     8
 73
     4
 74
     0
 42
0.0000000001
 43
0.0000000001
 40
0.0
 40
0.0
 40
0.0
 40
0.0
 40
1.0
 40
1.0
 40
1.0
 40
1.0
 10
34.3074
 20
2.2421
 30
0.0
 10
34.3074
 20
2.2421
 30
0.0
 10
32.7743
 20
-10.3485
 30
0.0
 10
32.7743
 20
-10.3485
 30
0.0
  0
SPLINE
  5
1AC
330
1F
100
AcDbEntity
  8
ROUND
100
AcDbSpline
210
0.0
220
0.0
230
1.0
 70
    24
 71
     3
 72
     8
 73
     4
 74
     0
 42
0.0000000001
 43
0.0000000001
 40
0.0
 40
0.0
 40
0.0
 40
0.0
 40
1.0
 40
1.0
 40
1.0
 40
1.0
 10
23.1467
 20
-13.4957
 30
0.0
 10
23.1467
 20
-13.4957
 30
0.0
 10
22.5631
 20
-13.4957
 30
0.0
 10
22.5631
 20
-13.4957
 30
0.0
  0
SPLINE
  5
1AD
330
1F
100
AcDbEntity
  8
ROUND
100
AcDbSpline
210
0.0
220
0.0
230
1.0
 70
    24
 71
     3
 72
     8
 73
     4
 74
     0
 42
0.0000000001
 43
0.0000000001
 40
0.0
 40
0.0
 40
0.0
 40
0.0
 40
1.0
 40
1.0
 40
1.0
 40
1.0
 10
24.5164
 20
-13.4957
 30
0.0
 10
24.5164
 20
-13.4957
 30
0.0
 10
23.9327
 20
-13.4957
 30
0.0
 10
23.9327
 20
-13.4957
 30
0.0
  0
SPLINE
  5
1AE
330
1F
100
AcDbEntity
  8
ROUND
100
AcDbSpline
210
0.0
220
0.0
230
1.0
 70
    24
 71
     3
 72
     8
 73
     4
 74
     0
 42
0.0000000001
 43
0.0000000001
 40
0.0
 40
0.0
 40
0.0
 40
0.0
 40
1.0
 40
1.0
 40
1.0
 40
1.0
 10
23.9327
 20
-23.8288
 30
0.0
 10
23.9327
 20
-23.8288
 30
0.0
 10
23.1465
 20
-23.8288
 30
0.0
 10
23.1465
 20
-23.8288
 30
0.0
  0
SPLINE
  5
1AF
330
1F
100
AcDbEntity
  8
ROUND
100
AcDbSpline
210
0.0
220
0.0
230
1.0
 70
    24
 71
     3
 72
     8
 73
     4
 74
     0
 42
0.0000000001
 43
0.0000000001
 40
0.0
 40
0.0
 40
0.0
 40
0.0
 40
1.0
 40
1.0
 40
1.0
 40
1.0
 10
29.5299
 20
2.2421
 30
0.0
 10
29.5299
 20
2.2421
 30
0.0
 10
28.6443
 20
-10.3485
 30
0.0
 10
28.6443
 20
-10.3485
 30
0.0
  0
SPLINE
  5
1B0
330
1F
100
AcDbEntity
  8
ROUND
100
AcDbSpline
210
0.0
220
0.0
230
1.0
 70
     8
 71
     3
 72
    16
 73
    12
 74
     0
 42
0.0000000001
 43
0.0000000001
 40
0.0
 40
0.0
 40
0.0
 40
0.0
 40
0.25
 40
0.25
 40
0.25
 40
0.25
 40
0.5
 40
0.5
 40
0.5
 40
0.5
 40
1.0
 40
1.0
 40
1.0
 40
1.0
 10
9.9683
 20
4.865
 30
0.0
 10
9.9683
 20
4.865
 30
0.0
 10
10.0412
 20
4.3455
 30
0.0
 10
10.0412
 20
4.3455
 30
0.0
 10
10.0412
 20
4.3455
 30
0.0
 10
10.0412
 20
4.3455
 30
0.0
 10
10.232
 20
2.9871
 30
0.0
 10
10.232
 20
2.9871
 30
0.0
 10
10.232
 20
2.9871
 30
0.0
 10
10.232
 20
2.9871
 30
0.0
 10
10.3055
 20
2.4679
 30
0.0
 10
10.3055
 20
2.4679
 30
0.0
  0
SPLINE
  5
1B1
330
1F
100
AcDbEntity
  8
ROUND
100
AcDbSpline
210
0.0
220
0.0
230
1.0
 70
     8
 71
     3
 72
     8
 73
     4
 74
     0
 42
0.0000000001
 43
0.0000000001
 40
0.0
 40
0.0
 40
0.0
 40
0.0
 40
1.0
 40
1.0
 40
1.0
 40
1.0
 10
10.3055
 20
2.4679
 30
0.0
 10
10.3542
 20
2.1233
 30
0.0
 10
10.9067
 20
2.2421
 30
0.0
 10
11.0897
 20
2.2421
 30
0.0
  0
SPLINE
  5
1B2
330
1F
100
AcDbEntity
  8
ROUND
100
AcDbSpline
210
0.0
220
0.0
230
1.0
 70
    24
 71
     3
 72
    12
 73
     8
 74
     0
 42
0.0000000001
 43
0.0000000001
 40
0.0
 40
0.0
 40
0.0
 40
0.0
 40
0.3333333333333333
 40
0.3333333333333333
 40
0.3333333333333333
 40
0.3333333333333333
 40
1.0
 40
1.0
 40
1.0
 40
1.0
 10
11.0897
 20
2.2421
 30
0.0
 10
11.0897
 20
2.2421
 30
0.0
 10
29.0081
 20
2.2421
 30
0.0
 10
29.0081
 20
2.2421
 30
0.0
 10
29.0081
 20
2.2421
 30
0.0
 10
29.0081
 20
2.2421
 30
0.0
 10
29.5327
 20
2.2421
 30
0.0
 10
29.5327
 20
2.2421
 30
0.0
  0
SPLINE
  5
1B3
330
1F
100
AcDbEntity
  8
ROUND
100
AcDbSpline
210
0.0
220
0.0
230
1.0
 70
    24
 71
     3
 72
    12
 73
     8
 74
     0
 42
0.0000000001
 43
0.0000000001
 40
0.0
 40
0.0
 40
0.0
 40
0.0
 40
0.3333333333333333
 40
0.3333333333333333
 40
0.3333333333333333
 40
0.3333333333333333
 40
1.0
 40
1.0
 40
1.0
 40
1.0
 10
12.7664
 20
2.2421
 30
0.0
 10
12.7664
 20
2.2421
 30
0.0
 10
13.291
 20
2.2421
 30
0.0
 10
13.291
 20
2.2421
 30
0.0
 10
13.291
 20
2.2421
 30
0.0
 10
13.291
 20
2.2421
 30
0.0
 10
35.9898
 20
2.2421
 30
0.0
 10
35.9898
 20
2.2421
 30
0.0
  0
SPLINE
  5
1B4
330
1F
100
AcDbEntity
  8
ROUND
100
AcDbSpline
210
0.0
220
0.0
230
1.0
 70
     8
 71
     3
 72
     8
 73
     4
 74
     0
 42
0.0000000001
 43
0.0000000001
 40
0.0
 40
0.0
 40
0.0
 40
0.0
 40
1.0
 40
1.0
 40
1.0
 40
1.0
 10
35.9898
 20
2.2421
 30
0.0
 10
36.1729
 20
2.2421
 30
0.0
 10
36.725
 20
2.1233
 30
0.0
 10
36.7743
 20
2.4679
 30
0.0
  0
SPLINE
  5
1B5
330
1F
100
AcDbEntity
  8
ROUND
100
AcDbSpline
210
0.0
220
0.0
230
1.0
 70
     8
 71
     3
 72
    16
 73
    12
 74
     0
 42
0.0000000001
 43
0.0000000001
 40
0.0
 40
0.0
 40
0.0
 40
0.0
 40
0.25
 40
0.25
 40
0.25
 40
0.25
 40
0.5
 40
0.5
 40
0.5
 40
0.5
 40
1.0
 40
1.0
 40
1.0
 40
1.0
 10
36.7743
 20
2.4679
 30
0.0
 10
36.7743
 20
2.4679
 30
0.0
 10
36.847
 20
2.9871
 30
0.0
 10
36.847
 20
2.9871
 30
0.0
 10
36.847
 20
2.9871
 30
0.0
 10
36.847
 20
2.9871
 30
0.0
 10
37.038
 20
4.3455
 30
0.0
 10
37.038
 20
4.3455
 30
0.0
 10
37.038
 20
4.3455
 30
0.0
 10
37.038
 20
4.3455
 30
0.0
 10
37.1109
 20
4.865
 30
0.0
 10
37.1109
 20
4.865
 30
0.0
  0
SPLINE
  5
1B6
330
1F
100
AcDbEntity
  8
ROUND
100
AcDbSpline
210
0.0
220
0.0
230
1.0
 70
     8
 71
     3
 72
    12
 73
     8
 74
     0
 42
0.0000000001
 43
0.0000000001
 40
0.0
 40
0.0
 40
0.0
 40
0.0
 40
0.3333333333333333
 40
0.3333333333333333
 40
0.3333333333333333
 40
0.3333333333333333
 40
1.0
 40
1.0
 40
1.0
 40
1.0
 10
7.8974
 20
6.1792
 30
0.0
 10
7.8974
 20
6.1792
 30
0.0
 10
7.9218
 20
5.7082
 30
0.0
 10
7.9218
 20
5.7082
 30
0.0
 10
7.9218
 20
5.7082
 30
0.0
 10
7.9218
 20
5.7082
 30
0.0
 10
7.9466
 20
5.238
 30
0.0
 10
7.9466
 20
5.238
 30
0.0
  0
SPLINE
  5
1B7
330
1F
100
AcDbEntity
  8
ROUND
100
AcDbSpline
210
0.0
220
0.0
230
1.0
 70
     8
 71
     3
 72
    12
 73
     8
 74
     0
 42
0.0000000001
 43
0.0000000001
 40
0.0
 40
0.0
 40
0.0
 40
0.0
 40
0.3333333333333333
 40
0.3333333333333333
 40
0.3333333333333333
 40
0.3333333333333333
 40
1.0
 40
1.0
 40
1.0
 40
1.0
 10
7.9466
 20
5.238
 30
0.0
 10
7.9492
 20
5.1934
 30
0.0
 10
7.9587
 20
5.1498
 30
0.0
 10
7.9755
 20
5.1091
 30
0.0
 10
7.9755
 20
5.1091
 30
0.0
 10
8.1175
 20
4.7639
 30
0.0
 10
8.5865
 20
4.865
 30
0.0
 10
8.8641
 20
4.865
 30
0.0
  0
SPLINE
  5
1B8
330
1F
100
AcDbEntity
  8
ROUND
100
AcDbSpline
210
0.0
220
0.0
230
1.0
 70
    24
 71
     3
 72
    12
 73
     8
 74
     0
 42
0.0000000001
 43
0.0000000001
 40
0.0
 40
0.0
 40
0.0
 40
0.0
 40
0.3333333333333333
 40
0.3333333333333333
 40
0.3333333333333333
 40
0.3333333333333333
 40
1.0
 40
1.0
 40
1.0
 40
1.0
 10
8.8641
 20
4.865
 30
0.0
 10
8.8641
 20
4.865
 30
0.0
 10
36.5866
 20
4.865
 30
0.0
 10
36.5866
 20
4.865
 30
0.0
 10
36.5866
 20
4.865
 30
0.0
 10
36.5866
 20
4.865
 30
0.0
 10
37.1109
 20
4.865
 30
0.0
 10
37.1109
 20
4.865
 30
0.0
  0
SPLINE
  5
1B9
330
1F
100
AcDbEntity
  8
ROUND
100
AcDbSpline
210
0.0
220
0.0
230
1.0
 70
     8
 71
     3
 72
    16
 73
    12
 74
     0
 42
0.0000000001
 43
0.0000000001
 40
0.0
 40
0.0
 40
0.0
 40
0.0
 40
0.25
 40
0.25
 40
0.25
 40
0.25
 40
0.5
 40
0.5
 40
0.5
 40
0.5
 40
1.0
 40
1.0
 40
1.0
 40
1.0
 10
39.278
 20
8.0124
 30
0.0
 10
39.2376
 20
7.2439
 30
0.0
 10
39.1974
 20
6.476
 30
0.0
 10
39.1574
 20
5.7072
 30
0.0
 10
39.1574
 20
5.7072
 30
0.0
 10
39.1429
 20
5.4326
 30
0.0
 10
39.2074
 20
5.0054
 30
0.0
 10
38.8699
 20
4.8871
 30
0.0
 10
38.8699
 20
4.8871
 30
0.0
 10
38.8274
 20
4.8722
 30
0.0
 10
38.7846
 20
4.8667
 30
0.0
 10
38.7398
 20
4.865
 30
0.0
  0
SPLINE
  5
1BA
330
1F
100
AcDbEntity
  8
ROUND
100
AcDbSpline
210
0.0
220
0.0
230
1.0
 70
    24
 71
     3
 72
    16
 73
    12
 74
     0
 42
0.0000000001
 43
0.0000000001
 40
0.0
 40
0.0
 40
0.0
 40
0.0
 40
0.25
 40
0.25
 40
0.25
 40
0.25
 40
0.5
 40
0.5
 40
0.5
 40
0.5
 40
1.0
 40
1.0
 40
1.0
 40
1.0
 10
38.7398
 20
4.865
 30
0.0
 10
38.7398
 20
4.865
 30
0.0
 10
38.2151
 20
4.865
 30
0.0
 10
38.2151
 20
4.865
 30
0.0
 10
38.2151
 20
4.865
 30
0.0
 10
38.2151
 20
4.865
 30
0.0
 10
10.4929
 20
4.865
 30
0.0
 10
10.4929
 20
4.865
 30
0.0
 10
10.4929
 20
4.865
 30
0.0
 10
10.4929
 20
4.865
 30
0.0
 10
9.9683
 20
4.865
 30
0.0
 10
9.9683
 20
4.865
 30
0.0
  0
SPLINE
  5
1BB
330
1F
100
AcDbEntity
  8
ROUND
100
AcDbSpline
210
0.0
220
0.0
230
1.0
 70
     8
 71
     3
 72
     8
 73
     4
 74
     0
 42
0.0000000001
 43
0.0000000001
 40
0.0
 40
0.0
 40
0.0
 40
0.0
 40
1.0
 40
1.0
 40
1.0
 40
1.0
 10
7.8974
 20
6.1792
 30
0.0
 10
7.885
 20
6.791
 30
0.0
 10
7.8334
 20
7.402
 30
0.0
 10
7.8015
 20
8.0124
 30
0.0
  0
SPLINE
  5
1BC
330
1F
100
AcDbEntity
  8
ROUND
100
AcDbSpline
210
0.0
220
0.0
230
1.0
 70
     8
 71
     3
 72
    16
 73
    12
 74
     0
 42
0.0000000001
 43
0.0000000001
 40
0.0
 40
0.0
 40
0.0
 40
0.0
 40
0.25
 40
0.25
 40
0.25
 40
0.25
 40
0.5
 40
0.5
 40
0.5
 40
0.5
 40
1.0
 40
1.0
 40
1.0
 40
1.0
 10
34.4371
 20
-10.3485
 30
0.0
 10
34.4371
 20
-10.3485
 30
0.0
 10
34.4281
 20
-10.8731
 30
0.0
 10
34.4281
 20
-10.8731
 30
0.0
 10
34.4281
 20
-10.8731
 30
0.0
 10
34.4281
 20
-10.8731
 30
0.0
 10
34.3927
 20
-12.894
 30
0.0
 10
34.3927
 20
-12.894
 30
0.0
 10
34.3927
 20
-12.894
 30
0.0
 10
34.3927
 20
-12.894
 30
0.0
 10
34.3832
 20
-13.4253
 30
0.0
 10
34.3832
 20
-13.4253
 30
0.0
  0
SPLINE
  5
1BD
330
1F
100
AcDbEntity
  8
ROUND
100
AcDbSpline
210
0.0
220
0.0
230
1.0
 70
     8
 71
     3
 72
     8
 73
     4
 74
     0
 42
0.0000000001
 43
0.0000000001
 40
0.0
 40
0.0
 40
0.0
 40
0.0
 40
1.0
 40
1.0
 40
1.0
 40
1.0
 10
34.3832
 20
-13.4253
 30
0.0
 10
34.3788
 20
-13.4661
 30
0.0
 10
34.3448
 20
-13.4939
 30
0.0
 10
34.3048
 20
-13.4957
 30
0.0
  0
SPLINE
  5
1BE
330
1F
100
AcDbEntity
  8
ROUND
100
AcDbSpline
210
0.0
220
0.0
230
1.0
 70
    24
 71
     3
 72
     8
 73
     4
 74
     0
 42
0.0000000001
 43
0.0000000001
 40
0.0
 40
0.0
 40
0.0
 40
0.0
 40
1.0
 40
1.0
 40
1.0
 40
1.0
 10
34.3048
 20
-13.4957
 30
0.0
 10
34.3048
 20
-13.4957
 30
0.0
 10
33.9519
 20
-13.4957
 30
0.0
 10
33.9519
 20
-13.4957
 30
0.0
  0
SPLINE
  5
1BF
330
1F
100
AcDbEntity
  8
ROUND
100
AcDbSpline
210
0.0
220
0.0
230
1.0
 70
     8
 71
     3
 72
    16
 73
    12
 74
     0
 42
0.0000000001
 43
0.0000000001
 40
0.0
 40
0.0
 40
0.0
 40
0.0
 40
0.25
 40
0.25
 40
0.25
 40
0.25
 40
0.5
 40
0.5
 40
0.5
 40
0.5
 40
1.0
 40
1.0
 40
1.0
 40
1.0
 10
28.8794
 20
-26.0872
 30
0.0
 10
29.2169
 20
-26.0872
 30
0.0
 10
29.5193
 20
-26.0921
 30
0.0
 10
29.8415
 20
-26.0039
 30
0.0
 10
29.8415
 20
-26.0039
 30
0.0
 10
30.6387
 20
-25.785
 30
0.0
 10
31.1734
 20
-25.0787
 30
0.0
 10
31.4213
 20
-24.3262
 30
0.0
 10
31.4213
 20
-24.3262
 30
0.0
 10
31.5278
 20
-24.0016
 30
0.0
 10
31.5487
 20
-23.6391
 30
0.0
 10
31.5892
 20
-23.3063
 30
0.0
  0
SPLINE
  5
1C0
330
1F
100
AcDbEntity
  8
ROUND
100
AcDbSpline
210
0.0
220
0.0
230
1.0
 70
     8
 71
     3
 72
    12
 73
     8
 74
     0
 42
0.0000000001
 43
0.0000000001
 40
0.0
 40
0.0
 40
0.0
 40
0.0
 40
0.3333333333333333
 40
0.3333333333333333
 40
0.3333333333333333
 40
0.3333333333333333
 40
1.0
 40
1.0
 40
1.0
 40
1.0
 10
31.5892
 20
-23.3063
 30
0.0
 10
31.5892
 20
-23.3063
 30
0.0
 10
32.7204
 20
-14.0165
 30
0.0
 10
32.7204
 20
-14.0165
 30
0.0
 10
32.7204
 20
-14.0165
 30
0.0
 10
32.7204
 20
-14.0165
 30
0.0
 10
32.7843
 20
-13.4957
 30
0.0
 10
32.7843
 20
-13.4957
 30
0.0
  0
SPLINE
  5
1C1
330
1F
100
AcDbEntity
  8
ROUND
100
AcDbSpline
210
0.0
220
0.0
230
1.0
 70
     8
 71
     3
 72
    16
 73
    12
 74
     0
 42
0.0000000001
 43
0.0000000001
 40
0.0
 40
0.0
 40
0.0
 40
0.0
 40
0.25
 40
0.25
 40
0.25
 40
0.25
 40
0.5
 40
0.5
 40
0.5
 40
0.5
 40
1.0
 40
1.0
 40
1.0
 40
1.0
 10
12.6422
 20
-10.3485
 30
0.0
 10
12.6422
 20
-10.3485
 30
0.0
 10
12.6515
 20
-10.8731
 30
0.0
 10
12.6515
 20
-10.8731
 30
0.0
 10
12.6515
 20
-10.8731
 30
0.0
 10
12.6515
 20
-10.8731
 30
0.0
 10
12.687
 20
-12.894
 30
0.0
 10
12.687
 20
-12.894
 30
0.0
 10
12.687
 20
-12.894
 30
0.0
 10
12.687
 20
-12.894
 30
0.0
 10
12.6965
 20
-13.4253
 30
0.0
 10
12.6965
 20
-13.4253
 30
0.0
  0
SPLINE
  5
1C2
330
1F
100
AcDbEntity
  8
ROUND
100
AcDbSpline
210
0.0
220
0.0
230
1.0
 70
     8
 71
     3
 72
     8
 73
     4
 74
     0
 42
0.0000000001
 43
0.0000000001
 40
0.0
 40
0.0
 40
0.0
 40
0.0
 40
1.0
 40
1.0
 40
1.0
 40
1.0
 10
12.6965
 20
-13.4253
 30
0.0
 10
12.7004
 20
-13.4648
 30
0.0
 10
12.7347
 20
-13.4957
 30
0.0
 10
12.7747
 20
-13.4957
 30
0.0
  0
SPLINE
  5
1C3
330
1F
100
AcDbEntity
  8
ROUND
100
AcDbSpline
210
0.0
220
0.0
230
1.0
 70
    24
 71
     3
 72
    16
 73
    12
 74
     0
 42
0.0000000001
 43
0.0000000001
 40
0.0
 40
0.0
 40
0.0
 40
0.0
 40
0.25
 40
0.25
 40
0.25
 40
0.25
 40
0.5
 40
0.5
 40
0.5
 40
0.5
 40
1.0
 40
1.0
 40
1.0
 40
1.0
 10
12.7747
 20
-13.4957
 30
0.0
 10
12.7747
 20
-13.4957
 30
0.0
 10
13.2993
 20
-13.4957
 30
0.0
 10
13.2993
 20
-13.4957
 30
0.0
 10
13.2993
 20
-13.4957
 30
0.0
 10
13.2993
 20
-13.4957
 30
0.0
 10
27.3703
 20
-13.4957
 30
0.0
 10
27.3703
 20
-13.4957
 30
0.0
 10
27.3703
 20
-13.4957
 30
0.0
 10
27.3703
 20
-13.4957
 30
0.0
 10
27.8946
 20
-13.4957
 30
0.0
 10
27.8946
 20
-13.4957
 30
0.0
  0
SPLINE
  5
1C4
330
1F
100
AcDbEntity
  8
ROUND
100
AcDbSpline
210
0.0
220
0.0
230
1.0
 70
     8
 71
     3
 72
     8
 73
     4
 74
     0
 42
0.0000000001
 43
0.0000000001
 40
0.0
 40
0.0
 40
0.0
 40
0.0
 40
1.0
 40
1.0
 40
1.0
 40
1.0
 10
26.7549
 20
-24.6889
 30
0.0
 10
27.0854
 20
-24.2364
 30
0.0
 10
27.0807
 20
-23.6412
 30
0.0
 10
27.1179
 20
-23.1088
 30
0.0
  0
SPLINE
  5
1C5
330
1F
100
AcDbEntity
  8
ROUND
100
AcDbSpline
210
0.0
220
0.0
230
1.0
 70
     8
 71
     3
 72
    12
 73
     8
 74
     0
 42
0.0000000001
 43
0.0000000001
 40
0.0
 40
0.0
 40
0.0
 40
0.0
 40
0.3333333333333333
 40
0.3333333333333333
 40
0.3333333333333333
 40
0.3333333333333333
 40
1.0
 40
1.0
 40
1.0
 40
1.0
 10
27.1179
 20
-23.1088
 30
0.0
 10
27.1179
 20
-23.1088
 30
0.0
 10
27.7569
 20
-14.0188
 30
0.0
 10
27.7569
 20
-14.0188
 30
0.0
 10
27.7569
 20
-14.0188
 30
0.0
 10
27.7569
 20
-14.0188
 30
0.0
 10
27.7933
 20
-13.4957
 30
0.0
 10
27.7933
 20
-13.4957
 30
0.0
  0
SPLINE
  5
1C6
330
1F
100
AcDbEntity
  8
ROUND
100
AcDbSpline
210
0.0
220
0.0
230
1.0
 70
     8
 71
     3
 72
    20
 73
    16
 74
     0
 42
0.0000000001
 43
0.0000000001
 40
0.0
 40
0.0
 40
0.0
 40
0.0
 40
0.2
 40
0.2
 40
0.2
 40
0.2
 40
0.4
 40
0.4
 40
0.4
 40
0.4
 40
0.6
 40
0.6
 40
0.6
 40
0.6
 40
1.0
 40
1.0
 40
1.0
 40
1.0
 10
29.1037
 20
-13.4957
 30
0.0
 10
28.8578
 20
-16.9959
 30
0.0
 10
28.6659
 20
-20.5007
 30
0.0
 10
28.3623
 20
-23.9962
 30
0.0
 10
28.3623
 20
-23.9962
 30
0.0
 10
28.3486
 20
-24.1542
 30
0.0
 10
28.3203
 20
-24.3107
 30
0.0
 10
28.2901
 20
-24.4666
 30
0.0
 10
28.2901
 20
-24.4666
 30
0.0
 10
28.27
 20
-24.5731
 30
0.0
 10
28.2414
 20
-24.6848
 30
0.0
 10
28.2102
 20
-24.7891
 30
0.0
 10
28.2102
 20
-24.7891
 30
0.0
 10
28.0465
 20
-25.3306
 30
0.0
 10
27.7289
 20
-26.0366
 30
0.0
 10
27.0854
 20
-26.0872
 30
0.0
  0
SPLINE
  5
1C7
330
1F
100
AcDbEntity
  8
ROUND
100
AcDbSpline
210
0.0
220
0.0
230
1.0
 70
    24
 71
     3
 72
     8
 73
     4
 74
     0
 42
0.0000000001
 43
0.0000000001
 40
0.0
 40
0.0
 40
0.0
 40
0.0
 40
1.0
 40
1.0
 40
1.0
 40
1.0
 10
27.0854
 20
-26.0872
 30
0.0
 10
27.0854
 20
-26.0872
 30
0.0
 10
26.3953
 20
-26.0872
 30
0.0
 10
26.3953
 20
-26.0872
 30
0.0
  0
SPLINE
  5
1C8
330
1F
100
AcDbEntity
  8
ROUND
100
AcDbSpline
210
0.0
220
0.0
230
1.0
 70
     8
 71
     3
 72
     8
 73
     4
 74
     0
 42
0.0000000001
 43
0.0000000001
 40
0.0
 40
0.0
 40
0.0
 40
0.0
 40
1.0
 40
1.0
 40
1.0
 40
1.0
 10
30.2524
 20
-26.0673
 30
0.0
 10
29.9792
 20
-26.1001
 30
0.0
 10
29.701
 20
-26.0872
 30
0.0
 10
29.4265
 20
-26.0872
 30
0.0
  0
SPLINE
  5
1C9
330
1F
100
AcDbEntity
  8
ROUND
100
AcDbSpline
210
0.0
220
0.0
230
1.0
 70
    24
 71
     3
 72
    12
 73
     8
 74
     0
 42
0.0000000001
 43
0.0000000001
 40
0.0
 40
0.0
 40
0.0
 40
0.0
 40
0.3333333333333333
 40
0.3333333333333333
 40
0.3333333333333333
 40
0.3333333333333333
 40
1.0
 40
1.0
 40
1.0
 40
1.0
 10
29.4265
 20
-26.0872
 30
0.0
 10
29.4265
 20
-26.0872
 30
0.0
 10
27.61
 20
-26.0872
 30
0.0
 10
27.61
 20
-26.0872
 30
0.0
 10
27.61
 20
-26.0872
 30
0.0
 10
27.61
 20
-26.0872
 30
0.0
 10
27.0854
 20
-26.0872
 30
0.0
 10
27.0854
 20
-26.0872
 30
0.0
  0
SPLINE
  5
1CA
330
1F
100
AcDbEntity
  8
ROUND
100
AcDbSpline
210
0.0
220
0.0
230
1.0
 70
     8
 71
     3
 72
     8
 73
     4
 74
     0
 42
0.0000000001
 43
0.0000000001
 40
0.0
 40
0.0
 40
0.0
 40
0.0
 40
1.0
 40
1.0
 40
1.0
 40
1.0
 10
27.0854
 20
-26.0872
 30
0.0
 10
24.7242
 20
-26.0825
 30
0.0
 10
22.3635
 20
-26.0872
 30
0.0
 10
20.0024
 20
-26.0872
 30
0.0
  0
SPLINE
  5
1CB
330
1F
100
AcDbEntity
  8
ROUND
100
AcDbSpline
210
0.0
220
0.0
230
1.0
 70
    24
 71
     3
 72
    16
 73
    12
 74
     0
 42
0.0000000001
 43
0.0000000001
 40
0.0
 40
0.0
 40
0.0
 40
0.0
 40
0.25
 40
0.25
 40
0.25
 40
0.25
 40
0.5
 40
0.5
 40
0.5
 40
0.5
 40
1.0
 40
1.0
 40
1.0
 40
1.0
 10
20.0024
 20
-26.0872
 30
0.0
 10
20.0024
 20
-26.0872
 30
0.0
 10
19.9941
 20
-26.0872
 30
0.0
 10
19.9941
 20
-26.0872
 30
0.0
 10
19.9941
 20
-26.0872
 30
0.0
 10
19.9941
 20
-26.0872
 30
0.0
 10
19.4697
 20
-26.0872
 30
0.0
 10
19.4697
 20
-26.0872
 30
0.0
 10
19.4697
 20
-26.0872
 30
0.0
 10
19.4697
 20
-26.0872
 30
0.0
 10
17.653
 20
-26.0872
 30
0.0
 10
17.653
 20
-26.0872
 30
0.0
  0
SPLINE
  5
1CC
330
1F
100
AcDbEntity
  8
ROUND
100
AcDbSpline
210
0.0
220
0.0
230
1.0
 70
     8
 71
     3
 72
     8
 73
     4
 74
     0
 42
0.0000000001
 43
0.0000000001
 40
0.0
 40
0.0
 40
0.0
 40
0.0
 40
1.0
 40
1.0
 40
1.0
 40
1.0
 10
17.653
 20
-26.0872
 30
0.0
 10
17.3782
 20
-26.0872
 30
0.0
 10
17.1005
 20
-26.1001
 30
0.0
 10
16.8268
 20
-26.0673
 30
0.0
  0
SPLINE
  5
1CD
330
1F
100
AcDbEntity
  8
ROUND
100
AcDbSpline
210
0.0
220
0.0
230
1.0
 70
     8
 71
     3
 72
    16
 73
    12
 74
     0
 42
0.0000000001
 43
0.0000000001
 40
0.0
 40
0.0
 40
0.0
 40
0.0
 40
0.25
 40
0.25
 40
0.25
 40
0.25
 40
0.5
 40
0.5
 40
0.5
 40
0.5
 40
1.0
 40
1.0
 40
1.0
 40
1.0
 10
14.537
 20
-23.8288
 30
0.0
 10
14.5772
 20
-24.0493
 30
0.0
 10
14.6246
 20
-24.2586
 30
0.0
 10
14.7105
 20
-24.4666
 30
0.0
 10
14.7105
 20
-24.4666
 30
0.0
 10
14.9364
 20
-25.013
 30
0.0
 10
15.348
 20
-25.4734
 30
0.0
 10
15.8652
 20
-25.7592
 30
0.0
 10
15.8652
 20
-25.7592
 30
0.0
 10
16.0616
 20
-25.868
 30
0.0
 10
16.265
 20
-25.9387
 30
0.0
 10
16.479
 20
-26.0039
 30
0.0
  0
SPLINE
  5
1CE
330
1F
100
AcDbEntity
  8
ROUND
100
AcDbSpline
210
0.0
220
0.0
230
1.0
 70
     8
 71
     3
 72
    12
 73
     8
 74
     0
 42
0.0000000001
 43
0.0000000001
 40
0.0
 40
0.0
 40
0.0
 40
0.0
 40
0.3333333333333333
 40
0.3333333333333333
 40
0.3333333333333333
 40
0.3333333333333333
 40
1.0
 40
1.0
 40
1.0
 40
1.0
 10
14.2954
 20
-13.4957
 30
0.0
 10
14.2954
 20
-13.4957
 30
0.0
 10
14.3586
 20
-14.0165
 30
0.0
 10
14.3586
 20
-14.0165
 30
0.0
 10
14.3586
 20
-14.0165
 30
0.0
 10
14.3586
 20
-14.0165
 30
0.0
 10
15.4906
 20
-23.3084
 30
0.0
 10
15.4906
 20
-23.3084
 30
0.0
  0
SPLINE
  5
1CF
330
1F
100
AcDbEntity
  8
ROUND
100
AcDbSpline
210
0.0
220
0.0
230
1.0
 70
     8
 71
     3
 72
    16
 73
    12
 74
     0
 42
0.0000000001
 43
0.0000000001
 40
0.0
 40
0.0
 40
0.0
 40
0.0
 40
0.25
 40
0.25
 40
0.25
 40
0.25
 40
0.5
 40
0.5
 40
0.5
 40
0.5
 40
1.0
 40
1.0
 40
1.0
 40
1.0
 10
15.4906
 20
-23.3084
 30
0.0
 10
15.5308
 20
-23.6401
 30
0.0
 10
15.5514
 20
-24.0019
 30
0.0
 10
15.6581
 20
-24.3262
 30
0.0
 10
15.6581
 20
-24.3262
 30
0.0
 10
15.9054
 20
-25.0776
 30
0.0
 10
16.4409
 20
-25.786
 30
0.0
 10
17.238
 20
-26.0039
 30
0.0
 10
17.238
 20
-26.0039
 30
0.0
 10
17.5602
 20
-26.0918
 30
0.0
 10
17.8624
 20
-26.0872
 30
0.0
 10
18.1998
 20
-26.0872
 30
0.0
  0
SPLINE
  5
1D0
330
1F
100
AcDbEntity
  8
ROUND
100
AcDbSpline
210
0.0
220
0.0
230
1.0
 70
    24
 71
     3
 72
     8
 73
     4
 74
     0
 42
0.0000000001
 43
0.0000000001
 40
0.0
 40
0.0
 40
0.0
 40
0.0
 40
1.0
 40
1.0
 40
1.0
 40
1.0
 10
20.6837
 20
-26.0872
 30
0.0
 10
20.6837
 20
-26.0872
 30
0.0
 10
20.339
 20
-26.0872
 30
0.0
 10
20.339
 20
-26.0872
 30
0.0
  0
SPLINE
  5
1D1
330
1F
100
AcDbEntity
  8
ROUND
100
AcDbSpline
210
0.0
220
0.0
230
1.0
 70
     8
 71
     3
 72
    20
 73
    16
 74
     0
 42
0.0000000001
 43
0.0000000001
 40
0.0
 40
0.0
 40
0.0
 40
0.0
 40
0.2
 40
0.2
 40
0.2
 40
0.2
 40
0.4
 40
0.4
 40
0.4
 40
0.4
 40
0.6
 40
0.6
 40
0.6
 40
0.6
 40
1.0
 40
1.0
 40
1.0
 40
1.0
 10
20.339
 20
-26.0872
 30
0.0
 10
20.1581
 20
-26.0872
 30
0.0
 10
19.9593
 20
-26.1104
 30
0.0
 10
19.7822
 20
-26.0501
 30
0.0
 10
19.7822
 20
-26.0501
 30
0.0
 10
19.5718
 20
-25.9784
 30
0.0
 10
19.4025
 20
-25.8188
 30
0.0
 10
19.272
 20
-25.6438
 30
0.0
 10
19.272
 20
-25.6438
 30
0.0
 10
18.9859
 20
-25.2614
 30
0.0
 10
18.8505
 20
-24.7889
 30
0.0
 10
18.7623
 20
-24.3262
 30
0.0
 10
18.7623
 20
-24.3262
 30
0.0
 10
18.6989
 20
-23.9916
 30
0.0
 10
18.6894
 20
-23.6427
 30
0.0
 10
18.6656
 20
-23.3055
 30
0.0
  0
SPLINE
  5
1D2
330
1F
100
AcDbEntity
  8
ROUND
100
AcDbSpline
210
0.0
220
0.0
230
1.0
 70
     8
 71
     3
 72
    12
 73
     8
 74
     0
 42
0.0000000001
 43
0.0000000001
 40
0.0
 40
0.0
 40
0.0
 40
0.0
 40
0.3333333333333333
 40
0.3333333333333333
 40
0.3333333333333333
 40
0.3333333333333333
 40
1.0
 40
1.0
 40
1.0
 40
1.0
 10
18.6656
 20
-23.3055
 30
0.0
 10
18.6656
 20
-23.3055
 30
0.0
 10
18.0121
 20
-14.0188
 30
0.0
 10
18.0121
 20
-14.0188
 30
0.0
 10
18.0121
 20
-14.0188
 30
0.0
 10
18.0121
 20
-14.0188
 30
0.0
 10
17.9753
 20
-13.4957
 30
0.0
 10
17.9753
 20
-13.4957
 30
0.0
  0
SPLINE
  5
1D3
330
1F
100
AcDbEntity
  8
ROUND
100
AcDbSpline
210
0.0
220
0.0
230
1.0
 70
     8
 71
     3
 72
     8
 73
     4
 74
     0
 42
0.0000000001
 43
0.0000000001
 40
0.0
 40
0.0
 40
0.0
 40
0.0
 40
1.0
 40
1.0
 40
1.0
 40
1.0
 10
20.3246
 20
-24.6889
 30
0.0
 10
19.9938
 20
-24.2364
 30
0.0
 10
19.9985
 20
-23.6412
 30
0.0
 10
19.9611
 20
-23.1088
 30
0.0
  0
SPLINE
  5
1D4
330
1F
100
AcDbEntity
  8
ROUND
100
AcDbSpline
210
0.0
220
0.0
230
1.0
 70
     8
 71
     3
 72
    12
 73
     8
 74
     0
 42
0.0000000001
 43
0.0000000001
 40
0.0
 40
0.0
 40
0.0
 40
0.0
 40
0.3333333333333333
 40
0.3333333333333333
 40
0.3333333333333333
 40
0.3333333333333333
 40
1.0
 40
1.0
 40
1.0
 40
1.0
 10
19.9611
 20
-23.1088
 30
0.0
 10
19.9611
 20
-23.1088
 30
0.0
 10
19.3225
 20
-14.0188
 30
0.0
 10
19.3225
 20
-14.0188
 30
0.0
 10
19.3225
 20
-14.0188
 30
0.0
 10
19.3225
 20
-14.0188
 30
0.0
 10
19.2857
 20
-13.4957
 30
0.0
 10
19.2857
 20
-13.4957
 30
0.0
  0
SPLINE
  5
1D5
330
1F
100
AcDbEntity
  8
ROUND
100
AcDbSpline
210
0.0
220
0.0
230
1.0
 70
     8
 71
     3
 72
     8
 73
     4
 74
     0
 42
0.0000000001
 43
0.0000000001
 40
0.0
 40
0.0
 40
0.0
 40
0.0
 40
1.0
 40
1.0
 40
1.0
 40
1.0
 10
23.1462
 20
-26.0872
 30
0.0
 10
23.1717
 20
-21.8905
 30
0.0
 10
23.1465
 20
-17.6914
 30
0.0
 10
23.1465
 20
-13.4957
 30
0.0
  0
SPLINE
  5
1D6
330
1F
100
AcDbEntity
  8
ROUND
100
AcDbSpline
210
0.0
220
0.0
230
1.0
 70
     8
 71
     3
 72
     8
 73
     4
 74
     0
 42
0.0000000001
 43
0.0000000001
 40
0.0
 40
0.0
 40
0.0
 40
0.0
 40
1.0
 40
1.0
 40
1.0
 40
1.0
 10
23.9332
 20
-26.0872
 30
0.0
 10
23.9075
 20
-21.8905
 30
0.0
 10
23.9327
 20
-17.6914
 30
0.0
 10
23.9327
 20
-13.4957
 30
0.0
  0
SPLINE
  5
1D7
330
1F
100
AcDbEntity
  8
ROUND
100
AcDbSpline
210
0.0
220
0.0
230
1.0
 70
     8
 71
     3
 72
    24
 73
    20
 74
     0
 42
0.0000000001
 43
0.0000000001
 40
0.0
 40
0.0
 40
0.0
 40
0.0
 40
0.1666666666666667
 40
0.1666666666666667
 40
0.1666666666666667
 40
0.1666666666666667
 40
0.3333333333333333
 40
0.3333333333333333
 40
0.3333333333333333
 40
0.3333333333333333
 40
0.5
 40
0.5
 40
0.5
 40
0.5
 40
0.6666666666666666
 40
0.6666666666666666
 40
0.6666666666666666
 40
0.6666666666666666
 40
1.0
 40
1.0
 40
1.0
 40
1.0
 10
23.9327
 20
-25.3002
 30
0.0
 10
23.9327
 20
-25.3002
 30
0.0
 10
24.4571
 20
-25.3002
 30
0.0
 10
24.4571
 20
-25.3002
 30
0.0
 10
24.4571
 20
-25.3002
 30
0.0
 10
24.4571
 20
-25.3002
 30
0.0
 10
24.5706
 20
-25.3002
 30
0.0
 10
24.5706
 20
-25.3002
 30
0.0
 10
24.5706
 20
-25.3002
 30
0.0
 10
24.5706
 20
-25.3002
 30
0.0
 10
25.0952
 20
-25.3002
 30
0.0
 10
25.0952
 20
-25.3002
 30
0.0
 10
25.0952
 20
-25.3002
 30
0.0
 10
25.0952
 20
-25.3002
 30
0.0
 10
25.5907
 20
-25.1271
 30
0.0
 10
25.5907
 20
-25.1271
 30
0.0
 10
25.5907
 20
-25.1271
 30
0.0
 10
25.5907
 20
-25.1271
 30
0.0
 10
26.6203
 20
-24.768
 30
0.0
 10
26.6203
 20
-24.768
 30
0.0
  0
SPLINE
  5
1D8
330
1F
100
AcDbEntity
  8
ROUND
100
AcDbSpline
210
0.0
220
0.0
230
1.0
 70
     8
 71
     3
 72
     8
 73
     4
 74
     0
 42
0.0000000001
 43
0.0000000001
 40
0.0
 40
0.0
 40
0.0
 40
0.0
 40
1.0
 40
1.0
 40
1.0
 40
1.0
 10
26.562
 20
-24.7951
 30
0.0
 10
26.6562
 20
-24.7616
 30
0.0
 10
26.7309
 20
-24.7018
 30
0.0
 10
26.7969
 20
-24.6281
 30
0.0
  0
SPLINE
  5
1D9
330
1F
100
AcDbEntity
  8
ROUND
100
AcDbSpline
210
0.0
220
0.0
230
1.0
 70
     8
 71
     3
 72
    12
 73
     8
 74
     0
 42
0.0000000001
 43
0.0000000001
 40
0.0
 40
0.0
 40
0.0
 40
0.0
 40
0.3333333333333333
 40
0.3333333333333333
 40
0.3333333333333333
 40
0.3333333333333333
 40
1.0
 40
1.0
 40
1.0
 40
1.0
 10
31.1685
 20
-13.4957
 30
0.0
 10
31.1685
 20
-13.4957
 30
0.0
 10
31.1047
 20
-14.0165
 30
0.0
 10
31.1047
 20
-14.0165
 30
0.0
 10
31.1047
 20
-14.0165
 30
0.0
 10
31.1047
 20
-14.0165
 30
0.0
 10
29.9962
 20
-23.1297
 30
0.0
 10
29.9962
 20
-23.1297
 30
0.0
  0
SPLINE
  5
1DA
330
1F
100
AcDbEntity
  8
ROUND
100
AcDbSpline
210
0.0
220
0.0
230
1.0
 70
     8
 71
     3
 72
    24
 73
    20
 74
     0
 42
0.0000000001
 43
0.0000000001
 40
0.0
 40
0.0
 40
0.0
 40
0.0
 40
0.1666666666666667
 40
0.1666666666666667
 40
0.1666666666666667
 40
0.1666666666666667
 40
0.3333333333333333
 40
0.3333333333333333
 40
0.3333333333333333
 40
0.3333333333333333
 40
0.5
 40
0.5
 40
0.5
 40
0.5
 40
0.6666666666666666
 40
0.6666666666666666
 40
0.6666666666666666
 40
0.6666666666666666
 40
1.0
 40
1.0
 40
1.0
 40
1.0
 10
29.9962
 20
-23.1297
 30
0.0
 10
29.9715
 20
-23.3326
 30
0.0
 10
29.9552
 20
-23.5809
 30
0.0
 10
29.9078
 20
-23.7951
 30
0.0
 10
29.9078
 20
-23.7951
 30
0.0
 10
29.8815
 20
-23.914
 30
0.0
 10
29.8413
 20
-24.0292
 30
0.0
 10
29.7866
 20
-24.1374
 30
0.0
 10
29.7866
 20
-24.1374
 30
0.0
 10
29.7457
 20
-24.2197
 30
0.0
 10
29.6961
 20
-24.2978
 30
0.0
 10
29.6392
 20
-24.37
 30
0.0
 10
29.6392
 20
-24.37
 30
0.0
 10
29.5915
 20
-24.43
 30
0.0
 10
29.5388
 20
-24.4862
 30
0.0
 10
29.4809
 20
-24.5365
 30
0.0
 10
29.4809
 20
-24.5365
 30
0.0
 10
29.228
 20
-24.7582
 30
0.0
 10
28.9227
 20
-24.7788
 30
0.0
 10
28.5994
 20
-24.8443
 30
0.0
  0
SPLINE
  5
1DB
330
1F
100
AcDbEntity
  8
ROUND
100
AcDbSpline
210
0.0
220
0.0
230
1.0
 70
    24
 71
     3
 72
     8
 73
     4
 74
     0
 42
0.0000000001
 43
0.0000000001
 40
0.0
 40
0.0
 40
0.0
 40
0.0
 40
1.0
 40
1.0
 40
1.0
 40
1.0
 10
28.5994
 20
-24.8443
 30
0.0
 10
28.5994
 20
-24.8443
 30
0.0
 10
28.1651
 20
-24.9322
 30
0.0
 10
28.1651
 20
-24.9322
 30
0.0
  0
SPLINE
  5
1DC
330
1F
100
AcDbEntity
  8
ROUND
100
AcDbSpline
210
0.0
220
0.0
230
1.0
 70
     8
 71
     3
 72
    16
 73
    12
 74
     0
 42
0.0000000001
 43
0.0000000001
 40
0.0
 40
0.0
 40
0.0
 40
0.0
 40
0.25
 40
0.25
 40
0.25
 40
0.25
 40
0.5
 40
0.5
 40
0.5
 40
0.5
 40
1.0
 40
1.0
 40
1.0
 40
1.0
 10
32.5422
 20
-23.8288
 30
0.0
 10
32.502
 20
-24.0493
 30
0.0
 10
32.4546
 20
-24.2586
 30
0.0
 10
32.3688
 20
-24.4666
 30
0.0
 10
32.3688
 20
-24.4666
 30
0.0
 10
32.1429
 20
-25.013
 30
0.0
 10
31.7317
 20
-25.4734
 30
0.0
 10
31.2143
 20
-25.7592
 30
0.0
 10
31.2143
 20
-25.7592
 30
0.0
 10
31.0173
 20
-25.868
 30
0.0
 10
30.8145
 20
-25.9387
 30
0.0
 10
30.6005
 20
-26.0039
 30
0.0
  0
SPLINE
  5
1DD
330
1F
100
AcDbEntity
  8
ROUND
100
AcDbSpline
210
0.0
220
0.0
230
1.0
 70
     8
 71
     3
 72
     8
 73
     4
 74
     0
 42
0.0000000001
 43
0.0000000001
 40
0.0
 40
0.0
 40
0.0
 40
0.0
 40
1.0
 40
1.0
 40
1.0
 40
1.0
 10
20.2823
 20
-24.6281
 30
0.0
 10
20.3483
 20
-24.7015
 30
0.0
 10
20.4234
 20
-24.7619
 30
0.0
 10
20.5172
 20
-24.7951
 30
0.0
  0
SPLINE
  5
1DE
330
1F
100
AcDbEntity
  8
ROUND
100
AcDbSpline
210
0.0
220
0.0
230
1.0
 70
     8
 71
     3
 72
    12
 73
     8
 74
     0
 42
0.0000000001
 43
0.0000000001
 40
0.0
 40
0.0
 40
0.0
 40
0.0
 40
0.3333333333333333
 40
0.3333333333333333
 40
0.3333333333333333
 40
0.3333333333333333
 40
1.0
 40
1.0
 40
1.0
 40
1.0
 10
15.9111
 20
-13.4957
 30
0.0
 10
15.9111
 20
-13.4957
 30
0.0
 10
15.9742
 20
-14.0165
 30
0.0
 10
15.9742
 20
-14.0165
 30
0.0
 10
15.9742
 20
-14.0165
 30
0.0
 10
15.9742
 20
-14.0165
 30
0.0
 10
17.0791
 20
-23.0949
 30
0.0
 10
17.0791
 20
-23.0949
 30
0.0
  0
SPLINE
  5
1DF
330
1F
100
AcDbEntity
  8
ROUND
100
AcDbSpline
210
0.0
220
0.0
230
1.0
 70
     8
 71
     3
 72
    12
 73
     8
 74
     0
 42
0.0000000001
 43
0.0000000001
 40
0.0
 40
0.0
 40
0.0
 40
0.0
 40
0.3333333333333333
 40
0.3333333333333333
 40
0.3333333333333333
 40
0.3333333333333333
 40
1.0
 40
1.0
 40
1.0
 40
1.0
 10
17.0791
 20
-23.0949
 30
0.0
 10
17.1065
 20
-23.3187
 30
0.0
 10
17.1222
 20
-23.6005
 30
0.0
 10
17.181
 20
-23.835
 30
0.0
 10
17.181
 20
-23.835
 30
0.0
 10
17.2699
 20
-24.1916
 30
0.0
 10
17.4896
 20
-24.5053
 30
0.0
 10
17.8126
 20
-24.6858
 30
0.0
  0
SPLINE
  5
1E0
330
1F
100
AcDbEntity
  8
ROUND
100
AcDbSpline
210
0.0
220
0.0
230
1.0
 70
     8
 71
     3
 72
     8
 73
     4
 74
     0
 42
0.0000000001
 43
0.0000000001
 40
0.0
 40
0.0
 40
0.0
 40
0.0
 40
1.0
 40
1.0
 40
1.0
 40
1.0
 10
18.0497
 20
-24.7572
 30
0.0
 10
17.9567
 20
-24.7383
 30
0.0
 10
17.8673
 20
-24.7093
 30
0.0
 10
17.7819
 20
-24.6677
 30
0.0
  0
SPLINE
  5
1E1
330
1F
100
AcDbEntity
  8
ROUND
100
AcDbSpline
210
0.0
220
0.0
230
1.0
 70
     8
 71
     3
 72
     8
 73
     4
 74
     0
 42
0.0000000001
 43
0.0000000001
 40
0.0
 40
0.0
 40
0.0
 40
0.0
 40
1.0
 40
1.0
 40
1.0
 40
1.0
 10
14.3653
 20
2.2421
 30
0.0
 10
14.2508
 20
2.2485
 30
0.0
 10
14.1918
 20
2.3656
 30
0.0
 10
14.1818
 20
2.4679
 30
0.0
  0
SPLINE
  5
1E2
330
1F
100
AcDbEntity
  8
ROUND
100
AcDbSpline
210
0.0
220
0.0
230
1.0
 70
     8
 71
     3
 72
    16
 73
    12
 74
     0
 42
0.0000000001
 43
0.0000000001
 40
0.0
 40
0.0
 40
0.0
 40
0.0
 40
0.25
 40
0.25
 40
0.25
 40
0.25
 40
0.5
 40
0.5
 40
0.5
 40
0.5
 40
1.0
 40
1.0
 40
1.0
 40
1.0
 10
14.1818
 20
2.4679
 30
0.0
 10
14.1818
 20
2.4679
 30
0.0
 10
14.1297
 20
2.9897
 30
0.0
 10
14.1297
 20
2.9897
 30
0.0
 10
14.1297
 20
2.9897
 30
0.0
 10
14.1297
 20
2.9897
 30
0.0
 10
13.9953
 20
4.3432
 30
0.0
 10
13.9953
 20
4.3432
 30
0.0
 10
13.9953
 20
4.3432
 30
0.0
 10
13.9953
 20
4.3432
 30
0.0
 10
13.9433
 20
4.865
 30
0.0
 10
13.9433
 20
4.865
 30
0.0
  0
SPLINE
  5
1E3
330
1F
100
AcDbEntity
  8
ROUND
100
AcDbSpline
210
0.0
220
0.0
230
1.0
 70
     8
 71
     3
 72
     8
 73
     4
 74
     0
 42
0.0000000001
 43
0.0000000001
 40
0.0
 40
0.0
 40
0.0
 40
0.0
 40
1.0
 40
1.0
 40
1.0
 40
1.0
 10
17.1428
 20
-23.6157
 30
0.0
 10
17.1052
 20
-23.644
 30
0.0
 10
17.0345
 20
-23.6469
 30
0.0
 10
16.9907
 20
-23.6538
 30
0.0
  0
SPLINE
  5
1E4
330
1F
100
AcDbEntity
  8
ROUND
100
AcDbSpline
210
0.0
220
0.0
230
1.0
 70
     8
 71
     3
 72
    12
 73
     8
 74
     0
 42
0.0000000001
 43
0.0000000001
 40
0.0
 40
0.0
 40
0.0
 40
0.0
 40
0.3333333333333333
 40
0.3333333333333333
 40
0.3333333333333333
 40
0.3333333333333333
 40
1.0
 40
1.0
 40
1.0
 40
1.0
 10
16.9907
 20
-23.6538
 30
0.0
 10
16.9907
 20
-23.6538
 30
0.0
 10
15.9472
 20
-23.8288
 30
0.0
 10
15.9472
 20
-23.8288
 30
0.0
 10
15.9472
 20
-23.8288
 30
0.0
 10
15.9472
 20
-23.8288
 30
0.0
 10
15.5538
 20
-23.8288
 30
0.0
 10
15.5538
 20
-23.8288
 30
0.0
  0
SPLINE
  5
1E5
330
1F
100
AcDbEntity
  8
ROUND
100
AcDbSpline
210
0.0
220
0.0
230
1.0
 70
     8
 71
     3
 72
    12
 73
     8
 74
     0
 42
0.0000000001
 43
0.0000000001
 40
0.0
 40
0.0
 40
0.0
 40
0.0
 40
0.3333333333333333
 40
0.3333333333333333
 40
0.3333333333333333
 40
0.3333333333333333
 40
1.0
 40
1.0
 40
1.0
 40
1.0
 10
15.7546
 20
-13.4957
 30
0.0
 10
15.7546
 20
-13.4957
 30
0.0
 10
15.8177
 20
-14.0165
 30
0.0
 10
15.8177
 20
-14.0165
 30
0.0
 10
15.8177
 20
-14.0165
 30
0.0
 10
15.8177
 20
-14.0165
 30
0.0
 10
16.9317
 20
-23.1684
 30
0.0
 10
16.9317
 20
-23.1684
 30
0.0
  0
SPLINE
  5
1E6
330
1F
100
AcDbEntity
  8
ROUND
100
AcDbSpline
210
0.0
220
0.0
230
1.0
 70
     8
 71
     3
 72
    20
 73
    16
 74
     0
 42
0.0000000001
 43
0.0000000001
 40
0.0
 40
0.0
 40
0.0
 40
0.0
 40
0.2
 40
0.2
 40
0.2
 40
0.2
 40
0.4
 40
0.4
 40
0.4
 40
0.4
 40
0.6
 40
0.6
 40
0.6
 40
0.6
 40
1.0
 40
1.0
 40
1.0
 40
1.0
 10
16.9317
 20
-23.1684
 30
0.0
 10
16.9623
 20
-23.4221
 30
0.0
 10
16.9809
 20
-23.6752
 30
0.0
 10
17.0392
 20
-23.9238
 30
0.0
 10
17.0392
 20
-23.9238
 30
0.0
 10
17.0676
 20
-24.0436
 30
0.0
 10
17.113
 20
-24.1671
 30
0.0
 10
17.1704
 20
-24.2761
 30
0.0
 10
17.1704
 20
-24.2761
 30
0.0
 10
17.2395
 20
-24.4069
 30
0.0
 10
17.3184
 20
-24.5233
 30
0.0
 10
17.4151
 20
-24.6355
 30
0.0
 10
17.4151
 20
-24.6355
 30
0.0
 10
17.8193
 20
-25.1053
 30
0.0
 10
18.4756
 20
-25.1323
 30
0.0
 10
19.0395
 20
-25.2462
 30
0.0
  0
SPLINE
  5
1E7
330
1F
100
AcDbEntity
  8
ROUND
100
AcDbSpline
210
0.0
220
0.0
230
1.0
 70
     8
 71
     3
 72
    12
 73
     8
 74
     0
 42
0.0000000001
 43
0.0000000001
 40
0.0
 40
0.0
 40
0.0
 40
0.0
 40
0.3333333333333333
 40
0.3333333333333333
 40
0.3333333333333333
 40
0.3333333333333333
 40
1.0
 40
1.0
 40
1.0
 40
1.0
 10
19.2464
 20
-13.4957
 30
0.0
 10
19.2464
 20
-13.4957
 30
0.0
 10
19.2834
 20
-14.0188
 30
0.0
 10
19.2834
 20
-14.0188
 30
0.0
 10
19.2834
 20
-14.0188
 30
0.0
 10
19.2834
 20
-14.0188
 30
0.0
 10
19.9263
 20
-23.1656
 30
0.0
 10
19.9263
 20
-23.1656
 30
0.0
  0
SPLINE
  5
1E8
330
1F
100
AcDbEntity
  8
ROUND
100
AcDbSpline
210
0.0
220
0.0
230
1.0
 70
     8
 71
     3
 72
    16
 73
    12
 74
     0
 42
0.0000000001
 43
0.0000000001
 40
0.0
 40
0.0
 40
0.0
 40
0.0
 40
0.25
 40
0.25
 40
0.25
 40
0.25
 40
0.5
 40
0.5
 40
0.5
 40
0.5
 40
1.0
 40
1.0
 40
1.0
 40
1.0
 10
19.9263
 20
-23.1656
 30
0.0
 10
19.9492
 20
-23.4909
 30
0.0
 10
19.9593
 20
-23.8095
 30
0.0
 10
20.0268
 20
-24.1274
 30
0.0
 10
20.0268
 20
-24.1274
 30
0.0
 10
20.0938
 20
-24.4463
 30
0.0
 10
20.2447
 20
-24.8598
 30
0.0
 10
20.5494
 20
-25.0269
 30
0.0
 10
20.5494
 20
-25.0269
 30
0.0
 10
20.5793
 20
-25.0434
 30
0.0
 10
20.6102
 20
-25.0575
 30
0.0
 10
20.6429
 20
-25.0689
 30
0.0
  0
SPLINE
  5
1E9
330
1F
100
AcDbEntity
  8
ROUND
100
AcDbSpline
210
0.0
220
0.0
230
1.0
 70
     8
 71
     3
 72
    20
 73
    16
 74
     0
 42
0.0000000001
 43
0.0000000001
 40
0.0
 40
0.0
 40
0.0
 40
0.0
 40
0.2
 40
0.2
 40
0.2
 40
0.2
 40
0.4
 40
0.4
 40
0.4
 40
0.4
 40
0.6
 40
0.6
 40
0.6
 40
0.6
 40
1.0
 40
1.0
 40
1.0
 40
1.0
 10
20.6429
 20
-25.0689
 30
0.0
 10
20.6429
 20
-25.0689
 30
0.0
 10
21.138
 20
-25.2418
 30
0.0
 10
21.138
 20
-25.2418
 30
0.0
 10
21.138
 20
-25.2418
 30
0.0
 10
21.138
 20
-25.2418
 30
0.0
 10
21.7173
 20
-25.444
 30
0.0
 10
21.7173
 20
-25.444
 30
0.0
 10
21.7173
 20
-25.444
 30
0.0
 10
21.7173
 20
-25.444
 30
0.0
 10
22.2122
 20
-25.6164
 30
0.0
 10
22.2122
 20
-25.6164
 30
0.0
 10
22.2122
 20
-25.6164
 30
0.0
 10
22.2122
 20
-25.6164
 30
0.0
 10
22.2501
 20
-25.6164
 30
0.0
 10
22.2501
 20
-25.6164
 30
0.0
  0
SPLINE
  5
1EA
330
1F
100
AcDbEntity
  8
ROUND
100
AcDbSpline
210
0.0
220
0.0
230
1.0
 70
     8
 71
     3
 72
     8
 73
     4
 74
     0
 42
0.0000000001
 43
0.0000000001
 40
0.0
 40
0.0
 40
0.0
 40
0.0
 40
1.0
 40
1.0
 40
1.0
 40
1.0
 10
22.1687
 20
-25.3547
 30
0.0
 10
22.1475
 20
-25.3267
 30
0.0
 10
22.1243
 20
-25.3032
 30
0.0
 10
22.0885
 20
-25.3002
 30
0.0
  0
SPLINE
  5
1EB
330
1F
100
AcDbEntity
  8
ROUND
100
AcDbSpline
210
0.0
220
0.0
230
1.0
 70
     8
 71
     3
 72
     8
 73
     4
 74
     0
 42
0.0000000001
 43
0.0000000001
 40
0.0
 40
0.0
 40
0.0
 40
0.0
 40
1.0
 40
1.0
 40
1.0
 40
1.0
 10
24.9109
 20
-25.3542
 30
0.0
 10
24.9312
 20
-25.3272
 30
0.0
 10
24.9554
 20
-25.3032
 30
0.0
 10
24.991
 20
-25.3002
 30
0.0
  0
SPLINE
  5
1EC
330
1F
100
AcDbEntity
  8
ROUND
100
AcDbSpline
210
0.0
220
0.0
230
1.0
 70
     8
 71
     3
 72
    20
 73
    16
 74
     0
 42
0.0000000001
 43
0.0000000001
 40
0.0
 40
0.0
 40
0.0
 40
0.0
 40
0.2
 40
0.2
 40
0.2
 40
0.2
 40
0.4
 40
0.4
 40
0.4
 40
0.4
 40
0.6
 40
0.6
 40
0.6
 40
0.6
 40
1.0
 40
1.0
 40
1.0
 40
1.0
 10
24.8294
 20
-25.6164
 30
0.0
 10
24.8294
 20
-25.6164
 30
0.0
 10
24.8668
 20
-25.6164
 30
0.0
 10
24.8668
 20
-25.6164
 30
0.0
 10
24.8668
 20
-25.6164
 30
0.0
 10
24.8668
 20
-25.6164
 30
0.0
 10
25.362
 20
-25.4438
 30
0.0
 10
25.362
 20
-25.4438
 30
0.0
 10
25.362
 20
-25.4438
 30
0.0
 10
25.362
 20
-25.4438
 30
0.0
 10
25.9436
 20
-25.2406
 30
0.0
 10
25.9436
 20
-25.2406
 30
0.0
 10
25.9436
 20
-25.2406
 30
0.0
 10
25.9436
 20
-25.2406
 30
0.0
 10
26.4391
 20
-25.0681
 30
0.0
 10
26.4391
 20
-25.0681
 30
0.0
  0
SPLINE
  5
1ED
330
1F
100
AcDbEntity
  8
ROUND
100
AcDbSpline
210
0.0
220
0.0
230
1.0
 70
     8
 71
     3
 72
    16
 73
    12
 74
     0
 42
0.0000000001
 43
0.0000000001
 40
0.0
 40
0.0
 40
0.0
 40
0.0
 40
0.25
 40
0.25
 40
0.25
 40
0.25
 40
0.5
 40
0.5
 40
0.5
 40
0.5
 40
1.0
 40
1.0
 40
1.0
 40
1.0
 10
26.4391
 20
-25.0681
 30
0.0
 10
26.4711
 20
-25.057
 30
0.0
 10
26.5007
 20
-25.0429
 30
0.0
 10
26.5298
 20
-25.0269
 30
0.0
 10
26.5298
 20
-25.0269
 30
0.0
 10
26.8346
 20
-24.8601
 30
0.0
 10
26.9856
 20
-24.4455
 30
0.0
 10
27.0529
 20
-24.1274
 30
0.0
 10
27.0529
 20
-24.1274
 30
0.0
 10
27.1197
 20
-23.8095
 30
0.0
 10
27.13
 20
-23.4909
 30
0.0
 10
27.1529
 20
-23.1656
 30
0.0
  0
SPLINE
  5
1EE
330
1F
100
AcDbEntity
  8
ROUND
100
AcDbSpline
210
0.0
220
0.0
230
1.0
 70
     8
 71
     3
 72
    12
 73
     8
 74
     0
 42
0.0000000001
 43
0.0000000001
 40
0.0
 40
0.0
 40
0.0
 40
0.0
 40
0.3333333333333333
 40
0.3333333333333333
 40
0.3333333333333333
 40
0.3333333333333333
 40
1.0
 40
1.0
 40
1.0
 40
1.0
 10
27.1529
 20
-23.1656
 30
0.0
 10
27.1529
 20
-23.1656
 30
0.0
 10
27.7959
 20
-14.0188
 30
0.0
 10
27.7959
 20
-14.0188
 30
0.0
 10
27.7959
 20
-14.0188
 30
0.0
 10
27.7959
 20
-14.0188
 30
0.0
 10
27.8325
 20
-13.4957
 30
0.0
 10
27.8325
 20
-13.4957
 30
0.0
  0
SPLINE
  5
1EF
330
1F
100
AcDbEntity
  8
ROUND
100
AcDbSpline
210
0.0
220
0.0
230
1.0
 70
     8
 71
     3
 72
    12
 73
     8
 74
     0
 42
0.0000000001
 43
0.0000000001
 40
0.0
 40
0.0
 40
0.0
 40
0.0
 40
0.3333333333333333
 40
0.3333333333333333
 40
0.3333333333333333
 40
0.3333333333333333
 40
1.0
 40
1.0
 40
1.0
 40
1.0
 10
31.3249
 20
-13.4957
 30
0.0
 10
31.3249
 20
-13.4957
 30
0.0
 10
31.2613
 20
-14.0165
 30
0.0
 10
31.2613
 20
-14.0165
 30
0.0
 10
31.2613
 20
-14.0165
 30
0.0
 10
31.2613
 20
-14.0165
 30
0.0
 10
30.1478
 20
-23.1684
 30
0.0
 10
30.1478
 20
-23.1684
 30
0.0
  0
SPLINE
  5
1F0
330
1F
100
AcDbEntity
  8
ROUND
100
AcDbSpline
210
0.0
220
0.0
230
1.0
 70
     8
 71
     3
 72
    12
 73
     8
 74
     0
 42
0.0000000001
 43
0.0000000001
 40
0.0
 40
0.0
 40
0.0
 40
0.0
 40
0.3333333333333333
 40
0.3333333333333333
 40
0.3333333333333333
 40
0.3333333333333333
 40
1.0
 40
1.0
 40
1.0
 40
1.0
 10
30.1478
 20
-23.1684
 30
0.0
 10
30.113
 20
-23.4509
 30
0.0
 10
30.1001
 20
-23.7611
 30
0.0
 10
30.0068
 20
-24.0377
 30
0.0
 10
30.0068
 20
-24.0377
 30
0.0
 10
29.8387
 20
-24.536
 30
0.0
 10
29.4515
 20
-24.9588
 30
0.0
 10
28.9238
 20
-25.0668
 30
0.0
  0
SPLINE
  5
1F1
330
1F
100
AcDbEntity
  8
ROUND
100
AcDbSpline
210
0.0
220
0.0
230
1.0
 70
    24
 71
     3
 72
     8
 73
     4
 74
     0
 42
0.0000000001
 43
0.0000000001
 40
0.0
 40
0.0
 40
0.0
 40
0.0
 40
1.0
 40
1.0
 40
1.0
 40
1.0
 10
29.0277
 20
-24.758
 30
0.0
 10
29.0277
 20
-24.758
 30
0.0
 10
28.9573
 20
-24.7953
 30
0.0
 10
28.9573
 20
-24.7953
 30
0.0
  0
SPLINE
  5
1F2
330
1F
100
AcDbEntity
  8
ROUND
100
AcDbSpline
210
0.0
220
0.0
230
1.0
 70
     8
 71
     3
 72
     8
 73
     4
 74
     0
 42
0.0000000001
 43
0.0000000001
 40
0.0
 40
0.0
 40
0.0
 40
0.0
 40
1.0
 40
1.0
 40
1.0
 40
1.0
 10
28.9573
 20
-24.7953
 30
0.0
 10
28.8918
 20
-24.8863
 30
0.0
 10
28.9145
 20
-24.966
 30
0.0
 10
28.9129
 20
-25.0694
 30
0.0
  0
SPLINE
  5
1F3
330
1F
100
AcDbEntity
  8
ROUND
100
AcDbSpline
210
0.0
220
0.0
230
1.0
 70
    24
 71
     3
 72
     8
 73
     4
 74
     0
 42
0.0000000001
 43
0.0000000001
 40
0.0
 40
0.0
 40
0.0
 40
0.0
 40
1.0
 40
1.0
 40
1.0
 40
1.0
 10
28.9129
 20
-25.0694
 30
0.0
 10
28.9129
 20
-25.0694
 30
0.0
 10
28.8954
 20
-26.0872
 30
0.0
 10
28.8954
 20
-26.0872
 30
0.0
  0
SPLINE
  5
1F4
330
1F
100
AcDbEntity
  8
ROUND
100
AcDbSpline
210
0.0
220
0.0
230
1.0
 70
     8
 71
     3
 72
    16
 73
    12
 74
     0
 42
0.0000000001
 43
0.0000000001
 40
0.0
 40
0.0
 40
0.0
 40
0.0
 40
0.25
 40
0.25
 40
0.25
 40
0.25
 40
0.5
 40
0.5
 40
0.5
 40
0.5
 40
1.0
 40
1.0
 40
1.0
 40
1.0
 10
29.1625
 20
-24.7322
 30
0.0
 10
29.1625
 20
-24.7322
 30
0.0
 10
29.0751
 20
-24.7541
 30
0.0
 10
29.0751
 20
-24.7541
 30
0.0
 10
29.0751
 20
-24.7541
 30
0.0
 10
29.0751
 20
-24.7541
 30
0.0
 10
29.0449
 20
-24.7541
 30
0.0
 10
29.0449
 20
-24.7541
 30
0.0
 10
29.0449
 20
-24.7541
 30
0.0
 10
29.0449
 20
-24.7541
 30
0.0
 10
28.9743
 20
-24.792
 30
0.0
 10
28.9743
 20
-24.792
 30
0.0
  0
SPLINE
  5
1F5
330
1F
100
AcDbEntity
  8
ROUND
100
AcDbSpline
210
0.0
220
0.0
230
1.0
 70
     8
 71
     3
 72
     8
 73
     4
 74
     0
 42
0.0000000001
 43
0.0000000001
 40
0.0
 40
0.0
 40
0.0
 40
0.0
 40
1.0
 40
1.0
 40
1.0
 40
1.0
 10
28.9743
 20
-24.792
 30
0.0
 10
28.9111
 20
-24.8802
 30
0.0
 10
28.9297
 20
-24.9655
 30
0.0
 10
28.9302
 20
-25.0655
 30
0.0
  0
SPLINE
  5
1F6
330
1F
100
AcDbEntity
  8
ROUND
100
AcDbSpline
210
0.0
220
0.0
230
1.0
 70
     8
 71
     3
 72
     8
 73
     4
 74
     0
 42
0.0000000001
 43
0.0000000001
 40
0.0
 40
0.0
 40
0.0
 40
0.0
 40
1.0
 40
1.0
 40
1.0
 40
1.0
 10
27.0813
 20
-23.6322
 30
0.0
 10
27.0947
 20
-23.6489
 30
0.0
 10
27.0885
 20
-23.6445
 30
0.0
 10
27.1189
 20
-23.6538
 30
0.0
  0
SPLINE
  5
1F7
330
1F
100
AcDbEntity
  8
ROUND
100
AcDbSpline
210
0.0
220
0.0
230
1.0
 70
     8
 71
     3
 72
    16
 73
    12
 74
     0
 42
0.0000000001
 43
0.0000000001
 40
0.0
 40
0.0
 40
0.0
 40
0.0
 40
0.25
 40
0.25
 40
0.25
 40
0.25
 40
0.5
 40
0.5
 40
0.5
 40
0.5
 40
1.0
 40
1.0
 40
1.0
 40
1.0
 10
27.1189
 20
-23.6538
 30
0.0
 10
27.1189
 20
-23.6538
 30
0.0
 10
27.4076
 20
-23.7415
 30
0.0
 10
27.4076
 20
-23.7415
 30
0.0
 10
27.4076
 20
-23.7415
 30
0.0
 10
27.4076
 20
-23.7415
 30
0.0
 10
27.6964
 20
-23.8288
 30
0.0
 10
27.6964
 20
-23.8288
 30
0.0
 10
27.6964
 20
-23.8288
 30
0.0
 10
27.6964
 20
-23.8288
 30
0.0
 10
28.3772
 20
-23.8288
 30
0.0
 10
28.3772
 20
-23.8288
 30
0.0
  0
SPLINE
  5
1F8
330
1F
100
AcDbEntity
  8
ROUND
100
AcDbSpline
210
0.0
220
0.0
230
1.0
 70
     8
 71
     3
 72
    12
 73
     8
 74
     0
 42
0.0000000001
 43
0.0000000001
 40
0.0
 40
0.0
 40
0.0
 40
0.0
 40
0.3333333333333333
 40
0.3333333333333333
 40
0.3333333333333333
 40
0.3333333333333333
 40
1.0
 40
1.0
 40
1.0
 40
1.0
 10
30.0841
 20
-23.6889
 30
0.0
 10
30.0841
 20
-23.6889
 30
0.0
 10
29.975
 20
-23.6678
 30
0.0
 10
29.975
 20
-23.6678
 30
0.0
 10
29.975
 20
-23.6678
 30
0.0
 10
29.975
 20
-23.6678
 30
0.0
 10
29.9328
 20
-23.6504
 30
0.0
 10
29.9328
 20
-23.6504
 30
0.0
  0
SPLINE
  5
1F9
330
1F
100
AcDbEntity
  8
ROUND
100
AcDbSpline
210
0.0
220
0.0
230
1.0
 70
     8
 71
     3
 72
     8
 73
     4
 74
     0
 42
0.0000000001
 43
0.0000000001
 40
0.0
 40
0.0
 40
0.0
 40
0.0
 40
1.0
 40
1.0
 40
1.0
 40
1.0
 10
29.9364
 20
-23.6157
 30
0.0
 10
29.9743
 20
-23.644
 30
0.0
 10
30.0444
 20
-23.6469
 30
0.0
 10
30.0882
 20
-23.6538
 30
0.0
  0
SPLINE
  5
1FA
330
1F
100
AcDbEntity
  8
ROUND
100
AcDbSpline
210
0.0
220
0.0
230
1.0
 70
    24
 71
     3
 72
     8
 73
     4
 74
     0
 42
0.0000000001
 43
0.0000000001
 40
0.0
 40
0.0
 40
0.0
 40
0.0
 40
1.0
 40
1.0
 40
1.0
 40
1.0
 10
30.0882
 20
-23.6538
 30
0.0
 10
30.0882
 20
-23.6538
 30
0.0
 10
30.6059
 20
-23.7397
 30
0.0
 10
30.6059
 20
-23.7397
 30
0.0
  0
SPLINE
  5
1FB
330
1F
100
AcDbEntity
  8
ROUND
100
AcDbSpline
210
0.0
220
0.0
230
1.0
 70
     8
 71
     3
 72
     8
 73
     4
 74
     0
 42
0.0000000001
 43
0.0000000001
 40
0.0
 40
0.0
 40
0.0
 40
0.0
 40
1.0
 40
1.0
 40
1.0
 40
1.0
 10
30.6059
 20
-23.7397
 30
0.0
 10
31.1718
 20
-23.8332
 30
0.0
 10
31.0212
 20
-23.8266
 30
0.0
 10
31.5252
 20
-23.8288
 30
0.0
  0
SPLINE
  5
1FC
330
1F
100
AcDbEntity
  8
ROUND
100
AcDbSpline
210
0.0
220
0.0
230
1.0
 70
     8
 71
     3
 72
    20
 73
    16
 74
     0
 42
0.0000000001
 43
0.0000000001
 40
0.0
 40
0.0
 40
0.0
 40
0.0
 40
0.2
 40
0.2
 40
0.2
 40
0.2
 40
0.4
 40
0.4
 40
0.4
 40
0.4
 40
0.6
 40
0.6
 40
0.6
 40
0.6
 40
1.0
 40
1.0
 40
1.0
 40
1.0
 10
26.4046
 20
-26.0872
 30
0.0
 10
26.4046
 20
-26.0872
 30
0.0
 10
26.4198
 20
-25.578
 30
0.0
 10
26.4198
 20
-25.578
 30
0.0
 10
26.4198
 20
-25.578
 30
0.0
 10
26.4198
 20
-25.578
 30
0.0
 10
26.4353
 20
-25.0694
 30
0.0
 10
26.4353
 20
-25.0694
 30
0.0
 10
26.4353
 20
-25.0694
 30
0.0
 10
26.4353
 20
-25.0694
 30
0.0
 10
26.4597
 20
-24.9194
 30
0.0
 10
26.4597
 20
-24.9194
 30
0.0
 10
26.4597
 20
-24.9194
 30
0.0
 10
26.4597
 20
-24.9194
 30
0.0
 10
26.561
 20
-24.7953
 30
0.0
 10
26.561
 20
-24.7953
 30
0.0
  0
SPLINE
  5
1FD
330
1F
100
AcDbEntity
  8
ROUND
100
AcDbSpline
210
0.0
220
0.0
230
1.0
 70
     8
 71
     3
 72
     8
 73
     4
 74
     0
 42
0.0000000001
 43
0.0000000001
 40
0.0
 40
0.0
 40
0.0
 40
0.0
 40
1.0
 40
1.0
 40
1.0
 40
1.0
 10
24.8668
 20
-25.6164
 30
0.0
 10
24.8714
 20
-25.4839
 30
0.0
 10
24.9289
 20
-25.3661
 30
0.0
 10
25.0565
 20
-25.3138
 30
0.0
  0
SPLINE
  5
1FE
330
1F
100
AcDbEntity
  8
ROUND
100
AcDbSpline
210
0.0
220
0.0
230
1.0
 70
     8
 71
     3
 72
     8
 73
     4
 74
     0
 42
0.0000000001
 43
0.0000000001
 40
0.0
 40
0.0
 40
0.0
 40
0.0
 40
1.0
 40
1.0
 40
1.0
 40
1.0
 10
22.2122
 20
-25.6164
 30
0.0
 10
22.2086
 20
-25.4842
 30
0.0
 10
22.1501
 20
-25.3661
 30
0.0
 10
22.023
 20
-25.3138
 30
0.0
  0
SPLINE
  5
1FF
330
1F
100
AcDbEntity
  8
ROUND
100
AcDbSpline
210
0.0
220
0.0
230
1.0
 70
     8
 71
     3
 72
    20
 73
    16
 74
     0
 42
0.0000000001
 43
0.0000000001
 40
0.0
 40
0.0
 40
0.0
 40
0.0
 40
0.2
 40
0.2
 40
0.2
 40
0.2
 40
0.4
 40
0.4
 40
0.4
 40
0.4
 40
0.6
 40
0.6
 40
0.6
 40
0.6
 40
1.0
 40
1.0
 40
1.0
 40
1.0
 10
20.5179
 20
-24.7953
 30
0.0
 10
20.5179
 20
-24.7953
 30
0.0
 10
20.6198
 20
-24.9194
 30
0.0
 10
20.6198
 20
-24.9194
 30
0.0
 10
20.6198
 20
-24.9194
 30
0.0
 10
20.6198
 20
-24.9194
 30
0.0
 10
20.6438
 20
-25.0694
 30
0.0
 10
20.6438
 20
-25.0694
 30
0.0
 10
20.6438
 20
-25.0694
 30
0.0
 10
20.6438
 20
-25.0694
 30
0.0
 10
20.6592
 20
-25.578
 30
0.0
 10
20.6592
 20
-25.578
 30
0.0
 10
20.6592
 20
-25.578
 30
0.0
 10
20.6592
 20
-25.578
 30
0.0
 10
20.6747
 20
-26.0872
 30
0.0
 10
20.6747
 20
-26.0872
 30
0.0
  0
SPLINE
  5
200
330
1F
100
AcDbEntity
  8
ROUND
100
AcDbSpline
210
0.0
220
0.0
230
1.0
 70
     8
 71
     3
 72
    16
 73
    12
 74
     0
 42
0.0000000001
 43
0.0000000001
 40
0.0
 40
0.0
 40
0.0
 40
0.0
 40
0.25
 40
0.25
 40
0.25
 40
0.25
 40
0.5
 40
0.5
 40
0.5
 40
0.5
 40
1.0
 40
1.0
 40
1.0
 40
1.0
 10
18.702
 20
-23.8288
 30
0.0
 10
18.702
 20
-23.8288
 30
0.0
 10
19.3831
 20
-23.8288
 30
0.0
 10
19.3831
 20
-23.8288
 30
0.0
 10
19.3831
 20
-23.8288
 30
0.0
 10
19.3831
 20
-23.8288
 30
0.0
 10
19.6716
 20
-23.7415
 30
0.0
 10
19.6716
 20
-23.7415
 30
0.0
 10
19.6716
 20
-23.7415
 30
0.0
 10
19.6716
 20
-23.7415
 30
0.0
 10
19.9603
 20
-23.6538
 30
0.0
 10
19.9603
 20
-23.6538
 30
0.0
  0
SPLINE
  5
201
330
1F
100
AcDbEntity
  8
ROUND
100
AcDbSpline
210
0.0
220
0.0
230
1.0
 70
     8
 71
     3
 72
     8
 73
     4
 74
     0
 42
0.0000000001
 43
0.0000000001
 40
0.0
 40
0.0
 40
0.0
 40
0.0
 40
1.0
 40
1.0
 40
1.0
 40
1.0
 10
19.9603
 20
-23.6538
 30
0.0
 10
19.9907
 20
-23.6445
 30
0.0
 10
19.9845
 20
-23.6489
 30
0.0
 10
19.998
 20
-23.6322
 30
0.0
  0
SPLINE
  5
202
330
1F
100
AcDbEntity
  8
ROUND
100
AcDbSpline
210
0.0
220
0.0
230
1.0
 70
     8
 71
     3
 72
     8
 73
     4
 74
     0
 42
0.0000000001
 43
0.0000000001
 40
0.0
 40
0.0
 40
0.0
 40
0.0
 40
1.0
 40
1.0
 40
1.0
 40
1.0
 10
18.0704
 20
-24.7678
 30
0.0
 10
18.0188
 20
-24.7572
 30
0.0
 10
17.9678
 20
-24.7474
 30
0.0
 10
17.917
 20
-24.7322
 30
0.0
  0
SPLINE
  5
203
330
1F
100
AcDbEntity
  8
ROUND
100
AcDbSpline
210
0.0
220
0.0
230
1.0
 70
     8
 71
     3
 72
     8
 73
     4
 74
     0
 42
0.0000000001
 43
0.0000000001
 40
0.0
 40
0.0
 40
0.0
 40
0.0
 40
1.0
 40
1.0
 40
1.0
 40
1.0
 10
18.1488
 20
-25.0655
 30
0.0
 10
18.1501
 20
-24.9531
 30
0.0
 10
18.1702
 20
-24.7541
 30
0.0
 10
18.0044
 20
-24.7541
 30
0.0
  0
SPLINE
  5
204
330
1F
100
AcDbEntity
  8
ROUND
100
AcDbSpline
210
0.0
220
0.0
230
1.0
 70
    24
 71
     3
 72
     8
 73
     4
 74
     0
 42
0.0000000001
 43
0.0000000001
 40
0.0
 40
0.0
 40
0.0
 40
0.0
 40
1.0
 40
1.0
 40
1.0
 40
1.0
 10
18.0519
 20
-24.758
 30
0.0
 10
18.0519
 20
-24.758
 30
0.0
 10
18.1219
 20
-24.7953
 30
0.0
 10
18.1219
 20
-24.7953
 30
0.0
  0
SPLINE
  5
205
330
1F
100
AcDbEntity
  8
ROUND
100
AcDbSpline
210
0.0
220
0.0
230
1.0
 70
     8
 71
     3
 72
     8
 73
     4
 74
     0
 42
0.0000000001
 43
0.0000000001
 40
0.0
 40
0.0
 40
0.0
 40
0.0
 40
1.0
 40
1.0
 40
1.0
 40
1.0
 10
18.1219
 20
-24.7953
 30
0.0
 10
18.1872
 20
-24.8863
 30
0.0
 10
18.1653
 20
-24.966
 30
0.0
 10
18.1663
 20
-25.0694
 30
0.0
  0
SPLINE
  5
206
330
1F
100
AcDbEntity
  8
ROUND
100
AcDbSpline
210
0.0
220
0.0
230
1.0
 70
    24
 71
     3
 72
     8
 73
     4
 74
     0
 42
0.0000000001
 43
0.0000000001
 40
0.0
 40
0.0
 40
0.0
 40
0.0
 40
1.0
 40
1.0
 40
1.0
 40
1.0
 10
18.1663
 20
-25.0694
 30
0.0
 10
18.1663
 20
-25.0694
 30
0.0
 10
18.1838
 20
-26.0872
 30
0.0
 10
18.1838
 20
-26.0872
 30
0.0
  0
SPLINE
  5
207
330
1F
100
AcDbEntity
  8
ROUND
100
AcDbSpline
210
0.0
220
0.0
230
1.0
 70
     8
 71
     3
 72
    12
 73
     8
 74
     0
 42
0.0000000001
 43
0.0000000001
 40
0.0
 40
0.0
 40
0.0
 40
0.0
 40
0.3333333333333333
 40
0.3333333333333333
 40
0.3333333333333333
 40
0.3333333333333333
 40
1.0
 40
1.0
 40
1.0
 40
1.0
 10
17.1467
 20
-23.6504
 30
0.0
 10
17.1467
 20
-23.6504
 30
0.0
 10
17.1042
 20
-23.6678
 30
0.0
 10
17.1042
 20
-23.6678
 30
0.0
 10
17.1042
 20
-23.6678
 30
0.0
 10
17.1042
 20
-23.6678
 30
0.0
 10
16.9949
 20
-23.6889
 30
0.0
 10
16.9949
 20
-23.6889
 30
0.0
  0
SPLINE
  5
208
330
1F
100
AcDbEntity
  8
ROUND
100
AcDbSpline
210
0.0
220
0.0
230
1.0
 70
     8
 71
     3
 72
    12
 73
     8
 74
     0
 42
0.0000000001
 43
0.0000000001
 40
0.0
 40
0.0
 40
0.0
 40
0.0
 40
0.3333333333333333
 40
0.3333333333333333
 40
0.3333333333333333
 40
0.3333333333333333
 40
1.0
 40
1.0
 40
1.0
 40
1.0
 10
16.6255
 20
-26.0351
 30
0.0
 10
15.8474
 20
-25.8588
 30
0.0
 10
15.1472
 20
-25.3677
 30
0.0
 10
14.7966
 20
-24.6357
 30
0.0
 10
14.7966
 20
-24.6357
 30
0.0
 10
14.6715
 20
-24.3751
 30
0.0
 10
14.5947
 20
-24.1138
 30
0.0
 10
14.5455
 20
-23.8288
 30
0.0
  0
SPLINE
  5
209
330
1F
100
AcDbEntity
  8
ROUND
100
AcDbSpline
210
0.0
220
0.0
230
1.0
 70
     8
 71
     3
 72
    12
 73
     8
 74
     0
 42
0.0000000001
 43
0.0000000001
 40
0.0
 40
0.0
 40
0.0
 40
0.0
 40
0.3333333333333333
 40
0.3333333333333333
 40
0.3333333333333333
 40
0.3333333333333333
 40
1.0
 40
1.0
 40
1.0
 40
1.0
 10
14.6883
 20
-13.4957
 30
0.0
 10
14.6883
 20
-13.4957
 30
0.0
 10
14.7518
 20
-14.0165
 30
0.0
 10
14.7518
 20
-14.0165
 30
0.0
 10
14.7518
 20
-14.0165
 30
0.0
 10
14.7518
 20
-14.0165
 30
0.0
 10
15.8837
 20
-23.3084
 30
0.0
 10
15.8837
 20
-23.3084
 30
0.0
  0
SPLINE
  5
20A
330
1F
100
AcDbEntity
  8
ROUND
100
AcDbSpline
210
0.0
220
0.0
230
1.0
 70
     8
 71
     3
 72
    20
 73
    16
 74
     0
 42
0.0000000001
 43
0.0000000001
 40
0.0
 40
0.0
 40
0.0
 40
0.0
 40
0.2
 40
0.2
 40
0.2
 40
0.2
 40
0.4
 40
0.4
 40
0.4
 40
0.4
 40
0.6
 40
0.6
 40
0.6
 40
0.6
 40
1.0
 40
1.0
 40
1.0
 40
1.0
 10
15.8837
 20
-23.3084
 30
0.0
 10
15.9168
 20
-23.5826
 30
0.0
 10
15.9335
 20
-23.8912
 30
0.0
 10
16.0077
 20
-24.1656
 30
0.0
 10
16.0077
 20
-24.1656
 30
0.0
 10
16.1861
 20
-24.8291
 30
0.0
 10
16.5473
 20
-25.4197
 30
0.0
 10
17.1436
 20
-25.7877
 30
0.0
 10
17.1436
 20
-25.7877
 30
0.0
 10
17.2885
 20
-25.8768
 30
0.0
 10
17.4411
 20
-25.9399
 30
0.0
 10
17.6015
 20
-25.9949
 30
0.0
 10
17.6015
 20
-25.9949
 30
0.0
 10
17.7905
 20
-26.0594
 30
0.0
 10
17.9861
 20
-26.0781
 30
0.0
 10
18.1838
 20
-26.0872
 30
0.0
  0
SPLINE
  5
20B
330
1F
100
AcDbEntity
  8
ROUND
100
AcDbSpline
210
0.0
220
0.0
230
1.0
 70
     8
 71
     3
 72
     8
 73
     4
 74
     0
 42
0.0000000001
 43
0.0000000001
 40
0.0
 40
0.0
 40
0.0
 40
0.0
 40
1.0
 40
1.0
 40
1.0
 40
1.0
 10
16.6211
 20
-26.0341
 30
0.0
 10
16.7523
 20
-26.0565
 30
0.0
 10
16.828
 20
-26.0673
 30
0.0
 10
16.958
 20
-26.0803
 30
0.0
  0
SPLINE
  5
20C
330
1F
100
AcDbEntity
  8
ROUND
100
AcDbSpline
210
0.0
220
0.0
230
1.0
 70
     8
 71
     3
 72
    12
 73
     8
 74
     0
 42
0.0000000001
 43
0.0000000001
 40
0.0
 40
0.0
 40
0.0
 40
0.0
 40
0.3333333333333333
 40
0.3333333333333333
 40
0.3333333333333333
 40
0.3333333333333333
 40
1.0
 40
1.0
 40
1.0
 40
1.0
 10
20.6747
 20
-26.0872
 30
0.0
 10
20.3246
 20
-26.0596
 30
0.0
 10
20.0697
 20
-25.8319
 30
0.0
 10
19.884
 20
-25.545
 30
0.0
 10
19.884
 20
-25.545
 30
0.0
 10
19.5865
 20
-25.0851
 30
0.0
 10
19.4607
 20
-24.5365
 30
0.0
 10
19.3978
 20
-23.9998
 30
0.0
  0
SPLINE
  5
20D
330
1F
100
AcDbEntity
  8
ROUND
100
AcDbSpline
210
0.0
220
0.0
230
1.0
 70
     8
 71
     3
 72
    20
 73
    16
 74
     0
 42
0.0000000001
 43
0.0000000001
 40
0.0
 40
0.0
 40
0.0
 40
0.0
 40
0.2
 40
0.2
 40
0.2
 40
0.2
 40
0.4
 40
0.4
 40
0.4
 40
0.4
 40
0.6
 40
0.6
 40
0.6
 40
0.6
 40
1.0
 40
1.0
 40
1.0
 40
1.0
 10
19.3978
 20
-23.9998
 30
0.0
 10
19.3978
 20
-23.9998
 30
0.0
 10
19.3826
 20
-23.8271
 30
0.0
 10
19.3826
 20
-23.8271
 30
0.0
 10
19.3826
 20
-23.8271
 30
0.0
 10
19.3826
 20
-23.8271
 30
0.0
 10
19.3458
 20
-23.3037
 30
0.0
 10
19.3458
 20
-23.3037
 30
0.0
 10
19.3458
 20
-23.3037
 30
0.0
 10
19.3458
 20
-23.3037
 30
0.0
 10
18.6927
 20
-14.0188
 30
0.0
 10
18.6927
 20
-14.0188
 30
0.0
 10
18.6927
 20
-14.0188
 30
0.0
 10
18.6927
 20
-14.0188
 30
0.0
 10
18.6563
 20
-13.4957
 30
0.0
 10
18.6563
 20
-13.4957
 30
0.0
  0
SPLINE
  5
20E
330
1F
100
AcDbEntity
  8
ROUND
100
AcDbSpline
210
0.0
220
0.0
230
1.0
 70
     8
 71
     3
 72
    20
 73
    16
 74
     0
 42
0.0000000001
 43
0.0000000001
 40
0.0
 40
0.0
 40
0.0
 40
0.0
 40
0.2
 40
0.2
 40
0.2
 40
0.2
 40
0.4
 40
0.4
 40
0.4
 40
0.4
 40
0.6
 40
0.6
 40
0.6
 40
0.6
 40
1.0
 40
1.0
 40
1.0
 40
1.0
 10
28.4234
 20
-13.4957
 30
0.0
 10
28.4234
 20
-13.4957
 30
0.0
 10
28.3865
 20
-14.0188
 30
0.0
 10
28.3865
 20
-14.0188
 30
0.0
 10
28.3865
 20
-14.0188
 30
0.0
 10
28.3865
 20
-14.0188
 30
0.0
 10
27.7333
 20
-23.3055
 30
0.0
 10
27.7333
 20
-23.3055
 30
0.0
 10
27.7333
 20
-23.3055
 30
0.0
 10
27.7333
 20
-23.3055
 30
0.0
 10
27.6964
 20
-23.8288
 30
0.0
 10
27.6964
 20
-23.8288
 30
0.0
 10
27.6964
 20
-23.8288
 30
0.0
 10
27.6964
 20
-23.8288
 30
0.0
 10
27.6817
 20
-23.9998
 30
0.0
 10
27.6817
 20
-23.9998
 30
0.0
  0
SPLINE
  5
20F
330
1F
100
AcDbEntity
  8
ROUND
100
AcDbSpline
210
0.0
220
0.0
230
1.0
 70
     8
 71
     3
 72
    12
 73
     8
 74
     0
 42
0.0000000001
 43
0.0000000001
 40
0.0
 40
0.0
 40
0.0
 40
0.0
 40
0.3333333333333333
 40
0.3333333333333333
 40
0.3333333333333333
 40
0.3333333333333333
 40
1.0
 40
1.0
 40
1.0
 40
1.0
 10
27.6817
 20
-23.9998
 30
0.0
 10
27.6182
 20
-24.5375
 30
0.0
 10
27.4925
 20
-25.0856
 30
0.0
 10
27.1945
 20
-25.5466
 30
0.0
 10
27.1945
 20
-25.5466
 30
0.0
 10
27.0091
 20
-25.8327
 30
0.0
 10
26.7539
 20
-26.0596
 30
0.0
 10
26.4046
 20
-26.0872
 30
0.0
  0
SPLINE
  5
210
330
1F
100
AcDbEntity
  8
ROUND
100
AcDbSpline
210
0.0
220
0.0
230
1.0
 70
     8
 71
     3
 72
     8
 73
     4
 74
     0
 42
0.0000000001
 43
0.0000000001
 40
0.0
 40
0.0
 40
0.0
 40
0.0
 40
1.0
 40
1.0
 40
1.0
 40
1.0
 10
24.9109
 20
-25.3542
 30
0.0
 10
24.7714
 20
-25.5435
 30
0.0
 10
24.8276
 20
-25.923
 30
0.0
 10
24.8265
 20
-26.0872
 30
0.0
  0
SPLINE
  5
211
330
1F
100
AcDbEntity
  8
ROUND
100
AcDbSpline
210
0.0
220
0.0
230
1.0
 70
     8
 71
     3
 72
     8
 73
     4
 74
     0
 42
0.0000000001
 43
0.0000000001
 40
0.0
 40
0.0
 40
0.0
 40
0.0
 40
1.0
 40
1.0
 40
1.0
 40
1.0
 10
22.2529
 20
-26.0872
 30
0.0
 10
22.2517
 20
-25.891
 30
0.0
 10
22.305
 20
-25.5551
 30
0.0
 10
22.1687
 20
-25.3542
 30
0.0
  0
SPLINE
  5
212
330
1F
100
AcDbEntity
  8
ROUND
100
AcDbSpline
210
0.0
220
0.0
230
1.0
 70
     8
 71
     3
 72
    12
 73
     8
 74
     0
 42
0.0000000001
 43
0.0000000001
 40
0.0
 40
0.0
 40
0.0
 40
0.0
 40
0.3333333333333333
 40
0.3333333333333333
 40
0.3333333333333333
 40
0.3333333333333333
 40
1.0
 40
1.0
 40
1.0
 40
1.0
 10
32.3912
 20
-13.4957
 30
0.0
 10
32.3912
 20
-13.4957
 30
0.0
 10
32.3275
 20
-14.0165
 30
0.0
 10
32.3275
 20
-14.0165
 30
0.0
 10
32.3275
 20
-14.0165
 30
0.0
 10
32.3275
 20
-14.0165
 30
0.0
 10
31.196
 20
-23.3084
 30
0.0
 10
31.196
 20
-23.3084
 30
0.0
  0
SPLINE
  5
213
330
1F
100
AcDbEntity
  8
ROUND
100
AcDbSpline
210
0.0
220
0.0
230
1.0
 70
     8
 71
     3
 72
    20
 73
    16
 74
     0
 42
0.0000000001
 43
0.0000000001
 40
0.0
 40
0.0
 40
0.0
 40
0.0
 40
0.2
 40
0.2
 40
0.2
 40
0.2
 40
0.4
 40
0.4
 40
0.4
 40
0.4
 40
0.6
 40
0.6
 40
0.6
 40
0.6
 40
1.0
 40
1.0
 40
1.0
 40
1.0
 10
31.196
 20
-23.3084
 30
0.0
 10
31.1625
 20
-23.5826
 30
0.0
 10
31.1457
 20
-23.8912
 30
0.0
 10
31.072
 20
-24.1656
 30
0.0
 10
31.072
 20
-24.1656
 30
0.0
 10
30.9011
 20
-24.7995
 30
0.0
 10
30.5688
 20
-25.3584
 30
0.0
 10
30.0179
 20
-25.7356
 30
0.0
 10
30.0179
 20
-25.7356
 30
0.0
 10
29.8508
 20
-25.8495
 30
0.0
 10
29.668
 20
-25.9291
 30
0.0
 10
29.4778
 20
-25.9949
 30
0.0
 10
29.4778
 20
-25.9949
 30
0.0
 10
29.2899
 20
-26.0596
 30
0.0
 10
29.0923
 20
-26.0781
 30
0.0
 10
28.8954
 20
-26.0872
 30
0.0
  0
SPLINE
  5
214
330
1F
100
AcDbEntity
  8
ROUND
100
AcDbSpline
210
0.0
220
0.0
230
1.0
 70
     8
 71
     3
 72
    12
 73
     8
 74
     0
 42
0.0000000001
 43
0.0000000001
 40
0.0
 40
0.0
 40
0.0
 40
0.0
 40
0.3333333333333333
 40
0.3333333333333333
 40
0.3333333333333333
 40
0.3333333333333333
 40
1.0
 40
1.0
 40
1.0
 40
1.0
 10
30.121
 20
-26.0803
 30
0.0
 10
30.4061
 20
-26.0519
 30
0.0
 10
30.676
 20
-25.9921
 30
0.0
 10
30.9426
 20
-25.8859
 30
0.0
 10
30.9426
 20
-25.8859
 30
0.0
 10
31.8173
 20
-25.5373
 30
0.0
 10
32.3765
 20
-24.7334
 30
0.0
 10
32.534
 20
-23.8288
 30
0.0
  0
SPLINE
  5
215
330
1F
100
AcDbEntity
  8
ROUND
100
AcDbSpline
210
0.0
220
0.0
230
1.0
 70
    24
 71
     3
 72
     8
 73
     4
 74
     0
 42
0.0000000001
 43
0.0000000001
 40
0.0
 40
0.0
 40
0.0
 40
0.0
 40
1.0
 40
1.0
 40
1.0
 40
1.0
 10
7.6702
 20
6.1501
 30
0.0
 10
7.6702
 20
6.1501
 30
0.0
 10
7.6702
 20
7.2519
 30
0.0
 10
7.6702
 20
7.2519
 30
0.0
  0
SPLINE
  5
216
330
1F
100
AcDbEntity
  8
ROUND
100
AcDbSpline
210
0.0
220
0.0
230
1.0
 70
    24
 71
     3
 72
     8
 73
     4
 74
     0
 42
0.0000000001
 43
0.0000000001
 40
0.0
 40
0.0
 40
0.0
 40
0.0
 40
1.0
 40
1.0
 40
1.0
 40
1.0
 10
7.8015
 20
7.2519
 30
0.0
 10
7.8015
 20
7.2519
 30
0.0
 10
7.6702
 20
7.2519
 30
0.0
 10
7.6702
 20
7.2519
 30
0.0
  0
SPLINE
  5
217
330
1F
100
AcDbEntity
  8
ROUND
100
AcDbSpline
210
0.0
220
0.0
230
1.0
 70
    24
 71
     3
 72
     8
 73
     4
 74
     0
 42
0.0000000001
 43
0.0000000001
 40
0.0
 40
0.0
 40
0.0
 40
0.0
 40
1.0
 40
1.0
 40
1.0
 40
1.0
 10
7.8015
 20
7.2519
 30
0.0
 10
7.8015
 20
7.2519
 30
0.0
 10
7.8015
 20
6.1501
 30
0.0
 10
7.8015
 20
6.1501
 30
0.0
  0
SPLINE
  5
218
330
1F
100
AcDbEntity
  8
ROUND
100
AcDbSpline
210
0.0
220
0.0
230
1.0
 70
    24
 71
     3
 72
     8
 73
     4
 74
     0
 42
0.0000000001
 43
0.0000000001
 40
0.0
 40
0.0
 40
0.0
 40
0.0
 40
1.0
 40
1.0
 40
1.0
 40
1.0
 10
7.8015
 20
7.1602
 30
0.0
 10
7.8015
 20
7.1602
 30
0.0
 10
7.8481
 20
7.1602
 30
0.0
 10
7.8481
 20
7.1602
 30
0.0
  0
SPLINE
  5
219
330
1F
100
AcDbEntity
  8
ROUND
100
AcDbSpline
210
0.0
220
0.0
230
1.0
 70
    24
 71
     3
 72
     8
 73
     4
 74
     0
 42
0.0000000001
 43
0.0000000001
 40
0.0
 40
0.0
 40
0.0
 40
0.0
 40
1.0
 40
1.0
 40
1.0
 40
1.0
 10
7.8015
 20
6.2419
 30
0.0
 10
7.8015
 20
6.2419
 30
0.0
 10
7.8963
 20
6.2419
 30
0.0
 10
7.8963
 20
6.2419
 30
0.0
  0
SPLINE
  5
21A
330
1F
100
AcDbEntity
  8
ROUND
100
AcDbSpline
210
0.0
220
0.0
230
1.0
 70
    24
 71
     3
 72
     8
 73
     4
 74
     0
 42
0.0000000001
 43
0.0000000001
 40
0.0
 40
0.0
 40
0.0
 40
0.0
 40
1.0
 40
1.0
 40
1.0
 40
1.0
 10
39.2311
 20
7.1602
 30
0.0
 10
39.2311
 20
7.1602
 30
0.0
 10
39.278
 20
7.1602
 30
0.0
 10
39.278
 20
7.1602
 30
0.0
  0
SPLINE
  5
21B
330
1F
100
AcDbEntity
  8
ROUND
100
AcDbSpline
210
0.0
220
0.0
230
1.0
 70
    24
 71
     3
 72
     8
 73
     4
 74
     0
 42
0.0000000001
 43
0.0000000001
 40
0.0
 40
0.0
 40
0.0
 40
0.0
 40
1.0
 40
1.0
 40
1.0
 40
1.0
 10
39.278
 20
6.1501
 30
0.0
 10
39.278
 20
6.1501
 30
0.0
 10
39.278
 20
7.2519
 30
0.0
 10
39.278
 20
7.2519
 30
0.0
  0
SPLINE
  5
21C
330
1F
100
AcDbEntity
  8
ROUND
100
AcDbSpline
210
0.0
220
0.0
230
1.0
 70
    24
 71
     3
 72
     8
 73
     4
 74
     0
 42
0.0000000001
 43
0.0000000001
 40
0.0
 40
0.0
 40
0.0
 40
0.0
 40
1.0
 40
1.0
 40
1.0
 40
1.0
 10
39.409
 20
7.2519
 30
0.0
 10
39.409
 20
7.2519
 30
0.0
 10
39.278
 20
7.2519
 30
0.0
 10
39.278
 20
7.2519
 30
0.0
  0
SPLINE
  5
21D
330
1F
100
AcDbEntity
  8
ROUND
100
AcDbSpline
210
0.0
220
0.0
230
1.0
 70
    24
 71
     3
 72
     8
 73
     4
 74
     0
 42
0.0000000001
 43
0.0000000001
 40
0.0
 40
0.0
 40
0.0
 40
0.0
 40
1.0
 40
1.0
 40
1.0
 40
1.0
 10
39.1834
 20
6.2419
 30
0.0
 10
39.1834
 20
6.2419
 30
0.0
 10
39.278
 20
6.2419
 30
0.0
 10
39.278
 20
6.2419
 30
0.0
  0
SPLINE
  5
21E
330
1F
100
AcDbEntity
  8
ROUND
100
AcDbSpline
210
0.0
220
0.0
230
1.0
 70
    24
 71
     3
 72
     8
 73
     4
 74
     0
 42
0.0000000001
 43
0.0000000001
 40
0.0
 40
0.0
 40
0.0
 40
0.0
 40
1.0
 40
1.0
 40
1.0
 40
1.0
 10
39.278
 20
6.1501
 30
0.0
 10
39.278
 20
6.1501
 30
0.0
 10
39.409
 20
6.1501
 30
0.0
 10
39.409
 20
6.1501
 30
0.0
  0
SPLINE
  5
21F
330
1F
100
AcDbEntity
  8
ROUND
100
AcDbSpline
210
0.0
220
0.0
230
1.0
 70
    24
 71
     3
 72
     8
 73
     4
 74
     0
 42
0.0000000001
 43
0.0000000001
 40
0.0
 40
0.0
 40
0.0
 40
0.0
 40
1.0
 40
1.0
 40
1.0
 40
1.0
 10
7.6702
 20
6.1501
 30
0.0
 10
7.6702
 20
6.1501
 30
0.0
 10
7.8015
 20
6.1501
 30
0.0
 10
7.8015
 20
6.1501
 30
0.0
  0
SPLINE
  5
220
330
1F
100
AcDbEntity
  8
ROUND
100
AcDbSpline
210
0.0
220
0.0
230
1.0
 70
    24
 71
     3
 72
     8
 73
     4
 74
     0
 42
0.0000000001
 43
0.0000000001
 40
0.0
 40
0.0
 40
0.0
 40
0.0
 40
1.0
 40
1.0
 40
1.0
 40
1.0
 10
39.409
 20
7.2519
 30
0.0
 10
39.409
 20
7.2519
 30
0.0
 10
39.409
 20
6.1501
 30
0.0
 10
39.409
 20
6.1501
 30
0.0
  0
SPLINE
  5
221
330
1F
100
AcDbEntity
  8
ROUND
100
AcDbSpline
210
0.0
220
0.0
230
1.0
 70
     8
 71
     3
 72
    40
 73
    36
 74
     0
 42
0.0000000001
 43
0.0000000001
 40
0.0
 40
0.0
 40
0.0
 40
0.0
 40
0.1
 40
0.1
 40
0.1
 40
0.1
 40
0.2
 40
0.2
 40
0.2
 40
0.2
 40
0.3
 40
0.3
 40
0.3
 40
0.3
 40
0.4
 40
0.4
 40
0.4
 40
0.4
 40
0.5
 40
0.5
 40
0.5
 40
0.5
 40
0.6
 40
0.6
 40
0.6
 40
0.6
 40
0.7
 40
0.7
 40
0.7
 40
0.7
 40
0.8
 40
0.8
 40
0.8
 40
0.8
 40
1.0
 40
1.0
 40
1.0
 40
1.0
 10
36.4552
 20
8.0124
 30
0.0
 10
36.3865
 20
8.8446
 30
0.0
 10
36.2014
 20
9.675
 30
0.0
 10
35.9594
 20
10.4721
 30
0.0
 10
35.9594
 20
10.4721
 30
0.0
 10
35.525
 20
11.9034
 30
0.0
 10
34.8454
 20
13.2589
 30
0.0
 10
33.9511
 20
14.4593
 30
0.0
 10
33.9511
 20
14.4593
 30
0.0
 10
32.5763
 20
16.304
 30
0.0
 10
30.7016
 20
17.7732
 30
0.0
 10
28.5812
 20
18.6665
 30
0.0
 10
28.5812
 20
18.6665
 30
0.0
 10
27.3109
 20
19.2017
 30
0.0
 10
25.948
 20
19.534
 30
0.0
 10
24.5739
 20
19.6439
 30
0.0
 10
24.5739
 20
19.6439
 30
0.0
 10
24.1145
 20
19.681
 30
0.0
 10
23.6554
 20
19.6805
 30
0.0
 10
23.1947
 20
19.6805
 30
0.0
 10
23.1947
 20
19.6805
 30
0.0
 10
22.7348
 20
19.6562
 30
0.0
 10
22.2761
 20
19.632
 30
0.0
 10
21.8188
 20
19.5706
 30
0.0
 10
21.8188
 20
19.5706
 30
0.0
 10
20.4532
 20
19.3884
 30
0.0
 10
19.1094
 20
18.9836
 30
0.0
 10
17.8696
 20
18.3819
 30
0.0
 10
17.8696
 20
18.3819
 30
0.0
 10
14.6383
 20
16.8134
 30
0.0
 10
12.1626
 20
13.907
 30
0.0
 10
11.1198
 20
10.4721
 30
0.0
 10
11.1198
 20
10.4721
 30
0.0
 10
10.878
 20
9.675
 30
0.0
 10
10.6924
 20
8.8446
 30
0.0
 10
10.6241
 20
8.0124
 30
0.0
  0
SPLINE
  5
222
330
1F
100
AcDbEntity
  8
ROUND
100
AcDbSpline
210
0.0
220
0.0
230
1.0
 70
     8
 71
     3
 72
    12
 73
     8
 74
     0
 42
0.0000000001
 43
0.0000000001
 40
0.0
 40
0.0
 40
0.0
 40
0.0
 40
0.3333333333333333
 40
0.3333333333333333
 40
0.3333333333333333
 40
0.3333333333333333
 40
1.0
 40
1.0
 40
1.0
 40
1.0
 10
7.6702
 20
6.1501
 30
0.0
 10
7.44
 20
6.3806
 30
0.0
 10
7.539
 20
6.2195
 30
0.0
 10
7.539
 20
6.701
 30
0.0
 10
7.539
 20
6.701
 30
0.0
 10
7.539
 20
7.1825
 30
0.0
 10
7.44
 20
7.022
 30
0.0
 10
7.6702
 20
7.2519
 30
0.0
  0
SPLINE
  5
223
330
1F
100
AcDbEntity
  8
ROUND
100
AcDbSpline
210
0.0
220
0.0
230
1.0
 70
     8
 71
     3
 72
    40
 73
    36
 74
     0
 42
0.0000000001
 43
0.0000000001
 40
0.0
 40
0.0
 40
0.0
 40
0.0
 40
0.1
 40
0.1
 40
0.1
 40
0.1
 40
0.2
 40
0.2
 40
0.2
 40
0.2
 40
0.3
 40
0.3
 40
0.3
 40
0.3
 40
0.4
 40
0.4
 40
0.4
 40
0.4
 40
0.5
 40
0.5
 40
0.5
 40
0.5
 40
0.6
 40
0.6
 40
0.6
 40
0.6
 40
0.7
 40
0.7
 40
0.7
 40
0.7
 40
0.8
 40
0.8
 40
0.8
 40
0.8
 40
1.0
 40
1.0
 40
1.0
 40
1.0
 10
8.5212
 20
8.0124
 30
0.0
 10
8.5754
 20
8.5595
 30
0.0
 10
8.6393
 20
9.1037
 30
0.0
 10
8.7468
 20
9.6436
 30
0.0
 10
8.7468
 20
9.6436
 30
0.0
 10
9.0667
 20
11.2527
 30
0.0
 10
9.6573
 20
12.822
 30
0.0
 10
10.4777
 20
14.2424
 30
0.0
 10
10.4777
 20
14.2424
 30
0.0
 10
11.2977
 20
15.6631
 30
0.0
 10
12.3614
 20
16.9591
 30
0.0
 10
13.595
 20
18.0406
 30
0.0
 10
13.595
 20
18.0406
 30
0.0
 10
15.5721
 20
19.7745
 30
0.0
 10
18.0181
 20
20.981
 30
0.0
 10
20.5971
 20
21.4941
 30
0.0
 10
20.5971
 20
21.4941
 30
0.0
 10
23.1764
 20
22.0068
 30
0.0
 10
25.8977
 20
21.8287
 30
0.0
 10
28.388
 20
20.9834
 30
0.0
 10
28.388
 20
20.9834
 30
0.0
 10
30.1027
 20
20.401
 30
0.0
 10
31.7041
 20
19.5018
 30
0.0
 10
33.1027
 20
18.3541
 30
0.0
 10
33.1027
 20
18.3541
 30
0.0
 10
34.5015
 20
17.2064
 30
0.0
 10
35.6959
 20
15.8109
 30
0.0
 10
36.6018
 20
14.2424
 30
0.0
 10
36.6018
 20
14.2424
 30
0.0
 10
37.4219
 20
12.822
 30
0.0
 10
38.0125
 20
11.2527
 30
0.0
 10
38.3324
 20
9.6436
 30
0.0
 10
38.3324
 20
9.6436
 30
0.0
 10
38.4396
 20
9.1037
 30
0.0
 10
38.5039
 20
8.5595
 30
0.0
 10
38.5577
 20
8.0124
 30
0.0
  0
SPLINE
  5
224
330
1F
100
AcDbEntity
  8
ROUND
100
AcDbSpline
210
0.0
220
0.0
230
1.0
 70
     8
 71
     3
 72
    12
 73
     8
 74
     0
 42
0.0000000001
 43
0.0000000001
 40
0.0
 40
0.0
 40
0.0
 40
0.0
 40
0.3333333333333333
 40
0.3333333333333333
 40
0.3333333333333333
 40
0.3333333333333333
 40
1.0
 40
1.0
 40
1.0
 40
1.0
 10
39.409
 20
7.2519
 30
0.0
 10
39.6392
 20
7.022
 30
0.0
 10
39.5405
 20
7.1825
 30
0.0
 10
39.5405
 20
6.701
 30
0.0
 10
39.5405
 20
6.701
 30
0.0
 10
39.5405
 20
6.2195
 30
0.0
 10
39.6392
 20
6.3806
 30
0.0
 10
39.409
 20
6.1501
 30
0.0
  0
SPLINE
  5
225
330
1F
100
AcDbEntity
  8
ROUND
100
AcDbSpline
210
0.0
220
0.0
230
1.0
 70
     8
 71
     3
 72
    36
 73
    32
 74
     0
 42
0.0000000001
 43
0.0000000001
 40
0.0
 40
0.0
 40
0.0
 40
0.0
 40
0.1111111111111111
 40
0.1111111111111111
 40
0.1111111111111111
 40
0.1111111111111111
 40
0.2222222222222222
 40
0.2222222222222222
 40
0.2222222222222222
 40
0.2222222222222222
 40
0.3333333333333333
 40
0.3333333333333333
 40
0.3333333333333333
 40
0.3333333333333333
 40
0.4444444444444444
 40
0.4444444444444444
 40
0.4444444444444444
 40
0.4444444444444444
 40
0.5555555555555556
 40
0.5555555555555556
 40
0.5555555555555556
 40
0.5555555555555556
 40
0.6666666666666666
 40
0.6666666666666666
 40
0.6666666666666666
 40
0.6666666666666666
 40
0.7777777777777778
 40
0.7777777777777778
 40
0.7777777777777778
 40
0.7777777777777778
 40
1.0
 40
1.0
 40
1.0
 40
1.0
 10
38.0483
 20
8.0124
 30
0.0
 10
37.9037
 20
9.478
 30
0.0
 10
37.5701
 20
10.9158
 30
0.0
 10
37.0055
 20
12.279
 30
0.0
 10
37.0055
 20
12.279
 30
0.0
 10
35.5391
 20
15.8184
 30
0.0
 10
32.657
 20
18.7006
 30
0.0
 10
29.1171
 20
20.1667
 30
0.0
 10
29.1171
 20
20.1667
 30
0.0
 10
27.9462
 20
20.6521
 30
0.0
 10
26.6989
 20
20.9859
 30
0.0
 10
25.4419
 20
21.1514
 30
0.0
 10
25.4419
 20
21.1514
 30
0.0
 10
24.8095
 20
21.235
 30
0.0
 10
24.1762
 20
21.2556
 30
0.0
 10
23.5397
 20
21.2765
 30
0.0
 10
23.5397
 20
21.2765
 30
0.0
 10
22.9034
 20
21.2556
 30
0.0
 10
22.2697
 20
21.235
 30
0.0
 10
21.6373
 20
21.1514
 30
0.0
 10
21.6373
 20
21.1514
 30
0.0
 10
20.38
 20
20.9859
 30
0.0
 10
19.133
 20
20.6521
 30
0.0
 10
17.9621
 20
20.1667
 30
0.0
 10
17.9621
 20
20.1667
 30
0.0
 10
14.4223
 20
18.7006
 30
0.0
 10
11.5403
 20
15.8184
 30
0.0
 10
10.074
 20
12.279
 30
0.0
 10
10.074
 20
12.279
 30
0.0
 10
9.5094
 20
10.9158
 30
0.0
 10
9.1755
 20
9.478
 30
0.0
 10
9.0311
 20
8.0124
 30
0.0
  0
SPLINE
  5
226
330
1F
100
AcDbEntity
  8
ROUND
100
AcDbSpline
210
0.0
220
0.0
230
1.0
 70
     8
 71
     3
 72
    36
 73
    32
 74
     0
 42
0.0000000001
 43
0.0000000001
 40
0.0
 40
0.0
 40
0.0
 40
0.0
 40
0.1111111111111111
 40
0.1111111111111111
 40
0.1111111111111111
 40
0.1111111111111111
 40
0.2222222222222222
 40
0.2222222222222222
 40
0.2222222222222222
 40
0.2222222222222222
 40
0.3333333333333333
 40
0.3333333333333333
 40
0.3333333333333333
 40
0.3333333333333333
 40
0.4444444444444444
 40
0.4444444444444444
 40
0.4444444444444444
 40
0.4444444444444444
 40
0.5555555555555556
 40
0.5555555555555556
 40
0.5555555555555556
 40
0.5555555555555556
 40
0.6666666666666666
 40
0.6666666666666666
 40
0.6666666666666666
 40
0.6666666666666666
 40
0.7777777777777778
 40
0.7777777777777778
 40
0.7777777777777778
 40
0.7777777777777778
 40
1.0
 40
1.0
 40
1.0
 40
1.0
 10
38.4453
 20
8.0124
 30
0.0
 10
38.2925
 20
9.6577
 30
0.0
 10
37.8885
 20
11.2708
 30
0.0
 10
37.2164
 20
12.7822
 30
0.0
 10
37.2164
 20
12.7822
 30
0.0
 10
35.6869
 20
16.2223
 30
0.0
 10
32.8465
 20
19.0135
 30
0.0
 10
29.3798
 20
20.4827
 30
0.0
 10
29.3798
 20
20.4827
 30
0.0
 10
28.0014
 20
21.0666
 30
0.0
 10
26.5268
 20
21.444
 30
0.0
 10
25.0369
 20
21.5939
 30
0.0
 10
25.0369
 20
21.5939
 30
0.0
 10
24.5386
 20
21.6441
 30
0.0
 10
24.0397
 20
21.6565
 30
0.0
 10
23.5397
 20
21.6688
 30
0.0
 10
23.5397
 20
21.6688
 30
0.0
 10
23.0392
 20
21.6565
 30
0.0
 10
22.5404
 20
21.6441
 30
0.0
 10
22.0423
 20
21.5939
 30
0.0
 10
22.0423
 20
21.5939
 30
0.0
 10
20.5525
 20
21.444
 30
0.0
 10
19.0779
 20
21.0666
 30
0.0
 10
17.6992
 20
20.4827
 30
0.0
 10
17.6992
 20
20.4827
 30
0.0
 10
14.2326
 20
19.0135
 30
0.0
 10
11.3921
 20
16.2223
 30
0.0
 10
9.8628
 20
12.7822
 30
0.0
 10
9.8628
 20
12.7822
 30
0.0
 10
9.1907
 20
11.2708
 30
0.0
 10
8.787
 20
9.6577
 30
0.0
 10
8.6339
 20
8.0124
 30
0.0
  0
SPLINE
  5
227
330
1F
100
AcDbEntity
  8
ROUND
100
AcDbSpline
210
0.0
220
0.0
230
1.0
 70
     8
 71
     3
 72
    32
 73
    28
 74
     0
 42
0.0000000001
 43
0.0000000001
 40
0.0
 40
0.0
 40
0.0
 40
0.0
 40
0.125
 40
0.125
 40
0.125
 40
0.125
 40
0.25
 40
0.25
 40
0.25
 40
0.25
 40
0.375
 40
0.375
 40
0.375
 40
0.375
 40
0.5
 40
0.5
 40
0.5
 40
0.5
 40
0.625
 40
0.625
 40
0.625
 40
0.625
 40
0.75
 40
0.75
 40
0.75
 40
0.75
 40
1.0
 40
1.0
 40
1.0
 40
1.0
 10
8.9301
 20
8.0124
 30
0.0
 10
9.1025
 20
9.8616
 30
0.0
 10
9.6097
 20
11.6706
 30
0.0
 10
10.4494
 20
13.3296
 30
0.0
 10
10.4494
 20
13.3296
 30
0.0
 10
11.7791
 20
15.9552
 30
0.0
 10
13.9111
 20
18.1576
 30
0.0
 10
16.4929
 20
19.5712
 30
0.0
 10
16.4929
 20
19.5712
 30
0.0
 10
18.8577
 20
20.8658
 30
0.0
 10
21.5814
 20
21.4905
 30
0.0
 10
24.2744
 20
21.3554
 30
0.0
 10
24.2744
 20
21.3554
 30
0.0
 10
25.7399
 20
21.2822
 30
0.0
 10
27.2019
 20
20.9849
 30
0.0
 10
28.5799
 20
20.4809
 30
0.0
 10
28.5799
 20
20.4809
 30
0.0
 10
30.1883
 20
19.8929
 30
0.0
 10
31.6985
 20
19.0158
 30
0.0
 10
33.0071
 20
17.9109
 30
0.0
 10
33.0071
 20
17.9109
 30
0.0
 10
34.4116
 20
16.7248
 30
0.0
 10
35.5848
 20
15.2711
 30
0.0
 10
36.4557
 20
13.6531
 30
0.0
 10
36.4557
 20
13.6531
 30
0.0
 10
37.3964
 20
11.9052
 30
0.0
 10
37.9651
 20
9.988
 30
0.0
 10
38.1492
 20
8.0124
 30
0.0
  0
ENDSEC
  0
SECTION
  2
OBJECTS
  0
DICTIONARY
  5
C
330
0
100
AcDbDictionary
  3
ACAD_GROUP
350
D
  3
ACAD_LAYOUT
350
1A
  3
ACAD_MATERIAL
350
3B
  3
ACAD_MLEADERSTYLE
350
24A
  3
ACAD_MLINESTYLE
350
17
  3
ACAD_PLOTSETTINGS
350
19
  3
ACAD_VISUALSTYLE
350
2A
  3
ACDBHEADERROUNDTRIPXREC
350
228
  3
ACDBVARIABLEDICTIONARY
350
248
  0
DICTIONARY
  5
D
102
{ACAD_REACTORS
330
C
102
}
330
C
100
AcDbDictionary
  0
DICTIONARY
  5
1A
102
{ACAD_REACTORS
330
C
102
}
330
C
100
AcDbDictionary
  0
DICTIONARY
  5
3B
102
{ACAD_REACTORS
330
C
102
}
330
C
100
AcDbDictionary
  3
BYBLOCK
350
3D
  3
BYLAYER
350
3C
  3
GLOBAL
350
3E
  0
DICTIONARY
  5
24A
102
{ACAD_REACTORS
330
C
102
}
330
C
100
AcDbDictionary
  0
DICTIONARY
  5
17
102
{ACAD_REACTORS
330
C
102
}
330
C
100
AcDbDictionary
  3
STANDARD
350
18
  0
DICTIONARY
  5
19
102
{ACAD_REACTORS
330
C
102
}
330
C
100
AcDbDictionary
  0
DICTIONARY
  5
2A
102
{ACAD_REACTORS
330
C
102
}
330
C
100
AcDbDictionary
  3
2DWIREFRAME
350
2F
  3
3D_HIDDEN
350
31
  3
3DWIREFRAME
350
30
  3
BASIC
350
32
  3
BRIGHTEN
350
36
  3
COLORCHANGE
350
3A
  3
CONCEPTUAL
350
34
  3
DIM
350
35
  3
FACEPATTERN
350
39
  3
FLAT
350
2B
  3
FLATWITHEDGES
350
2C
  3
GOURAUD
350
2D
  3
GOURAUDWITHEDGES
350
2E
  3
LINEPATTERN
350
38
  3
REALISTIC
350
33
  3
THICKEN
350
37
  0
DICTIONARY
  5
228
102
{ACAD_REACTORS
330
C
102
}
330
C
100
AcDbDictionary
  3
CEPSNTYPE
350
231
  3
DIMSTYLEDATA
350
247
  3
FINGERPRINTGUID
350
232
  3
HYPERLINKBASE
350
22B
  3
INSUNITS
350
230
  3
LAYOUTDICT
350
22D
  3
LWETCUNION
350
22F
  3
PLOTSETDICT
350
22E
  3
PSVPSCALE
350
234
  3
PUCSBASE
350
237
  3
PUCSORGBACK
350
23D
  3
PUCSORGBOTTOM
350
239
  3
PUCSORGFRONT
350
23C
  3
PUCSORGLEFT
350
23A
  3
PUCSORGRIGHT
350
23B
  3
PUCSORGTOP
350
238
  3
PUCSORTHOREF
350
235
  3
PUCSORTHOVIEW
350
236
  3
STYLESHEET
350
22C
  3
TSTACKALIGN
350
229
  3
TSTACKSIZE
350
22A
  3
UCSBASE
350
240
  3
UCSORGBACK
350
246
  3
UCSORGBOTTOM
350
242
  3
UCSORGFRONT
350
245
  3
UCSORGLEFT
350
243
  3
UCSORGRIGHT
350
244
  3
UCSORGTOP
350
241
  3
UCSORTHOREF
350
23E
  3
UCSORTHOVIEW
350
23F
  3
VERSIONGUID
350
233
  0
DICTIONARY
  5
248
102
{ACAD_REACTORS
330
C
102
}
330
C
100
AcDbDictionary
  3
DIMASSOC
350
24B
  3
HIDETEXT
350
24C
  0
MATERIAL
  5
3D
102
{ACAD_REACTORS
330
3B
102
}
102
{ACAD_XDICTIONARY
360
24F
102
}
330
3B
100
AcDbMaterial
  1
ByBlock
  0
MATERIAL
  5
3C
102
{ACAD_REACTORS
330
3B
102
}
102
{ACAD_XDICTIONARY
360
24D
102
}
330
3B
100
AcDbMaterial
  1
ByLayer
  0
MATERIAL
  5
3E
102
{ACAD_REACTORS
330
3B
102
}
102
{ACAD_XDICTIONARY
360
251
102
}
330
3B
100
AcDbMaterial
  1
Global
  0
MLINESTYLE
  5
18
102
{ACAD_REACTORS
330
17
102
}
330
17
100
AcDbMlineStyle
  2
Standard
 70
     0
  3

 62
   256
 51
90.0
 52
90.0
 71
     2
 49
0.5
 62
   256
  6
BYLAYER
 49
-0.5
 62
   256
  6
BYLAYER
  0
ACAD_PROXY_OBJECT
  5
2F
102
{ACAD_REACTORS
330
2A
102
}
330
2A
100
AcDbProxyObject
 90
      499
 91
      501
 93
      436
310
42CC9915DA5C99599C985B595049028333333333333E3BF0000000000000FB0107901411070040501600405405064090741402480A0340
1001
ACAD
1000
AcDbSavedByObjectVersion
1070
     0
  0
ACAD_PROXY_OBJECT
  5
31
102
{ACAD_REACTORS
330
2A
102
}
330
2A
100
AcDbProxyObject
 90
      499
 91
      501
 93
      500
310
424CD108121A5919195B90640502408333333333333E3BF0000000000000FB01079024090700405020000000000001110200405405064090740C02480A0340
1001
ACAD
1000
AcDbSavedByObjectVersion
1070
     0
  0
ACAD_PROXY_OBJECT
  5
30
102
{ACAD_REACTORS
330
2A
102
}
330
2A
100
AcDbProxyObject
 90
      499
 91
      501
 93
      436
310
42CCD915DA5C99599C985B595059028333333333333E3BF0000000000000FB0107901411070040501600405405064090741402480A0340
1001
ACAD
1000
AcDbSavedByObjectVersion
1070
     0
  0
ACAD_PROXY_OBJECT
  5
32
102
{ACAD_REACTORS
330
2A
102
}
330
2A
100
AcDbProxyObject
 90
      499
 91
      501
 93
      388
310
4150985CDA58D07406404333333333333E3BF0000000000000FB0107A41107004050150841D405064090741402480A0350
1001
ACAD
1000
AcDbSavedByObjectVersion
1070
     0
  0
ACAD_PROXY_OBJECT
  5
36
102
{ACAD_REACTORS
330
2A
102
}
330
2A
100
AcDbProxyObject
 90
      499
 91
      501
 93
      428
310
42109C9A59DA1D195B90C409028333333333333E3BF0000000000000FB010790141107004050150841D405064090741402480A029950
1001
ACAD
1000
AcDbSavedByObjectVersion
1070
     0
  0
ACAD_PROXY_OBJECT
  5
3A
102
{ACAD_REACTORS
330
2A
102
}
330
2A
100
AcDbProxyObject
 90
      499
 91
      501
 93
      452
310
42D0DBDB1BDC90DA185B99D95104090240C333333333333E3BF0000000000000FB0108901411070040501508421405064090741402480A0350
1001
ACAD
1000
AcDbSavedByObjectVersion
1070
     0
  0
ACAD_PROXY_OBJECT
  5
34
102
{ACAD_REACTORS
330
2A
102
}
330
2A
100
AcDbProxyObject
 90
      499
 91
      501
 93
      500
310
4290DBDB98D95C1D1D585B10940D028333333333333E3BF0000000000000FB0107902409070040501000000000000111010841D405064090740C02480A0340
1001
ACAD
1000
AcDbSavedByObjectVersion
1070
     0
  0
ACAD_PROXY_OBJECT
  5
35
102
{ACAD_REACTORS
330
2A
102
}
330
2A
100
AcDbProxyObject
 90
      499
 91
      501
 93
      412
310
40D11A5B50B409028333333333333E3BF0000000000000FB010790141107004050150841D405064090741402480A02677FFFFFD0
1001
ACAD
1000
AcDbSavedByObjectVersion
1070
     0
  0
ACAD_PROXY_OBJECT
  5
39
102
{ACAD_REACTORS
330
2A
102
}
330
2A
100
AcDbProxyObject
 90
      499
 91
      501
 93
      444
310
42D19858D95C185D1D195C9B90F409028333333333333E3BF0000000000000FB010790141107004050150841D405064090741402480A0350
1001
ACAD
1000
AcDbSavedByObjectVersion
1070
     0
  0
ACAD_PROXY_OBJECT
  5
2B
102
{ACAD_REACTORS
330
2A
102
}
330
2A
100
AcDbProxyObject
 90
      499
 91
      501
 93
      388
310
41119B185D240901404333333333333E3BF0000000000000F9010740A41107004050150841D405064090741402480A1B50
1001
ACAD
1000
AcDbSavedByObjectVersion
1070
     0
  0
ACAD_PROXY_OBJECT
  5
2C
102
{ACAD_REACTORS
330
2A
102
}
330
2A
100
AcDbProxyObject
 90
      499
 91
      501
 93
      476
310
43519B185D15DA5D1A115919D95CD0140901404333333333333E3BF0000000000000F9010740901411070040501600405405064090741402480A1B50
1001
ACAD
1000
AcDbSavedByObjectVersion
1070
     0
  0
ACAD_PROXY_OBJECT
  5
2D
102
{ACAD_REACTORS
330
2A
102
}
330
2A
100
AcDbProxyObject
 90
      499
 91
      501
 93
      412
310
41D1DBDD5C985D5910240902404333333333333E3BF0000000000000F9010740A411070040501641D405064090741402480A1B50
1001
ACAD
1000
AcDbSavedByObjectVersion
1070
     0
  0
ACAD_PROXY_OBJECT
  5
2E
102
{ACAD_REACTORS
330
2A
102
}
330
2A
100
AcDbProxyObject
 90
      499
 91
      501
 93
      500
310
4411DBDD5C985D5915DA5D1A115919D95CD0340902404333333333333E3BF0000000000000F9010740901411070040501600405405064090741402480A1B50
1001
ACAD
1000
AcDbSavedByObjectVersion
1070
     0
  0
ACAD_PROXY_OBJECT
  5
38
102
{ACAD_REACTORS
330
2A
102
}
330
2A
100
AcDbProxyObject
 90
      499
 91
      501
 93
      444
310
42D31A5B995C185D1D195C9B90E409028333333333333E3BF0000000000000FB010790141107004050750841D405064090741402483A0350
1001
ACAD
1000
AcDbSavedByObjectVersion
1070
     0
  0
ACAD_PROXY_OBJECT
  5
33
102
{ACAD_REACTORS
330
2A
102
}
330
2A
100
AcDbProxyObject
 90
      499
 91
      501
 93
      420
310
425499585B1A5CDD1A58D08409028333333333333E3BF0000000000000FB01079019070040501508421405064090741402480A1B40
1001
ACAD
1000
AcDbSavedByObjectVersion
1070
     0
  0
ACAD_PROXY_OBJECT
  5
37
102
{ACAD_REACTORS
330
2A
102
}
330
2A
100
AcDbProxyObject
 90
      499
 91
      501
 93
      412
310
41D51A1A58DAD95B90D409028333333333333E3BF0000000000000FB010790141107004050150C41D405064090741402480A0350
1001
ACAD
1000
AcDbSavedByObjectVersion
1070
     0
  0
XRECORD
  5
231
102
{ACAD_REACTORS
330
228
102
}
330
228
100
AcDbXrecord
 90
        0
  0
XRECORD
  5
247
102
{ACAD_REACTORS
330
228
102
}
330
228
100
AcDbXrecord
1000
DSTYLE
1002
{
1070
   340
340
11
1002
}
  0
XRECORD
  5
232
102
{ACAD_REACTORS
330
228
102
}
330
228
100
AcDbXrecord
  1
{C96BC43A-C7F3-41BC-86D6-76B1A7A7C378}
  0
XRECORD
  5
22B
102
{ACAD_REACTORS
330
228
102
}
330
228
100
AcDbXrecord
  1

  0
XRECORD
  5
230
102
{ACAD_REACTORS
330
228
102
}
330
228
100
AcDbXrecord
 90
        4
  0
XRECORD
  5
22D
102
{ACAD_REACTORS
330
228
102
}
330
228
100
AcDbXrecord
340
1A
  0
XRECORD
  5
22F
102
{ACAD_REACTORS
330
228
102
}
330
228
100
AcDbXrecord
 90
    10781
  0
XRECORD
  5
22E
102
{ACAD_REACTORS
330
228
102
}
330
228
100
AcDbXrecord
340
19
  0
XRECORD
  5
234
102
{ACAD_REACTORS
330
228
102
}
330
228
100
AcDbXrecord
 40
0.0
  0
XRECORD
  5
237
102
{ACAD_REACTORS
330
228
102
}
330
228
100
AcDbXrecord
340
0
  0
XRECORD
  5
23D
102
{ACAD_REACTORS
330
228
102
}
330
228
100
AcDbXrecord
 10
0.0
 20
0.0
 30
0.0
  0
XRECORD
  5
239
102
{ACAD_REACTORS
330
228
102
}
330
228
100
AcDbXrecord
 10
0.0
 20
0.0
 30
0.0
  0
XRECORD
  5
23C
102
{ACAD_REACTORS
330
228
102
}
330
228
100
AcDbXrecord
 10
0.0
 20
0.0
 30
0.0
  0
XRECORD
  5
23A
102
{ACAD_REACTORS
330
228
102
}
330
228
100
AcDbXrecord
 10
0.0
 20
0.0
 30
0.0
  0
XRECORD
  5
23B
102
{ACAD_REACTORS
330
228
102
}
330
228
100
AcDbXrecord
 10
0.0
 20
0.0
 30
0.0
  0
XRECORD
  5
238
102
{ACAD_REACTORS
330
228
102
}
330
228
100
AcDbXrecord
 10
0.0
 20
0.0
 30
0.0
  0
XRECORD
  5
235
102
{ACAD_REACTORS
330
228
102
}
330
228
100
AcDbXrecord
340
0
  0
XRECORD
  5
236
102
{ACAD_REACTORS
330
228
102
}
330
228
100
AcDbXrecord
 70
     0
  0
XRECORD
  5
22C
102
{ACAD_REACTORS
330
228
102
}
330
228
100
AcDbXrecord
  1

  0
XRECORD
  5
229
102
{ACAD_REACTORS
330
228
102
}
330
228
100
AcDbXrecord
 90
        1
  0
XRECORD
  5
22A
102
{ACAD_REACTORS
330
228
102
}
330
228
100
AcDbXrecord
 90
       70
  0
XRECORD
  5
240
102
{ACAD_REACTORS
330
228
102
}
330
228
100
AcDbXrecord
340
0
  0
XRECORD
  5
246
102
{ACAD_REACTORS
330
228
102
}
330
228
100
AcDbXrecord
 10
0.0
 20
0.0
 30
0.0
  0
XRECORD
  5
242
102
{ACAD_REACTORS
330
228
102
}
330
228
100
AcDbXrecord
 10
0.0
 20
0.0
 30
0.0
  0
XRECORD
  5
245
102
{ACAD_REACTORS
330
228
102
}
330
228
100
AcDbXrecord
 10
0.0
 20
0.0
 30
0.0
  0
XRECORD
  5
243
102
{ACAD_REACTORS
330
228
102
}
330
228
100
AcDbXrecord
 10
0.0
 20
0.0
 30
0.0
  0
XRECORD
  5
244
102
{ACAD_REACTORS
330
228
102
}
330
228
100
AcDbXrecord
 10
0.0
 20
0.0
 30
0.0
  0
XRECORD
  5
241
102
{ACAD_REACTORS
330
228
102
}
330
228
100
AcDbXrecord
 10
0.0
 20
0.0
 30
0.0
  0
XRECORD
  5
23E
102
{ACAD_REACTORS
330
228
102
}
330
228
100
AcDbXrecord
340
0
  0
XRECORD
  5
23F
102
{ACAD_REACTORS
330
228
102
}
330
228
100
AcDbXrecord
 70
     0
  0
XRECORD
  5
233
102
{ACAD_REACTORS
330
228
102
}
330
228
100
AcDbXrecord
  1
{FAEB1C32-E019-11D5-929B-00C0DF256EC4}
  0
DICTIONARYVAR
  5
24B
102
{ACAD_REACTORS
330
248
102
}
330
248
100
DictionaryVariables
280
     0
  1
2
  0
DICTIONARYVAR
  5
24C
102
{ACAD_REACTORS
330
248
102
}
330
248
100
DictionaryVariables
280
     0
  1
1
  0
DICTIONARY
  5
24F
330
3D
100
AcDbDictionary
280
     1
  3
ACAD_XREC_ROUNDTRIP
360
250
  0
DICTIONARY
  5
24D
330
3C
100
AcDbDictionary
280
     1
  3
ACAD_XREC_ROUNDTRIP
360
24E
  0
DICTIONARY
  5
251
330
3E
100
AcDbDictionary
280
     1
  3
ACAD_XREC_ROUNDTRIP
360
252
  0
XRECORD
  5
250
102
{ACAD_REACTORS
330
24F
102
}
330
24F
100
AcDbXrecord
102
MATERIAL
148
0.0
149
0.0
149
0.0
 93
        0
 94
      127
282
     0
 72
     1
 77
     1
171
     1
175
     1
179
     1
273
     0
  0
XRECORD
  5
24E
102
{ACAD_REACTORS
330
24D
102
}
330
24D
100
AcDbXrecord
102
MATERIAL
148
0.0
149
0.0
149
0.0
 93
        0
 94
      127
282
     0
 72
     1
 77
     1
171
     1
175
     1
179
     1
273
     0
  0
XRECORD
  5
252
102
{ACAD_REACTORS
330
251
102
}
330
251
100
AcDbXrecord
102
MATERIAL
148
0.0
149
0.0
149
0.0
 93
        0
 94
      127
282
     0
 72
     1
 77
     1
171
     1
175
     1
179
     1
273
     0
  0
ENDSEC
  0
EOF
