  0
SECTION
  2
HEADER
  9
$ACADVER
  1
AC1014
  9
$ACADMAINTVER
 70
     9
  9
$DWGCODEPAGE
  3
ANSI_1250
  9
$INSBASE
 10
0.0
 20
0.0
 30
0.0
  9
$EXTMIN
 10
-25.6292
 20
-50.3085
 30
0.0
  9
$EXTMAX
 10
25.7701
 20
50.3086
 30
0.0
  9
$LIMMIN
 10
0.0
 20
0.0
  9
$LIMMAX
 10
12.0
 20
9.0
  9
$ORTHOMODE
 70
     0
  9
$REGENMODE
 70
     1
  9
$FILLMODE
 70
     1
  9
$QTEXTMODE
 70
     0
  9
$MIRRTEXT
 70
     1
  9
$DRAGMODE
 70
     2
  9
$LTSCALE
 40
1.0
  9
$OSMODE
 70
    37
  9
$ATTMODE
 70
     1
  9
$TEXTSIZE
 40
0.2
  9
$TRACEWID
 40
0.05
  9
$TEXTSTYLE
  7
STANDARD
  9
$CLAYER
  8
0
  9
$CELTYPE
  6
BYLAYER
  9
$CECOLOR
 62
   256
  9
$CELTSCALE
 40
1.0
  9
$DELOBJ
 70
     1
  9
$DISPSILH
 70
     0
  9
$DIMSCALE
 40
1.0
  9
$DIMASZ
 40
0.18
  9
$DIMEXO
 40
0.0625
  9
$DIMDLI
 40
0.38
  9
$DIMRND
 40
0.0
  9
$DIMDLE
 40
0.0
  9
$DIMEXE
 40
0.18
  9
$DIMTP
 40
0.0
  9
$DIMTM
 40
0.0
  9
$DIMTXT
 40
0.18
  9
$DIMCEN
 40
0.09
  9
$DIMTSZ
 40
0.0
  9
$DIMTOL
 70
     0
  9
$DIMLIM
 70
     0
  9
$DIMTIH
 70
     1
  9
$DIMTOH
 70
     1
  9
$DIMSE1
 70
     0
  9
$DIMSE2
 70
     0
  9
$DIMTAD
 70
     0
  9
$DIMZIN
 70
     0
  9
$DIMBLK
  1

  9
$DIMASO
 70
     1
  9
$DIMSHO
 70
     1
  9
$DIMPOST
  1

  9
$DIMAPOST
  1

  9
$DIMALT
 70
     0
  9
$DIMALTD
 70
     2
  9
$DIMALTF
 40
25.4
  9
$DIMLFAC
 40
1.0
  9
$DIMTOFL
 70
     0
  9
$DIMTVP
 40
0.0
  9
$DIMTIX
 70
     0
  9
$DIMSOXD
 70
     0
  9
$DIMSAH
 70
     0
  9
$DIMBLK1
  1

  9
$DIMBLK2
  1

  9
$DIMSTYLE
  2
STANDARD
  9
$DIMCLRD
 70
     0
  9
$DIMCLRE
 70
     0
  9
$DIMCLRT
 70
     0
  9
$DIMTFAC
 40
1.0
  9
$DIMGAP
 40
0.09
  9
$DIMJUST
 70
     0
  9
$DIMSD1
 70
     0
  9
$DIMSD2
 70
     0
  9
$DIMTOLJ
 70
     1
  9
$DIMTZIN
 70
     0
  9
$DIMALTZ
 70
     0
  9
$DIMALTTZ
 70
     0
  9
$DIMFIT
 70
     3
  9
$DIMUPT
 70
     0
  9
$DIMUNIT
 70
     2
  9
$DIMDEC
 70
     4
  9
$DIMTDEC
 70
     4
  9
$DIMALTU
 70
     2
  9
$DIMALTTD
 70
     2
  9
$DIMTXSTY
  7
STANDARD
  9
$DIMAUNIT
 70
     0
  9
$LUNITS
 70
     2
  9
$LUPREC
 70
     4
  9
$SKETCHINC
 40
0.1
  9
$FILLETRAD
 40
0.5
  9
$AUNITS
 70
     0
  9
$AUPREC
 70
     0
  9
$MENU
  1
.
  9
$ELEVATION
 40
0.0
  9
$PELEVATION
 40
0.0
  9
$THICKNESS
 40
0.0
  9
$LIMCHECK
 70
     0
  9
$CHAMFERA
 40
0.5
  9
$CHAMFERB
 40
0.5
  9
$CHAMFERC
 40
1.0
  9
$CHAMFERD
 40
0.0
  9
$SKPOLY
 70
     0
  9
$TDCREATE
 40
2456272.405306157
  9
$TDUPDATE
 40
2456272.405306169
  9
$TDINDWG
 40
0.0000000116
  9
$TDUSRTIMER
 40
0.0000000116
  9
$USRTIMER
 70
     1
  9
$ANGBASE
 50
0.0
  9
$ANGDIR
 70
     0
  9
$PDMODE
 70
     0
  9
$PDSIZE
 40
0.0
  9
$PLINEWID
 40
0.0
  9
$COORDS
 70
     1
  9
$SPLFRAME
 70
     0
  9
$SPLINETYPE
 70
     6
  9
$SPLINESEGS
 70
     8
  9
$ATTDIA
 70
     0
  9
$ATTREQ
 70
     1
  9
$HANDLING
 70
     1
  9
$HANDSEED
  5
9F
  9
$SURFTAB1
 70
     6
  9
$SURFTAB2
 70
     6
  9
$SURFTYPE
 70
     6
  9
$SURFU
 70
     6
  9
$SURFV
 70
     6
  9
$UCSNAME
  2

  9
$UCSORG
 10
0.0
 20
0.0
 30
0.0
  9
$UCSXDIR
 10
1.0
 20
0.0
 30
0.0
  9
$UCSYDIR
 10
0.0
 20
1.0
 30
0.0
  9
$PUCSNAME
  2

  9
$PUCSORG
 10
0.0
 20
0.0
 30
0.0
  9
$PUCSXDIR
 10
1.0
 20
0.0
 30
0.0
  9
$PUCSYDIR
 10
0.0
 20
1.0
 30
0.0
  9
$USERI1
 70
     0
  9
$USERI2
 70
     0
  9
$USERI3
 70
     0
  9
$USERI4
 70
     0
  9
$USERI5
 70
     0
  9
$USERR1
 40
0.0
  9
$USERR2
 40
0.0
  9
$USERR3
 40
0.0
  9
$USERR4
 40
0.0
  9
$USERR5
 40
0.0
  9
$WORLDVIEW
 70
     1
  9
$SHADEDGE
 70
     3
  9
$SHADEDIF
 70
    70
  9
$TILEMODE
 70
     1
  9
$MAXACTVP
 70
    64
  9
$PINSBASE
 10
0.0
 20
0.0
 30
0.0
  9
$PLIMCHECK
 70
     0
  9
$PEXTMIN
 10
1.000000000000000E+20
 20
1.000000000000000E+20
 30
1.000000000000000E+20
  9
$PEXTMAX
 10
-1.000000000000000E+20
 20
-1.000000000000000E+20
 30
-1.000000000000000E+20
  9
$PLIMMIN
 10
0.0
 20
0.0
  9
$PLIMMAX
 10
12.0
 20
9.0
  9
$UNITMODE
 70
     0
  9
$VISRETAIN
 70
     1
  9
$PLINEGEN
 70
     0
  9
$PSLTSCALE
 70
     1
  9
$TREEDEPTH
 70
  3020
  9
$PICKSTYLE
 70
     1
  9
$CMLSTYLE
  2
STANDARD
  9
$CMLJUST
 70
     0
  9
$CMLSCALE
 40
1.0
  9
$PROXYGRAPHICS
 70
     1
  9
$MEASUREMENT
 70
     0
  0
ENDSEC
  0
SECTION
  2
CLASSES
  0
CLASS
  1
ACDBDICTIONARYWDFLT
  2
AcDbDictionaryWithDefault
  3
ObjectDBX Classes
 90
        0
280
     0
281
     0
  0
CLASS
  1
VISUALSTYLE
  2
AcDbVisualStyle
  3
ObjectDBX Classes
 90
     4095
280
     0
281
     0
  0
CLASS
  1
MATERIAL
  2
AcDbMaterial
  3
ObjectDBX Classes
 90
     1153
280
     0
281
     0
  0
CLASS
  1
DICTIONARYVAR
  2
AcDbDictionaryVar
  3
ObjectDBX Classes
 90
        0
280
     0
281
     0
  0
CLASS
  1
XRECORD
  2
AcDbXrecord
  3
AutoCAD 2000
 90
        0
280
     0
281
     0
  0
CLASS
  1
LWPOLYLINE
  2
AcDbPolyline
  3
AutoCAD 2000
 90
        0
280
     0
281
     1
  0
CLASS
  1
HATCH
  2
AcDbHatch
  3
AutoCAD 2000
 90
        0
280
     0
281
     1
  0
CLASS
  1
ACDBPLACEHOLDER
  2
AcDbPlaceHolder
  3
ObjectDBX Classes
 90
        0
280
     0
281
     0
  0
CLASS
  1
LAYOUT
  2
AcDbLayout
  3
ObjectDBX Classes
 90
        0
280
     0
281
     0
  0
ENDSEC
  0
SECTION
  2
TABLES
  0
TABLE
  2
VPORT
  5
8
330
0
100
AcDbSymbolTable
 70
     1
  0
VPORT
  5
29
330
8
100
AcDbSymbolTableRecord
100
AcDbViewportTableRecord
  2
*ACTIVE
 70
     0
 10
0.0
 20
0.0
 11
1.0
 21
1.0
 12
10.42990654205607
 22
4.5
 13
0.0
 23
0.0
 14
0.5
 24
0.5
 15
0.5
 25
0.5
 16
0.0
 26
0.0
 36
1.0
 17
0.0
 27
0.0
 37
0.0
 40
9.0
 41
1.972972972850329
 42
50.0
 43
0.0
 44
0.0
 50
0.0
 51
0.0
 71
     0
 72
   100
 73
     1
 74
     3
 75
     0
 76
     0
 77
     0
 78
     0
  0
ENDTAB
  0
TABLE
  2
LTYPE
  5
5
330
0
100
AcDbSymbolTable
 70
     2
  0
LTYPE
  5
14
330
5
100
AcDbSymbolTableRecord
100
AcDbLinetypeTableRecord
  2
BYBLOCK
 70
     0
  3

 72
    65
 73
     0
 40
0.0
  0
LTYPE
  5
15
330
5
100
AcDbSymbolTableRecord
100
AcDbLinetypeTableRecord
  2
BYLAYER
 70
     0
  3

 72
    65
 73
     0
 40
0.0
  0
LTYPE
  5
16
330
5
100
AcDbSymbolTableRecord
100
AcDbLinetypeTableRecord
  2
CONTINUOUS
 70
     0
  3
Solid line
 72
    65
 73
     0
 40
0.0
  0
LTYPE
  5
48
330
5
100
AcDbSymbolTableRecord
100
AcDbLinetypeTableRecord
  2
NEW_LINE1
 70
     0
  3

 72
    65
 73
     4
 40
1.2
 49
0.5
 74
     4
 75
     0
340
0
 46
1.0
 50
0.0
 44
0.0
 45
0.0
 49
-0.3
 74
     4
 75
     0
340
0
 46
1.0
 50
0.0
 44
0.0
 45
0.0
 49
0.1
 74
     4
 75
     0
340
0
 46
1.0
 50
0.0
 44
0.0
 45
0.0
 49
-0.3
 74
     4
 75
     0
340
0
 46
1.0
 50
0.0
 44
0.0
 45
0.0
  0
ENDTAB
  0
TABLE
  2
LAYER
  5
2
330
0
100
AcDbSymbolTable
 70
     2
  0
LAYER
  5
10
330
2
100
AcDbSymbolTableRecord
100
AcDbLayerTableRecord
  2
0
 70
     0
 62
     7
  6
CONTINUOUS
  0
LAYER
  5
40
330
2
100
AcDbSymbolTableRecord
100
AcDbLayerTableRecord
  2
ROUND
 70
     0
 62
     7
  6
CONTINUOUS
  0
ENDTAB
  0
TABLE
  2
STYLE
  5
3
330
0
100
AcDbSymbolTable
 70
     1
  0
STYLE
  5
11
330
3
100
AcDbSymbolTableRecord
100
AcDbTextStyleTableRecord
  2
STANDARD
 70
     0
 40
0.0
 41
1.0
 50
0.0
 71
     0
 42
0.2
  3
txt
  4

  0
ENDTAB
  0
TABLE
  2
VIEW
  5
6
330
0
100
AcDbSymbolTable
 70
     0
  0
ENDTAB
  0
TABLE
  2
UCS
  5
7
330
0
100
AcDbSymbolTable
 70
     0
  0
ENDTAB
  0
TABLE
  2
APPID
  5
9
330
0
100
AcDbSymbolTable
 70
     2
  0
APPID
  5
12
330
9
100
AcDbSymbolTableRecord
100
AcDbRegAppTableRecord
  2
ACAD
 70
     0
  0
APPID
  5
3F
330
9
100
AcDbSymbolTableRecord
100
AcDbRegAppTableRecord
  2
ODA
 70
     0
  0
ENDTAB
  0
TABLE
  2
DIMSTYLE
  5
A
330
0
100
AcDbSymbolTable
 70
     1
  0
DIMSTYLE
105
27
330
A
100
AcDbSymbolTableRecord
100
AcDbDimStyleTableRecord
  2
STANDARD
 70
     0
  3

  4

  5

  6

  7

 40
1.0
 41
0.18
 42
0.0625
 43
0.38
 44
0.18
 45
0.0
 46
0.0
 47
0.0
 48
0.0
140
0.18
141
0.09
142
0.0
143
25.4
144
1.0
145
0.0
146
1.0
147
0.09
 71
     0
 72
     0
 73
     1
 74
     1
 75
     0
 76
     0
 77
     0
 78
     0
170
     0
171
     2
172
     0
173
     0
174
     0
175
     0
176
     0
177
     0
178
     0
270
     2
271
     4
272
     4
273
     2
274
     2
340
11
275
     0
280
     0
281
     0
282
     0
283
     1
284
     0
285
     0
286
     0
287
     3
288
     0
  0
ENDTAB
  0
TABLE
  2
BLOCK_RECORD
  5
1
330
0
100
AcDbSymbolTable
 70
     1
  0
BLOCK_RECORD
  5
1F
330
1
100
AcDbSymbolTableRecord
100
AcDbBlockTableRecord
  2
*MODEL_SPACE
  0
BLOCK_RECORD
  5
1B
330
1
100
AcDbSymbolTableRecord
100
AcDbBlockTableRecord
  2
*PAPER_SPACE
  0
ENDTAB
  0
ENDSEC
  0
SECTION
  2
BLOCKS
  0
BLOCK
  5
20
330
1F
100
AcDbEntity
  8
0
100
AcDbBlockBegin
  2
*MODEL_SPACE
 70
     0
 10
0.0
 20
0.0
 30
0.0
  3
*MODEL_SPACE
  1

  0
ENDBLK
  5
21
330
1F
100
AcDbEntity
  8
0
100
AcDbBlockEnd
  0
BLOCK
  5
1C
330
1B
100
AcDbEntity
 67
     1
  8
0
100
AcDbBlockBegin
  2
*PAPER_SPACE
 70
     0
 10
0.0
 20
0.0
 30
0.0
  3
*PAPER_SPACE
  1

  0
ENDBLK
  5
1D
330
1B
100
AcDbEntity
 67
     1
  8
0
100
AcDbBlockEnd
  0
ENDSEC
  0
SECTION
  2
ENTITIES
  0
SPLINE
  5
41
330
1F
100
AcDbEntity
  8
ROUND
 62
   250
100
AcDbSpline
210
0.0
220
0.0
230
1.0
 70
    24
 71
     3
 72
     8
 73
     4
 74
     0
 42
0.0000000001
 43
0.0000000001
 40
0.0
 40
0.0
 40
0.0
 40
0.0
 40
1.0
 40
1.0
 40
1.0
 40
1.0
 10
-11.4944
 20
-41.4668
 30
0.0
 10
-11.4944
 20
-41.4668
 30
0.0
 10
21.6797
 20
-41.4668
 30
0.0
 10
21.6797
 20
-41.4668
 30
0.0
  0
SPLINE
  5
42
330
1F
100
AcDbEntity
  8
ROUND
 62
   250
100
AcDbSpline
210
0.0
220
0.0
230
1.0
 70
    24
 71
     3
 72
     8
 73
     4
 74
     0
 42
0.0000000001
 43
0.0000000001
 40
0.0
 40
0.0
 40
0.0
 40
0.0
 40
1.0
 40
1.0
 40
1.0
 40
1.0
 10
-12.2843
 20
26.2966
 30
0.0
 10
-12.2843
 20
26.2966
 30
0.0
 10
22.4695
 20
26.2966
 30
0.0
 10
22.4695
 20
26.2966
 30
0.0
  0
SPLINE
  5
43
330
1F
100
AcDbEntity
  8
ROUND
 62
   250
100
AcDbSpline
210
0.0
220
0.0
230
1.0
 70
    24
 71
     3
 72
     8
 73
     4
 74
     0
 42
0.0000000001
 43
0.0000000001
 40
0.0
 40
0.0
 40
0.0
 40
0.0
 40
1.0
 40
1.0
 40
1.0
 40
1.0
 10
-15.4437
 20
31.7689
 30
0.0
 10
-15.4437
 20
31.7689
 30
0.0
 10
25.629
 20
31.7689
 30
0.0
 10
25.629
 20
31.7689
 30
0.0
  0
SPLINE
  5
44
330
1F
100
AcDbEntity
  8
ROUND
 62
   250
100
AcDbSpline
210
0.0
220
0.0
230
1.0
 70
    24
 71
     3
 72
     8
 73
     4
 74
     0
 42
0.0000000001
 43
0.0000000001
 40
0.0
 40
0.0
 40
0.0
 40
0.0
 40
1.0
 40
1.0
 40
1.0
 40
1.0
 10
-15.4437
 20
31.7689
 30
0.0
 10
-15.4437
 20
31.7689
 30
0.0
 10
-12.2843
 20
26.2966
 30
0.0
 10
-12.2843
 20
26.2966
 30
0.0
  0
SPLINE
  5
45
330
1F
100
AcDbEntity
  8
ROUND
 62
   250
100
AcDbSpline
210
0.0
220
0.0
230
1.0
 70
    24
 71
     3
 72
     8
 73
     4
 74
     0
 42
0.0000000001
 43
0.0000000001
 40
0.0
 40
0.0
 40
0.0
 40
0.0
 40
1.0
 40
1.0
 40
1.0
 40
1.0
 10
-15.4437
 20
35.8761
 30
0.0
 10
-15.4437
 20
35.8761
 30
0.0
 10
-15.4437
 20
31.7689
 30
0.0
 10
-15.4437
 20
31.7689
 30
0.0
  0
SPLINE
  5
46
330
1F
100
AcDbEntity
  8
ROUND
 62
   250
100
AcDbSpline
210
0.0
220
0.0
230
1.0
 70
    24
 71
     3
 72
     8
 73
     4
 74
     0
 42
0.0000000001
 43
0.0000000001
 40
0.0
 40
0.0
 40
0.0
 40
0.0
 40
1.0
 40
1.0
 40
1.0
 40
1.0
 10
-12.2843
 20
26.2964
 30
0.0
 10
-12.2843
 20
26.2964
 30
0.0
 10
-12.2843
 20
-40.6495
 30
0.0
 10
-12.2843
 20
-40.6495
 30
0.0
  0
SPLINE
  5
47
330
1F
100
AcDbEntity
  8
ROUND
  6
NEW_LINE1
 62
   250
100
AcDbSpline
210
0.0
220
0.0
230
1.0
 70
    24
 71
     3
 72
     8
 73
     4
 74
     0
 42
0.0000000001
 43
0.0000000001
 40
0.0
 40
0.0
 40
0.0
 40
0.0
 40
1.0
 40
1.0
 40
1.0
 40
1.0
 10
5.0926
 20
-43.765
 30
0.0
 10
5.0926
 20
-43.765
 30
0.0
 10
5.0926
 20
38.5089
 30
0.0
 10
5.0926
 20
38.5089
 30
0.0
  0
SPLINE
  5
49
330
1F
100
AcDbEntity
  8
ROUND
 62
   250
100
AcDbSpline
210
0.0
220
0.0
230
1.0
 70
    24
 71
     3
 72
     8
 73
     4
 74
     0
 42
0.0000000001
 43
0.0000000001
 40
0.0
 40
0.0
 40
0.0
 40
0.0
 40
1.0
 40
1.0
 40
1.0
 40
1.0
 10
22.4695
 20
26.2964
 30
0.0
 10
22.4695
 20
26.2964
 30
0.0
 10
22.4695
 20
-40.6495
 30
0.0
 10
22.4695
 20
-40.6495
 30
0.0
  0
SPLINE
  5
4A
330
1F
100
AcDbEntity
  8
ROUND
 62
   250
100
AcDbSpline
210
0.0
220
0.0
230
1.0
 70
    24
 71
     3
 72
     8
 73
     4
 74
     0
 42
0.0000000001
 43
0.0000000001
 40
0.0
 40
0.0
 40
0.0
 40
0.0
 40
1.0
 40
1.0
 40
1.0
 40
1.0
 10
25.629
 20
35.8761
 30
0.0
 10
25.629
 20
35.8761
 30
0.0
 10
25.629
 20
31.7689
 30
0.0
 10
25.629
 20
31.7689
 30
0.0
  0
SPLINE
  5
4B
330
1F
100
AcDbEntity
  8
ROUND
 62
   250
100
AcDbSpline
210
0.0
220
0.0
230
1.0
 70
    24
 71
     3
 72
     8
 73
     4
 74
     0
 42
0.0000000001
 43
0.0000000001
 40
0.0
 40
0.0
 40
0.0
 40
0.0
 40
1.0
 40
1.0
 40
1.0
 40
1.0
 10
25.629
 20
31.7689
 30
0.0
 10
25.629
 20
31.7689
 30
0.0
 10
22.4695
 20
26.2966
 30
0.0
 10
22.4695
 20
26.2966
 30
0.0
  0
SPLINE
  5
4C
330
1F
100
AcDbEntity
  8
ROUND
 62
   250
100
AcDbSpline
210
0.0
220
0.0
230
1.0
 70
    24
 71
     3
 72
     8
 73
     4
 74
     0
 42
0.0000000001
 43
0.0000000001
 40
0.0
 40
0.0
 40
0.0
 40
0.0
 40
1.0
 40
1.0
 40
1.0
 40
1.0
 10
-11.6524
 20
-41.4668
 30
0.0
 10
-11.6524
 20
-41.4668
 30
0.0
 10
-22.343
 20
-41.4668
 30
0.0
 10
-22.343
 20
-41.4668
 30
0.0
  0
SPLINE
  5
4D
330
1F
100
AcDbEntity
  8
ROUND
 62
   250
100
AcDbSpline
210
0.0
220
0.0
230
1.0
 70
    24
 71
     3
 72
     8
 73
     4
 74
     0
 42
0.0000000001
 43
0.0000000001
 40
0.0
 40
0.0
 40
0.0
 40
0.0
 40
1.0
 40
1.0
 40
1.0
 40
1.0
 10
-14.8119
 20
36.5081
 30
0.0
 10
-14.8119
 20
36.5081
 30
0.0
 10
-22.343
 20
36.5081
 30
0.0
 10
-22.343
 20
36.5081
 30
0.0
  0
SPLINE
  5
4E
330
1F
100
AcDbEntity
  8
ROUND
 62
   250
100
AcDbSpline
210
0.0
220
0.0
230
1.0
 70
    24
 71
     3
 72
     8
 73
     4
 74
     0
 42
0.0000000001
 43
0.0000000001
 40
0.0
 40
0.0
 40
0.0
 40
0.0
 40
1.0
 40
1.0
 40
1.0
 40
1.0
 10
-11.6524
 20
-41.4668
 30
0.0
 10
-11.6524
 20
-41.4668
 30
0.0
 10
21.8377
 20
-41.4668
 30
0.0
 10
21.8377
 20
-41.4668
 30
0.0
  0
SPLINE
  5
4F
330
1F
100
AcDbEntity
  8
ROUND
 62
   250
100
AcDbSpline
210
0.0
220
0.0
230
1.0
 70
    24
 71
     3
 72
     8
 73
     4
 74
     0
 42
0.0000000001
 43
0.0000000001
 40
0.0
 40
0.0
 40
0.0
 40
0.0
 40
1.0
 40
1.0
 40
1.0
 40
1.0
 10
-12.2843
 20
-40.8349
 30
0.0
 10
-12.2843
 20
-40.8349
 30
0.0
 10
22.4695
 20
-40.8349
 30
0.0
 10
22.4695
 20
-40.8349
 30
0.0
  0
SPLINE
  5
50
330
1F
100
AcDbEntity
  8
ROUND
 62
   250
100
AcDbSpline
210
0.0
220
0.0
230
1.0
 70
    24
 71
     3
 72
     8
 73
     4
 74
     0
 42
0.0000000001
 43
0.0000000001
 40
0.0
 40
0.0
 40
0.0
 40
0.0
 40
1.0
 40
1.0
 40
1.0
 40
1.0
 10
-15.4437
 20
35.8761
 30
0.0
 10
-15.4437
 20
35.8761
 30
0.0
 10
25.629
 20
35.8761
 30
0.0
 10
25.629
 20
35.8761
 30
0.0
  0
SPLINE
  5
51
330
1F
100
AcDbEntity
  8
ROUND
 62
   250
100
AcDbSpline
210
0.0
220
0.0
230
1.0
 70
    24
 71
     3
 72
     8
 73
     4
 74
     0
 42
0.0000000001
 43
0.0000000001
 40
0.0
 40
0.0
 40
0.0
 40
0.0
 40
1.0
 40
1.0
 40
1.0
 40
1.0
 10
-14.8119
 20
36.5081
 30
0.0
 10
-14.8119
 20
36.5081
 30
0.0
 10
24.9971
 20
36.5081
 30
0.0
 10
24.9971
 20
36.5081
 30
0.0
  0
SPLINE
  5
52
330
1F
100
AcDbEntity
  8
ROUND
 62
   250
100
AcDbSpline
210
0.0
220
0.0
230
1.0
 70
    24
 71
     3
 72
     8
 73
     4
 74
     0
 42
0.0000000001
 43
0.0000000001
 40
0.0
 40
0.0
 40
0.0
 40
0.0
 40
1.0
 40
1.0
 40
1.0
 40
1.0
 10
-11.6524
 20
-41.4668
 30
0.0
 10
-11.6524
 20
-41.4668
 30
0.0
 10
-12.2843
 20
-40.8349
 30
0.0
 10
-12.2843
 20
-40.8349
 30
0.0
  0
SPLINE
  5
53
330
1F
100
AcDbEntity
  8
ROUND
 62
   250
100
AcDbSpline
210
0.0
220
0.0
230
1.0
 70
    24
 71
     3
 72
     8
 73
     4
 74
     0
 42
0.0000000001
 43
0.0000000001
 40
0.0
 40
0.0
 40
0.0
 40
0.0
 40
1.0
 40
1.0
 40
1.0
 40
1.0
 10
-14.8119
 20
36.5081
 30
0.0
 10
-14.8119
 20
36.5081
 30
0.0
 10
-15.4437
 20
35.8761
 30
0.0
 10
-15.4437
 20
35.8761
 30
0.0
  0
SPLINE
  5
54
330
1F
100
AcDbEntity
  8
ROUND
 62
   250
100
AcDbSpline
210
0.0
220
0.0
230
1.0
 70
    24
 71
     3
 72
     8
 73
     4
 74
     0
 42
0.0000000001
 43
0.0000000001
 40
0.0
 40
0.0
 40
0.0
 40
0.0
 40
1.0
 40
1.0
 40
1.0
 40
1.0
 10
24.9971
 20
36.5081
 30
0.0
 10
24.9971
 20
36.5081
 30
0.0
 10
25.629
 20
35.8761
 30
0.0
 10
25.629
 20
35.8761
 30
0.0
  0
SPLINE
  5
55
330
1F
100
AcDbEntity
  8
ROUND
 62
   250
100
AcDbSpline
210
0.0
220
0.0
230
1.0
 70
    24
 71
     3
 72
     8
 73
     4
 74
     0
 42
0.0000000001
 43
0.0000000001
 40
0.0
 40
0.0
 40
0.0
 40
0.0
 40
1.0
 40
1.0
 40
1.0
 40
1.0
 10
21.8377
 20
-41.4668
 30
0.0
 10
21.8377
 20
-41.4668
 30
0.0
 10
22.4695
 20
-40.8349
 30
0.0
 10
22.4695
 20
-40.8349
 30
0.0
  0
SPLINE
  5
56
330
1F
100
AcDbEntity
  8
ROUND
 62
   250
100
AcDbSpline
210
0.0
220
0.0
230
1.0
 70
    24
 71
     3
 72
     8
 73
     4
 74
     0
 42
0.0000000001
 43
0.0000000001
 40
0.0
 40
0.0
 40
0.0
 40
0.0
 40
1.0
 40
1.0
 40
1.0
 40
1.0
 10
-15.6218
 20
37.0966
 30
0.0
 10
-15.6218
 20
37.0966
 30
0.0
 10
-15.6218
 20
46.7985
 30
0.0
 10
-15.6218
 20
46.7985
 30
0.0
  0
SPLINE
  5
57
330
1F
100
AcDbEntity
  8
ROUND
 62
   250
100
AcDbSpline
210
0.0
220
0.0
230
1.0
 70
    24
 71
     3
 72
     8
 73
     4
 74
     0
 42
0.0000000001
 43
0.0000000001
 40
0.0
 40
0.0
 40
0.0
 40
0.0
 40
1.0
 40
1.0
 40
1.0
 40
1.0
 10
25.4511
 20
37.0966
 30
0.0
 10
25.4511
 20
37.0966
 30
0.0
 10
25.4511
 20
47.1913
 30
0.0
 10
25.4511
 20
47.1913
 30
0.0
  0
SPLINE
  5
58
330
1F
100
AcDbEntity
  8
ROUND
 62
   250
100
AcDbSpline
210
0.0
220
0.0
230
1.0
 70
    24
 71
     3
 72
     8
 73
     4
 74
     0
 42
0.0000000001
 43
0.0000000001
 40
0.0
 40
0.0
 40
0.0
 40
0.0
 40
1.0
 40
1.0
 40
1.0
 40
1.0
 10
-12.3634
 20
-42.1948
 30
0.0
 10
-12.3634
 20
-42.1948
 30
0.0
 10
-12.3634
 20
-50.3085
 30
0.0
 10
-12.3634
 20
-50.3085
 30
0.0
  0
SPLINE
  5
59
330
1F
100
AcDbEntity
  8
ROUND
 62
   250
100
AcDbSpline
210
0.0
220
0.0
230
1.0
 70
    24
 71
     3
 72
     8
 73
     4
 74
     0
 42
0.0000000001
 43
0.0000000001
 40
0.0
 40
0.0
 40
0.0
 40
0.0
 40
1.0
 40
1.0
 40
1.0
 40
1.0
 10
22.3904
 20
-42.1948
 30
0.0
 10
22.3904
 20
-42.1948
 30
0.0
 10
22.3904
 20
-50.2676
 30
0.0
 10
22.3904
 20
-50.2676
 30
0.0
  0
SPLINE
  5
5A
330
1F
100
AcDbEntity
  8
ROUND
 62
   250
100
AcDbSpline
210
0.0
220
0.0
230
1.0
 70
    11
 71
     3
 72
    84
 73
    80
 74
     0
 42
0.0000000001
 43
0.0000000001
 40
0.0
 40
0.0
 40
0.0
 40
0.0
 40
0.0476190476190476
 40
0.0476190476190476
 40
0.0476190476190476
 40
0.0476190476190476
 40
0.0952380952380952
 40
0.0952380952380952
 40
0.0952380952380952
 40
0.0952380952380952
 40
0.1428571428571428
 40
0.1428571428571428
 40
0.1428571428571428
 40
0.1428571428571428
 40
0.1904761904761905
 40
0.1904761904761905
 40
0.1904761904761905
 40
0.1904761904761905
 40
0.2380952380952381
 40
0.2380952380952381
 40
0.2380952380952381
 40
0.2380952380952381
 40
0.2857142857142857
 40
0.2857142857142857
 40
0.2857142857142857
 40
0.2857142857142857
 40
0.3333333333333333
 40
0.3333333333333333
 40
0.3333333333333333
 40
0.3333333333333333
 40
0.3809523809523809
 40
0.3809523809523809
 40
0.3809523809523809
 40
0.3809523809523809
 40
0.4285714285714285
 40
0.4285714285714285
 40
0.4285714285714285
 40
0.4285714285714285
 40
0.4761904761904762
 40
0.4761904761904762
 40
0.4761904761904762
 40
0.4761904761904762
 40
0.5238095238095238
 40
0.5238095238095238
 40
0.5238095238095238
 40
0.5238095238095238
 40
0.5714285714285714
 40
0.5714285714285714
 40
0.5714285714285714
 40
0.5714285714285714
 40
0.6190476190476191
 40
0.6190476190476191
 40
0.6190476190476191
 40
0.6190476190476191
 40
0.6666666666666666
 40
0.6666666666666666
 40
0.6666666666666666
 40
0.6666666666666666
 40
0.7142857142857143
 40
0.7142857142857143
 40
0.7142857142857143
 40
0.7142857142857143
 40
0.7619047619047619
 40
0.7619047619047619
 40
0.7619047619047619
 40
0.7619047619047619
 40
0.8095238095238095
 40
0.8095238095238095
 40
0.8095238095238095
 40
0.8095238095238095
 40
0.8571428571428571
 40
0.8571428571428571
 40
0.8571428571428571
 40
0.8571428571428571
 40
0.9047619047619048
 40
0.9047619047619048
 40
0.9047619047619048
 40
0.9047619047619048
 40
1.0
 40
1.0
 40
1.0
 40
1.0
 10
2.739
 20
-45.6539
 30
0.0
 10
2.739
 20
-45.6539
 30
0.0
 10
3.0873
 20
-45.2639
 30
0.0
 10
3.0873
 20
-45.2639
 30
0.0
 10
3.0873
 20
-45.2639
 30
0.0
 10
3.0873
 20
-45.2639
 30
0.0
 10
3.2926
 20
-45.4381
 30
0.0
 10
3.2926
 20
-45.4381
 30
0.0
 10
3.2926
 20
-45.4381
 30
0.0
 10
3.2926
 20
-45.4381
 30
0.0
 10
2.928
 20
-45.8486
 30
0.0
 10
2.928
 20
-45.8486
 30
0.0
 10
2.928
 20
-45.8486
 30
0.0
 10
3.0469
 20
-46.0256
 30
0.0
 10
3.1268
 20
-46.1807
 30
0.0
 10
3.1687
 20
-46.313
 30
0.0
 10
3.1687
 20
-46.313
 30
0.0
 10
3.2239
 20
-46.4873
 30
0.0
 10
3.2515
 20
-46.6826
 30
0.0
 10
3.2515
 20
-46.8978
 30
0.0
 10
3.2515
 20
-46.8978
 30
0.0
 10
3.2515
 20
-47.2092
 30
0.0
 10
3.1886
 20
-47.4868
 30
0.0
 10
3.0624
 20
-47.7295
 30
0.0
 10
3.0624
 20
-47.7295
 30
0.0
 10
2.9364
 20
-47.9732
 30
0.0
 10
2.7602
 20
-48.1571
 30
0.0
 10
2.5329
 20
-48.2818
 30
0.0
 10
2.5329
 20
-48.2818
 30
0.0
 10
2.3049
 20
-48.4056
 30
0.0
 10
2.0637
 20
-48.4679
 30
0.0
 10
1.8081
 20
-48.4679
 30
0.0
 10
1.8081
 20
-48.4679
 30
0.0
 10
1.6169
 20
-48.4679
 30
0.0
 10
1.4442
 20
-48.4411
 30
0.0
 10
1.2891
 20
-48.3873
 30
0.0
 10
1.2891
 20
-48.3873
 30
0.0
 10
1.1702
 20
-48.3456
 30
0.0
 10
1.0315
 20
-48.2663
 30
0.0
 10
0.8721
 20
-48.1487
 30
0.0
 10
0.8721
 20
-48.1487
 30
0.0
 10
0.8721
 20
-48.1487
 30
0.0
 10
0.5238
 20
-48.5388
 30
0.0
 10
0.5238
 20
-48.5388
 30
0.0
 10
0.5238
 20
-48.5388
 30
0.0
 10
0.5238
 20
-48.5388
 30
0.0
 10
0.3185
 20
-48.3647
 30
0.0
 10
0.3185
 20
-48.3647
 30
0.0
 10
0.3185
 20
-48.3647
 30
0.0
 10
0.3185
 20
-48.3647
 30
0.0
 10
0.6838
 20
-47.9562
 30
0.0
 10
0.6838
 20
-47.9562
 30
0.0
 10
0.6838
 20
-47.9562
 30
0.0
 10
0.5479
 20
-47.7502
 30
0.0
 10
0.4573
 20
-47.5739
 30
0.0
 10
0.412
 20
-47.4281
 30
0.0
 10
0.412
 20
-47.4281
 30
0.0
 10
0.3667
 20
-47.2822
 30
0.0
 10
0.3433
 20
-47.1066
 30
0.0
 10
0.3433
 20
-46.9021
 30
0.0
 10
0.3433
 20
-46.9021
 30
0.0
 10
0.3433
 20
-46.5899
 30
0.0
 10
0.4057
 20
-46.3116
 30
0.0
 10
0.5301
 20
-46.0673
 30
0.0
 10
0.5301
 20
-46.0673
 30
0.0
 10
0.6547
 20
-45.8231
 30
0.0
 10
0.8289
 20
-45.6384
 30
0.0
 10
1.054
 20
-45.5124
 30
0.0
 10
1.054
 20
-45.5124
 30
0.0
 10
1.2785
 20
-45.387
 30
0.0
 10
1.5284
 20
-45.324
 30
0.0
 10
1.8037
 20
-45.324
 30
0.0
 10
1.8037
 20
-45.324
 30
0.0
 10
1.9893
 20
-45.324
 30
0.0
 10
2.1514
 20
-45.3481
 30
0.0
 10
2.2902
 20
-45.3977
 30
0.0
 10
2.2902
 20
-45.3977
 30
0.0
 10
2.4289
 20
-45.4465
 30
0.0
 10
2.579
 20
-45.5321
 30
0.0
 10
2.739
 20
-45.6539
 30
0.0
  0
SPLINE
  5
5B
330
1F
100
AcDbEntity
  8
ROUND
 62
   250
100
AcDbSpline
210
0.0
220
0.0
230
1.0
 70
    11
 71
     3
 72
    32
 73
    28
 74
     0
 42
0.0000000001
 43
0.0000000001
 40
0.0
 40
0.0
 40
0.0
 40
0.0
 40
0.125
 40
0.125
 40
0.125
 40
0.125
 40
0.25
 40
0.25
 40
0.25
 40
0.25
 40
0.375
 40
0.375
 40
0.375
 40
0.375
 40
0.5
 40
0.5
 40
0.5
 40
0.5
 40
0.625
 40
0.625
 40
0.625
 40
0.625
 40
0.75
 40
0.75
 40
0.75
 40
0.75
 40
1.0
 40
1.0
 40
1.0
 40
1.0
 10
2.4905
 20
-45.9335
 30
0.0
 10
2.3602
 20
-45.8316
 30
0.0
 10
2.2462
 20
-45.7615
 30
0.0
 10
2.1493
 20
-45.724
 30
0.0
 10
2.1493
 20
-45.724
 30
0.0
 10
2.0516
 20
-45.6872
 30
0.0
 10
1.9369
 20
-45.668
 30
0.0
 10
1.8058
 20
-45.668
 30
0.0
 10
1.8058
 20
-45.668
 30
0.0
 10
1.5029
 20
-45.668
 30
0.0
 10
1.253
 20
-45.7707
 30
0.0
 10
1.0548
 20
-45.976
 30
0.0
 10
1.0548
 20
-45.976
 30
0.0
 10
0.8572
 20
-46.1814
 30
0.0
 10
0.7581
 20
-46.4879
 30
0.0
 10
0.7581
 20
-46.8963
 30
0.0
 10
0.7581
 20
-46.8963
 30
0.0
 10
0.7581
 20
-47.0563
 30
0.0
 10
0.7737
 20
-47.1987
 30
0.0
 10
0.8042
 20
-47.3233
 30
0.0
 10
0.8042
 20
-47.3233
 30
0.0
 10
0.8262
 20
-47.416
 30
0.0
 10
0.8721
 20
-47.53
 30
0.0
 10
0.943
 20
-47.6651
 30
0.0
 10
0.943
 20
-47.6651
 30
0.0
 10
0.943
 20
-47.6651
 30
0.0
 10
2.4905
 20
-45.9335
 30
0.0
 10
2.4905
 20
-45.9335
 30
0.0
  0
SPLINE
  5
5C
330
1F
100
AcDbEntity
  8
ROUND
 62
   250
100
AcDbSpline
210
0.0
220
0.0
230
1.0
 70
    11
 71
     3
 72
    28
 73
    24
 74
     0
 42
0.0000000001
 43
0.0000000001
 40
0.0
 40
0.0
 40
0.0
 40
0.0
 40
0.1428571428571428
 40
0.1428571428571428
 40
0.1428571428571428
 40
0.1428571428571428
 40
0.2857142857142857
 40
0.2857142857142857
 40
0.2857142857142857
 40
0.2857142857142857
 40
0.4285714285714285
 40
0.4285714285714285
 40
0.4285714285714285
 40
0.4285714285714285
 40
0.5714285714285714
 40
0.5714285714285714
 40
0.5714285714285714
 40
0.5714285714285714
 40
0.7142857142857143
 40
0.7142857142857143
 40
0.7142857142857143
 40
0.7142857142857143
 40
1.0
 40
1.0
 40
1.0
 40
1.0
 10
2.6604
 20
-46.1474
 30
0.0
 10
2.6604
 20
-46.1474
 30
0.0
 10
1.1192
 20
-47.8727
 30
0.0
 10
1.1192
 20
-47.8727
 30
0.0
 10
1.1192
 20
-47.8727
 30
0.0
 10
1.2253
 20
-47.9597
 30
0.0
 10
1.3238
 20
-48.0206
 30
0.0
 10
1.4138
 20
-48.0552
 30
0.0
 10
1.4138
 20
-48.0552
 30
0.0
 10
1.5312
 20
-48.1013
 30
0.0
 10
1.6586
 20
-48.1239
 30
0.0
 10
1.7953
 20
-48.1239
 30
0.0
 10
1.7953
 20
-48.1239
 30
0.0
 10
2.0969
 20
-48.1239
 30
0.0
 10
2.3454
 20
-48.0178
 30
0.0
 10
2.5421
 20
-47.8047
 30
0.0
 10
2.5421
 20
-47.8047
 30
0.0
 10
2.7382
 20
-47.5915
 30
0.0
 10
2.8367
 20
-47.2928
 30
0.0
 10
2.8367
 20
-46.9084
 30
0.0
 10
2.8367
 20
-46.9084
 30
0.0
 10
2.8367
 20
-46.6211
 30
0.0
 10
2.778
 20
-46.3668
 30
0.0
 10
2.6604
 20
-46.1474
 30
0.0
  0
SPLINE
  5
5D
330
1F
100
AcDbEntity
  8
ROUND
 62
   250
100
AcDbSpline
210
0.0
220
0.0
230
1.0
 70
    11
 71
     3
 72
    40
 73
    36
 74
     0
 42
0.0000000001
 43
0.0000000001
 40
0.0
 40
0.0
 40
0.0
 40
0.0
 40
0.1
 40
0.1
 40
0.1
 40
0.1
 40
0.2
 40
0.2
 40
0.2
 40
0.2
 40
0.3
 40
0.3
 40
0.3
 40
0.3
 40
0.4
 40
0.4
 40
0.4
 40
0.4
 40
0.5
 40
0.5
 40
0.5
 40
0.5
 40
0.6
 40
0.6
 40
0.6
 40
0.6
 40
0.7
 40
0.7
 40
0.7
 40
0.7
 40
0.8
 40
0.8
 40
0.8
 40
0.8
 40
1.0
 40
1.0
 40
1.0
 40
1.0
 10
5.0327
 20
-48.4163
 30
0.0
 10
5.0327
 20
-48.4163
 30
0.0
 10
4.6596
 20
-48.4163
 30
0.0
 10
4.6596
 20
-48.4163
 30
0.0
 10
4.6596
 20
-48.4163
 30
0.0
 10
4.6596
 20
-48.4163
 30
0.0
 10
4.6596
 20
-46.0377
 30
0.0
 10
4.6596
 20
-46.0377
 30
0.0
 10
4.6596
 20
-46.0377
 30
0.0
 10
4.5696
 20
-46.1233
 30
0.0
 10
4.4522
 20
-46.209
 30
0.0
 10
4.3064
 20
-46.2946
 30
0.0
 10
4.3064
 20
-46.2946
 30
0.0
 10
4.1598
 20
-46.3802
 30
0.0
 10
4.0288
 20
-46.4447
 30
0.0
 10
3.9126
 20
-46.4873
 30
0.0
 10
3.9126
 20
-46.4873
 30
0.0
 10
3.9126
 20
-46.4873
 30
0.0
 10
3.9126
 20
-46.1268
 30
0.0
 10
3.9126
 20
-46.1268
 30
0.0
 10
3.9126
 20
-46.1268
 30
0.0
 10
4.1215
 20
-46.0285
 30
0.0
 10
4.3043
 20
-45.9095
 30
0.0
 10
4.4606
 20
-45.7701
 30
0.0
 10
4.4606
 20
-45.7701
 30
0.0
 10
4.6164
 20
-45.6298
 30
0.0
 10
4.7275
 20
-45.4947
 30
0.0
 10
4.7927
 20
-45.363
 30
0.0
 10
4.7927
 20
-45.363
 30
0.0
 10
4.7927
 20
-45.363
 30
0.0
 10
5.0327
 20
-45.363
 30
0.0
 10
5.0327
 20
-45.363
 30
0.0
 10
5.0327
 20
-45.363
 30
0.0
 10
5.0327
 20
-45.363
 30
0.0
 10
5.0327
 20
-48.4163
 30
0.0
 10
5.0327
 20
-48.4163
 30
0.0
  0
SPLINE
  5
5E
330
1F
100
AcDbEntity
  8
ROUND
 62
   250
100
AcDbSpline
210
0.0
220
0.0
230
1.0
 70
    11
 71
     3
 72
    40
 73
    36
 74
     0
 42
0.0000000001
 43
0.0000000001
 40
0.0
 40
0.0
 40
0.0
 40
0.0
 40
0.1
 40
0.1
 40
0.1
 40
0.1
 40
0.2
 40
0.2
 40
0.2
 40
0.2
 40
0.3
 40
0.3
 40
0.3
 40
0.3
 40
0.4
 40
0.4
 40
0.4
 40
0.4
 40
0.5
 40
0.5
 40
0.5
 40
0.5
 40
0.6
 40
0.6
 40
0.6
 40
0.6
 40
0.7
 40
0.7
 40
0.7
 40
0.7
 40
0.8
 40
0.8
 40
0.8
 40
0.8
 40
1.0
 40
1.0
 40
1.0
 40
1.0
 10
7.0801
 20
-48.4163
 30
0.0
 10
7.0801
 20
-48.4163
 30
0.0
 10
6.707
 20
-48.4163
 30
0.0
 10
6.707
 20
-48.4163
 30
0.0
 10
6.707
 20
-48.4163
 30
0.0
 10
6.707
 20
-48.4163
 30
0.0
 10
6.707
 20
-46.0377
 30
0.0
 10
6.707
 20
-46.0377
 30
0.0
 10
6.707
 20
-46.0377
 30
0.0
 10
6.617
 20
-46.1233
 30
0.0
 10
6.4996
 20
-46.209
 30
0.0
 10
6.3537
 20
-46.2946
 30
0.0
 10
6.3537
 20
-46.2946
 30
0.0
 10
6.2071
 20
-46.3802
 30
0.0
 10
6.0762
 20
-46.4447
 30
0.0
 10
5.96
 20
-46.4873
 30
0.0
 10
5.96
 20
-46.4873
 30
0.0
 10
5.96
 20
-46.4873
 30
0.0
 10
5.96
 20
-46.1268
 30
0.0
 10
5.96
 20
-46.1268
 30
0.0
 10
5.96
 20
-46.1268
 30
0.0
 10
6.1689
 20
-46.0285
 30
0.0
 10
6.3516
 20
-45.9095
 30
0.0
 10
6.508
 20
-45.7701
 30
0.0
 10
6.508
 20
-45.7701
 30
0.0
 10
6.6638
 20
-45.6298
 30
0.0
 10
6.7749
 20
-45.4947
 30
0.0
 10
6.84
 20
-45.363
 30
0.0
 10
6.84
 20
-45.363
 30
0.0
 10
6.84
 20
-45.363
 30
0.0
 10
7.0801
 20
-45.363
 30
0.0
 10
7.0801
 20
-45.363
 30
0.0
 10
7.0801
 20
-45.363
 30
0.0
 10
7.0801
 20
-45.363
 30
0.0
 10
7.0801
 20
-48.4163
 30
0.0
 10
7.0801
 20
-48.4163
 30
0.0
  0
SPLINE
  5
5F
330
1F
100
AcDbEntity
  8
ROUND
 62
   250
100
AcDbSpline
210
0.0
220
0.0
230
1.0
 70
    11
 71
     3
 72
    52
 73
    48
 74
     0
 42
0.0000000001
 43
0.0000000001
 40
0.0
 40
0.0
 40
0.0
 40
0.0
 40
0.0769230769230769
 40
0.0769230769230769
 40
0.0769230769230769
 40
0.0769230769230769
 40
0.1538461538461539
 40
0.1538461538461539
 40
0.1538461538461539
 40
0.1538461538461539
 40
0.2307692307692308
 40
0.2307692307692308
 40
0.2307692307692308
 40
0.2307692307692308
 40
0.3076923076923077
 40
0.3076923076923077
 40
0.3076923076923077
 40
0.3076923076923077
 40
0.3846153846153846
 40
0.3846153846153846
 40
0.3846153846153846
 40
0.3846153846153846
 40
0.4615384615384616
 40
0.4615384615384616
 40
0.4615384615384616
 40
0.4615384615384616
 40
0.5384615384615384
 40
0.5384615384615384
 40
0.5384615384615384
 40
0.5384615384615384
 40
0.6153846153846154
 40
0.6153846153846154
 40
0.6153846153846154
 40
0.6153846153846154
 40
0.6923076923076923
 40
0.6923076923076923
 40
0.6923076923076923
 40
0.6923076923076923
 40
0.7692307692307693
 40
0.7692307692307693
 40
0.7692307692307693
 40
0.7692307692307693
 40
0.8461538461538461
 40
0.8461538461538461
 40
0.8461538461538461
 40
0.8461538461538461
 40
1.0
 40
1.0
 40
1.0
 40
1.0
 10
8.0364
 20
-46.917
 30
0.0
 10
8.0364
 20
-46.5572
 30
0.0
 10
8.0733
 20
-46.2677
 30
0.0
 10
8.1476
 20
-46.049
 30
0.0
 10
8.1476
 20
-46.049
 30
0.0
 10
8.2212
 20
-45.8295
 30
0.0
 10
8.3317
 20
-45.6604
 30
0.0
 10
8.4775
 20
-45.5413
 30
0.0
 10
8.4775
 20
-45.5413
 30
0.0
 10
8.6234
 20
-45.4224
 30
0.0
 10
8.8067
 20
-45.363
 30
0.0
 10
9.0275
 20
-45.363
 30
0.0
 10
9.0275
 20
-45.363
 30
0.0
 10
9.1911
 20
-45.363
 30
0.0
 10
9.3341
 20
-45.3962
 30
0.0
 10
9.4572
 20
-45.4621
 30
0.0
 10
9.4572
 20
-45.4621
 30
0.0
 10
9.5805
 20
-45.5272
 30
0.0
 10
9.6818
 20
-45.6221
 30
0.0
 10
9.7624
 20
-45.746
 30
0.0
 10
9.7624
 20
-45.746
 30
0.0
 10
9.8424
 20
-45.8699
 30
0.0
 10
9.9054
 20
-46.0207
 30
0.0
 10
9.9507
 20
-46.1983
 30
0.0
 10
9.9507
 20
-46.1983
 30
0.0
 10
9.9968
 20
-46.376
 30
0.0
 10
10.0194
 20
-46.6153
 30
0.0
 10
10.0194
 20
-46.917
 30
0.0
 10
10.0194
 20
-46.917
 30
0.0
 10
10.0194
 20
-47.2737
 30
0.0
 10
9.9826
 20
-47.5611
 30
0.0
 10
9.9096
 20
-47.7806
 30
0.0
 10
9.9096
 20
-47.7806
 30
0.0
 10
9.836
 20
-48.0
 30
0.0
 10
9.7263
 20
-48.1692
 30
0.0
 10
9.5805
 20
-48.2888
 30
0.0
 10
9.5805
 20
-48.2888
 30
0.0
 10
9.4346
 20
-48.4085
 30
0.0
 10
9.2506
 20
-48.4679
 30
0.0
 10
9.0275
 20
-48.4679
 30
0.0
 10
9.0275
 20
-48.4679
 30
0.0
 10
8.7345
 20
-48.4679
 30
0.0
 10
8.5043
 20
-48.3632
 30
0.0
 10
8.3373
 20
-48.1529
 30
0.0
 10
8.3373
 20
-48.1529
 30
0.0
 10
8.1369
 20
-47.9002
 30
0.0
 10
8.0364
 20
-47.4875
 30
0.0
 10
8.0364
 20
-46.917
 30
0.0
  0
SPLINE
  5
60
330
1F
100
AcDbEntity
  8
ROUND
 62
   250
100
AcDbSpline
210
0.0
220
0.0
230
1.0
 70
    11
 71
     3
 72
    36
 73
    32
 74
     0
 42
0.0000000001
 43
0.0000000001
 40
0.0
 40
0.0
 40
0.0
 40
0.0
 40
0.1111111111111111
 40
0.1111111111111111
 40
0.1111111111111111
 40
0.1111111111111111
 40
0.2222222222222222
 40
0.2222222222222222
 40
0.2222222222222222
 40
0.2222222222222222
 40
0.3333333333333333
 40
0.3333333333333333
 40
0.3333333333333333
 40
0.3333333333333333
 40
0.4444444444444444
 40
0.4444444444444444
 40
0.4444444444444444
 40
0.4444444444444444
 40
0.5555555555555556
 40
0.5555555555555556
 40
0.5555555555555556
 40
0.5555555555555556
 40
0.6666666666666666
 40
0.6666666666666666
 40
0.6666666666666666
 40
0.6666666666666666
 40
0.7777777777777778
 40
0.7777777777777778
 40
0.7777777777777778
 40
0.7777777777777778
 40
1.0
 40
1.0
 40
1.0
 40
1.0
 10
8.4202
 20
-46.917
 30
0.0
 10
8.4202
 20
-47.416
 30
0.0
 10
8.4789
 20
-47.7481
 30
0.0
 10
8.5957
 20
-47.9136
 30
0.0
 10
8.5957
 20
-47.9136
 30
0.0
 10
8.7125
 20
-48.0786
 30
0.0
 10
8.8562
 20
-48.1615
 30
0.0
 10
9.0275
 20
-48.1615
 30
0.0
 10
9.0275
 20
-48.1615
 30
0.0
 10
9.1995
 20
-48.1615
 30
0.0
 10
9.3433
 20
-48.078
 30
0.0
 10
9.4601
 20
-47.9123
 30
0.0
 10
9.4601
 20
-47.9123
 30
0.0
 10
9.5769
 20
-47.7466
 30
0.0
 10
9.6357
 20
-47.4145
 30
0.0
 10
9.6357
 20
-46.917
 30
0.0
 10
9.6357
 20
-46.917
 30
0.0
 10
9.6357
 20
-46.4164
 30
0.0
 10
9.5769
 20
-46.0836
 30
0.0
 10
9.4601
 20
-45.9194
 30
0.0
 10
9.4601
 20
-45.9194
 30
0.0
 10
9.3433
 20
-45.7544
 30
0.0
 10
9.1982
 20
-45.6724
 30
0.0
 10
9.024
 20
-45.6724
 30
0.0
 10
9.024
 20
-45.6724
 30
0.0
 10
8.852
 20
-45.6724
 30
0.0
 10
8.7154
 20
-45.7453
 30
0.0
 10
8.6127
 20
-45.8903
 30
0.0
 10
8.6127
 20
-45.8903
 30
0.0
 10
8.4846
 20
-46.0752
 30
0.0
 10
8.4202
 20
-46.4179
 30
0.0
 10
8.4202
 20
-46.917
 30
0.0
  0
SPLINE
  5
61
330
1F
100
AcDbEntity
  8
ROUND
 62
   250
100
AcDbSpline
210
0.0
220
0.0
230
1.0
 70
    11
 71
     3
 72
    20
 73
    16
 74
     0
 42
0.0000000001
 43
0.0000000001
 40
0.0
 40
0.0
 40
0.0
 40
0.0
 40
0.2
 40
0.2
 40
0.2
 40
0.2
 40
0.4
 40
0.4
 40
0.4
 40
0.4
 40
0.6
 40
0.6
 40
0.6
 40
0.6
 40
1.0
 40
1.0
 40
1.0
 40
1.0
 10
-12.2493
 20
-49.4524
 30
0.0
 10
-12.2493
 20
-49.4524
 30
0.0
 10
-7.7343
 20
-50.1116
 30
0.0
 10
-7.7343
 20
-50.1116
 30
0.0
 10
-7.7343
 20
-50.1116
 30
0.0
 10
-7.7343
 20
-50.1116
 30
0.0
 10
-7.7343
 20
-48.6564
 30
0.0
 10
-7.7343
 20
-48.6564
 30
0.0
 10
-7.7343
 20
-48.6564
 30
0.0
 10
-7.7343
 20
-48.6564
 30
0.0
 10
-12.2493
 20
-49.4503
 30
0.0
 10
-12.2493
 20
-49.4503
 30
0.0
 10
-12.2493
 20
-49.4503
 30
0.0
 10
-12.2493
 20
-49.4503
 30
0.0
 10
-12.2493
 20
-49.4524
 30
0.0
 10
-12.2493
 20
-49.4524
 30
0.0
  0
SPLINE
  5
62
330
1F
100
AcDbEntity
  8
ROUND
 62
   250
100
AcDbSpline
210
0.0
220
0.0
230
1.0
 70
    11
 71
     3
 72
    20
 73
    16
 74
     0
 42
0.0000000001
 43
0.0000000001
 40
0.0
 40
0.0
 40
0.0
 40
0.0
 40
0.2
 40
0.2
 40
0.2
 40
0.2
 40
0.4
 40
0.4
 40
0.4
 40
0.4
 40
0.6
 40
0.6
 40
0.6
 40
0.6
 40
1.0
 40
1.0
 40
1.0
 40
1.0
 10
22.4111
 20
-49.3999
 30
0.0
 10
22.4111
 20
-49.3999
 30
0.0
 10
17.8962
 20
-48.7408
 30
0.0
 10
17.8962
 20
-48.7408
 30
0.0
 10
17.8962
 20
-48.7408
 30
0.0
 10
17.8962
 20
-48.7408
 30
0.0
 10
17.8962
 20
-50.1959
 30
0.0
 10
17.8962
 20
-50.1959
 30
0.0
 10
17.8962
 20
-50.1959
 30
0.0
 10
17.8962
 20
-50.1959
 30
0.0
 10
22.4111
 20
-49.402
 30
0.0
 10
22.4111
 20
-49.402
 30
0.0
 10
22.4111
 20
-49.402
 30
0.0
 10
22.4111
 20
-49.402
 30
0.0
 10
22.4111
 20
-49.3999
 30
0.0
 10
22.4111
 20
-49.3999
 30
0.0
  0
SPLINE
  5
63
330
1F
100
AcDbEntity
  8
ROUND
 62
   250
100
AcDbSpline
210
0.0
220
0.0
230
1.0
 70
    24
 71
     3
 72
     8
 73
     4
 74
     0
 42
0.0000000001
 43
0.0000000001
 40
0.0
 40
0.0
 40
0.0
 40
0.0
 40
1.0
 40
1.0
 40
1.0
 40
1.0
 10
20.0674
 20
-49.4176
 30
0.0
 10
20.0674
 20
-49.4176
 30
0.0
 10
-11.3756
 20
-49.4176
 30
0.0
 10
-11.3756
 20
-49.4176
 30
0.0
  0
SPLINE
  5
64
330
1F
100
AcDbEntity
  8
ROUND
 62
   250
100
AcDbSpline
210
0.0
220
0.0
230
1.0
 70
    11
 71
     3
 72
    92
 73
    88
 74
     0
 42
0.0000000001
 43
0.0000000001
 40
0.0
 40
0.0
 40
0.0
 40
0.0
 40
0.0434782608695652
 40
0.0434782608695652
 40
0.0434782608695652
 40
0.0434782608695652
 40
0.0869565217391304
 40
0.0869565217391304
 40
0.0869565217391304
 40
0.0869565217391304
 40
0.1304347826086956
 40
0.1304347826086956
 40
0.1304347826086956
 40
0.1304347826086956
 40
0.1739130434782609
 40
0.1739130434782609
 40
0.1739130434782609
 40
0.1739130434782609
 40
0.2173913043478261
 40
0.2173913043478261
 40
0.2173913043478261
 40
0.2173913043478261
 40
0.2608695652173913
 40
0.2608695652173913
 40
0.2608695652173913
 40
0.2608695652173913
 40
0.3043478260869565
 40
0.3043478260869565
 40
0.3043478260869565
 40
0.3043478260869565
 40
0.3478260869565217
 40
0.3478260869565217
 40
0.3478260869565217
 40
0.3478260869565217
 40
0.391304347826087
 40
0.391304347826087
 40
0.391304347826087
 40
0.391304347826087
 40
0.4347826086956522
 40
0.4347826086956522
 40
0.4347826086956522
 40
0.4347826086956522
 40
0.4782608695652174
 40
0.4782608695652174
 40
0.4782608695652174
 40
0.4782608695652174
 40
0.5217391304347826
 40
0.5217391304347826
 40
0.5217391304347826
 40
0.5217391304347826
 40
0.5652173913043478
 40
0.5652173913043478
 40
0.5652173913043478
 40
0.5652173913043478
 40
0.6086956521739131
 40
0.6086956521739131
 40
0.6086956521739131
 40
0.6086956521739131
 40
0.6521739130434783
 40
0.6521739130434783
 40
0.6521739130434783
 40
0.6521739130434783
 40
0.6956521739130435
 40
0.6956521739130435
 40
0.6956521739130435
 40
0.6956521739130435
 40
0.7391304347826086
 40
0.7391304347826086
 40
0.7391304347826086
 40
0.7391304347826086
 40
0.782608695652174
 40
0.782608695652174
 40
0.782608695652174
 40
0.782608695652174
 40
0.8260869565217391
 40
0.8260869565217391
 40
0.8260869565217391
 40
0.8260869565217391
 40
0.8695652173913043
 40
0.8695652173913043
 40
0.8695652173913043
 40
0.8695652173913043
 40
0.9130434782608695
 40
0.9130434782608695
 40
0.9130434782608695
 40
0.9130434782608695
 40
1.0
 40
1.0
 40
1.0
 40
1.0
 10
-22.9348
 20
-3.4343
 30
0.0
 10
-22.9348
 20
-3.4343
 30
0.0
 10
-22.5758
 20
-3.4343
 30
0.0
 10
-22.5758
 20
-3.4343
 30
0.0
 10
-22.5758
 20
-3.4343
 30
0.0
 10
-22.5758
 20
-3.4343
 30
0.0
 10
-22.5758
 20
-5.4442
 30
0.0
 10
-22.5758
 20
-5.4442
 30
0.0
 10
-22.5758
 20
-5.4442
 30
0.0
 10
-22.6657
 20
-5.4471
 30
0.0
 10
-22.7521
 20
-5.4329
 30
0.0
 10
-22.835
 20
-5.401
 30
0.0
 10
-22.835
 20
-5.401
 30
0.0
 10
-22.9723
 20
-5.35
 30
0.0
 10
-23.1068
 20
-5.268
 30
0.0
 10
-23.2399
 20
-5.1554
 30
0.0
 10
-23.2399
 20
-5.1554
 30
0.0
 10
-23.3723
 20
-5.042
 30
0.0
 10
-23.5259
 20
-4.8792
 30
0.0
 10
-23.7
 20
-4.6668
 30
0.0
 10
-23.7
 20
-4.6668
 30
0.0
 10
-23.9712
 20
-4.3363
 30
0.0
 10
-24.1857
 20
-4.1125
 30
0.0
 10
-24.3443
 20
-3.9965
 30
0.0
 10
-24.3443
 20
-3.9965
 30
0.0
 10
-24.5022
 20
-3.8804
 30
0.0
 10
-24.6523
 20
-3.8223
 30
0.0
 10
-24.7931
 20
-3.8223
 30
0.0
 10
-24.7931
 20
-3.8223
 30
0.0
 10
-24.9411
 20
-3.8223
 30
0.0
 10
-25.0657
 20
-3.8755
 30
0.0
 10
-25.1676
 20
-3.9808
 30
0.0
 10
-25.1676
 20
-3.9808
 30
0.0
 10
-25.2689
 20
-4.0871
 30
0.0
 10
-25.3198
 20
-4.2251
 30
0.0
 10
-25.3198
 20
-4.395
 30
0.0
 10
-25.3198
 20
-4.395
 30
0.0
 10
-25.3198
 20
-4.5749
 30
0.0
 10
-25.266
 20
-4.7186
 30
0.0
 10
-25.1577
 20
-4.8262
 30
0.0
 10
-25.1577
 20
-4.8262
 30
0.0
 10
-25.05
 20
-4.9344
 30
0.0
 10
-24.9007
 20
-4.9889
 30
0.0
 10
-24.7103
 20
-4.9904
 30
0.0
 10
-24.7103
 20
-4.9904
 30
0.0
 10
-24.7103
 20
-4.9904
 30
0.0
 10
-24.7492
 20
-5.3741
 30
0.0
 10
-24.7492
 20
-5.3741
 30
0.0
 10
-24.7492
 20
-5.3741
 30
0.0
 10
-25.0359
 20
-5.3479
 30
0.0
 10
-25.254
 20
-5.2488
 30
0.0
 10
-25.404
 20
-5.0774
 30
0.0
 10
-25.404
 20
-5.0774
 30
0.0
 10
-25.5541
 20
-4.9061
 30
0.0
 10
-25.6292
 20
-4.6754
 30
0.0
 10
-25.6292
 20
-4.3866
 30
0.0
 10
-25.6292
 20
-4.3866
 30
0.0
 10
-25.6292
 20
-4.0949
 30
0.0
 10
-25.5478
 20
-3.864
 30
0.0
 10
-25.3864
 20
-3.6941
 30
0.0
 10
-25.3864
 20
-3.6941
 30
0.0
 10
-25.2242
 20
-3.5236
 30
0.0
 10
-25.0239
 20
-3.4385
 30
0.0
 10
-24.7845
 20
-3.4385
 30
0.0
 10
-24.7845
 20
-3.4385
 30
0.0
 10
-24.6628
 20
-3.4385
 30
0.0
 10
-24.5431
 20
-3.4634
 30
0.0
 10
-24.4257
 20
-3.5136
 30
0.0
 10
-24.4257
 20
-3.5136
 30
0.0
 10
-24.3082
 20
-3.5631
 30
0.0
 10
-24.1843
 20
-3.6461
 30
0.0
 10
-24.0547
 20
-3.7614
 30
0.0
 10
-24.0547
 20
-3.7614
 30
0.0
 10
-23.9244
 20
-3.8768
 30
0.0
 10
-23.746
 20
-4.0687
 30
0.0
 10
-23.5195
 20
-4.3369
 30
0.0
 10
-23.5195
 20
-4.3369
 30
0.0
 10
-23.3312
 20
-4.5607
 30
0.0
 10
-23.2038
 20
-4.7045
 30
0.0
 10
-23.1365
 20
-4.7681
 30
0.0
 10
-23.1365
 20
-4.7681
 30
0.0
 10
-23.07
 20
-4.8318
 30
0.0
 10
-23.0027
 20
-4.8842
 30
0.0
 10
-22.9348
 20
-4.926
 30
0.0
 10
-22.9348
 20
-4.926
 30
0.0
 10
-22.9348
 20
-4.926
 30
0.0
 10
-22.9348
 20
-3.4343
 30
0.0
 10
-22.9348
 20
-3.4343
 30
0.0
  0
SPLINE
  5
65
330
1F
100
AcDbEntity
  8
ROUND
 62
   250
100
AcDbSpline
210
0.0
220
0.0
230
1.0
 70
    11
 71
     3
 72
    92
 73
    88
 74
     0
 42
0.0000000001
 43
0.0000000001
 40
0.0
 40
0.0
 40
0.0
 40
0.0
 40
0.0434782608695652
 40
0.0434782608695652
 40
0.0434782608695652
 40
0.0434782608695652
 40
0.0869565217391304
 40
0.0869565217391304
 40
0.0869565217391304
 40
0.0869565217391304
 40
0.1304347826086956
 40
0.1304347826086956
 40
0.1304347826086956
 40
0.1304347826086956
 40
0.1739130434782609
 40
0.1739130434782609
 40
0.1739130434782609
 40
0.1739130434782609
 40
0.2173913043478261
 40
0.2173913043478261
 40
0.2173913043478261
 40
0.2173913043478261
 40
0.2608695652173913
 40
0.2608695652173913
 40
0.2608695652173913
 40
0.2608695652173913
 40
0.3043478260869565
 40
0.3043478260869565
 40
0.3043478260869565
 40
0.3043478260869565
 40
0.3478260869565217
 40
0.3478260869565217
 40
0.3478260869565217
 40
0.3478260869565217
 40
0.391304347826087
 40
0.391304347826087
 40
0.391304347826087
 40
0.391304347826087
 40
0.4347826086956522
 40
0.4347826086956522
 40
0.4347826086956522
 40
0.4347826086956522
 40
0.4782608695652174
 40
0.4782608695652174
 40
0.4782608695652174
 40
0.4782608695652174
 40
0.5217391304347826
 40
0.5217391304347826
 40
0.5217391304347826
 40
0.5217391304347826
 40
0.5652173913043478
 40
0.5652173913043478
 40
0.5652173913043478
 40
0.5652173913043478
 40
0.6086956521739131
 40
0.6086956521739131
 40
0.6086956521739131
 40
0.6086956521739131
 40
0.6521739130434783
 40
0.6521739130434783
 40
0.6521739130434783
 40
0.6521739130434783
 40
0.6956521739130435
 40
0.6956521739130435
 40
0.6956521739130435
 40
0.6956521739130435
 40
0.7391304347826086
 40
0.7391304347826086
 40
0.7391304347826086
 40
0.7391304347826086
 40
0.782608695652174
 40
0.782608695652174
 40
0.782608695652174
 40
0.782608695652174
 40
0.8260869565217391
 40
0.8260869565217391
 40
0.8260869565217391
 40
0.8260869565217391
 40
0.8695652173913043
 40
0.8695652173913043
 40
0.8695652173913043
 40
0.8695652173913043
 40
0.9130434782608695
 40
0.9130434782608695
 40
0.9130434782608695
 40
0.9130434782608695
 40
1.0
 40
1.0
 40
1.0
 40
1.0
 10
-23.3723
 20
-3.0344
 30
0.0
 10
-23.3723
 20
-3.0344
 30
0.0
 10
-23.4056
 20
-2.6422
 30
0.0
 10
-23.4056
 20
-2.6422
 30
0.0
 10
-23.4056
 20
-2.6422
 30
0.0
 10
-23.2145
 20
-2.6131
 30
0.0
 10
-23.0715
 20
-2.5459
 30
0.0
 10
-22.9751
 20
-2.4404
 30
0.0
 10
-22.9751
 20
-2.4404
 30
0.0
 10
-22.8788
 20
-2.3343
 30
0.0
 10
-22.8307
 20
-2.2068
 30
0.0
 10
-22.8307
 20
-2.0575
 30
0.0
 10
-22.8307
 20
-2.0575
 30
0.0
 10
-22.8307
 20
-1.8776
 30
0.0
 10
-22.8987
 20
-1.7254
 30
0.0
 10
-23.0338
 20
-1.6016
 30
0.0
 10
-23.0338
 20
-1.6016
 30
0.0
 10
-23.1698
 20
-1.477
 30
0.0
 10
-23.3496
 20
-1.4146
 30
0.0
 10
-23.5733
 20
-1.4146
 30
0.0
 10
-23.5733
 20
-1.4146
 30
0.0
 10
-23.7864
 20
-1.4146
 30
0.0
 10
-23.9542
 20
-1.4741
 30
0.0
 10
-24.0773
 20
-1.5938
 30
0.0
 10
-24.0773
 20
-1.5938
 30
0.0
 10
-24.2006
 20
-1.7134
 30
0.0
 10
-24.2621
 20
-1.8698
 30
0.0
 10
-24.2621
 20
-2.0638
 30
0.0
 10
-24.2621
 20
-2.0638
 30
0.0
 10
-24.2621
 20
-2.1842
 30
0.0
 10
-24.2346
 20
-2.2924
 30
0.0
 10
-24.1801
 20
-2.3895
 30
0.0
 10
-24.1801
 20
-2.3895
 30
0.0
 10
-24.1255
 20
-2.4864
 30
0.0
 10
-24.0547
 20
-2.5621
 30
0.0
 10
-23.9676
 20
-2.6174
 30
0.0
 10
-23.9676
 20
-2.6174
 30
0.0
 10
-23.9676
 20
-2.6174
 30
0.0
 10
-24.0129
 20
-2.9679
 30
0.0
 10
-24.0129
 20
-2.9679
 30
0.0
 10
-24.0129
 20
-2.9679
 30
0.0
 10
-24.0129
 20
-2.9679
 30
0.0
 10
-25.5747
 20
-2.6733
 30
0.0
 10
-25.5747
 20
-2.6733
 30
0.0
 10
-25.5747
 20
-2.6733
 30
0.0
 10
-25.5747
 20
-2.6733
 30
0.0
 10
-25.5747
 20
-1.1612
 30
0.0
 10
-25.5747
 20
-1.1612
 30
0.0
 10
-25.5747
 20
-1.1612
 30
0.0
 10
-25.5747
 20
-1.1612
 30
0.0
 10
-25.2179
 20
-1.1612
 30
0.0
 10
-25.2179
 20
-1.1612
 30
0.0
 10
-25.2179
 20
-1.1612
 30
0.0
 10
-25.2179
 20
-1.1612
 30
0.0
 10
-25.2179
 20
-2.3746
 30
0.0
 10
-25.2179
 20
-2.3746
 30
0.0
 10
-25.2179
 20
-2.3746
 30
0.0
 10
-25.2179
 20
-2.3746
 30
0.0
 10
-24.4009
 20
-2.5388
 30
0.0
 10
-24.4009
 20
-2.5388
 30
0.0
 10
-24.4009
 20
-2.5388
 30
0.0
 10
-24.5284
 20
-2.3562
 30
0.0
 10
-24.592
 20
-2.1643
 30
0.0
 10
-24.592
 20
-1.964
 30
0.0
 10
-24.592
 20
-1.964
 30
0.0
 10
-24.592
 20
-1.6985
 30
0.0
 10
-24.5001
 20
-1.4749
 30
0.0
 10
-24.316
 20
-1.2921
 30
0.0
 10
-24.316
 20
-1.2921
 30
0.0
 10
-24.1319
 20
-1.1096
 30
0.0
 10
-23.8955
 20
-1.0182
 30
0.0
 10
-23.6067
 20
-1.0182
 30
0.0
 10
-23.6067
 20
-1.0182
 30
0.0
 10
-23.3312
 20
-1.0182
 30
0.0
 10
-23.0933
 20
-1.0989
 30
0.0
 10
-22.893
 20
-1.2589
 30
0.0
 10
-22.893
 20
-1.2589
 30
0.0
 10
-22.6473
 20
-1.4542
 30
0.0
 10
-22.5242
 20
-1.7205
 30
0.0
 10
-22.5242
 20
-2.0575
 30
0.0
 10
-22.5242
 20
-2.0575
 30
0.0
 10
-22.5242
 20
-2.3343
 30
0.0
 10
-22.6013
 20
-2.56
 30
0.0
 10
-22.7563
 20
-2.7349
 30
0.0
 10
-22.7563
 20
-2.7349
 30
0.0
 10
-22.9115
 20
-2.9098
 30
0.0
 10
-23.1168
 20
-3.0096
 30
0.0
 10
-23.3723
 20
-3.0344
 30
0.0
  0
SPLINE
  5
66
330
1F
100
AcDbEntity
  8
ROUND
 62
   250
100
AcDbSpline
210
0.0
220
0.0
230
1.0
 70
    11
 71
     3
 72
    52
 73
    48
 74
     0
 42
0.0000000001
 43
0.0000000001
 40
0.0
 40
0.0
 40
0.0
 40
0.0
 40
0.0769230769230769
 40
0.0769230769230769
 40
0.0769230769230769
 40
0.0769230769230769
 40
0.1538461538461539
 40
0.1538461538461539
 40
0.1538461538461539
 40
0.1538461538461539
 40
0.2307692307692308
 40
0.2307692307692308
 40
0.2307692307692308
 40
0.2307692307692308
 40
0.3076923076923077
 40
0.3076923076923077
 40
0.3076923076923077
 40
0.3076923076923077
 40
0.3846153846153846
 40
0.3846153846153846
 40
0.3846153846153846
 40
0.3846153846153846
 40
0.4615384615384616
 40
0.4615384615384616
 40
0.4615384615384616
 40
0.4615384615384616
 40
0.5384615384615384
 40
0.5384615384615384
 40
0.5384615384615384
 40
0.5384615384615384
 40
0.6153846153846154
 40
0.6153846153846154
 40
0.6153846153846154
 40
0.6153846153846154
 40
0.6923076923076923
 40
0.6923076923076923
 40
0.6923076923076923
 40
0.6923076923076923
 40
0.7692307692307693
 40
0.7692307692307693
 40
0.7692307692307693
 40
0.7692307692307693
 40
0.8461538461538461
 40
0.8461538461538461
 40
0.8461538461538461
 40
0.8461538461538461
 40
1.0
 40
1.0
 40
1.0
 40
1.0
 10
-24.0752
 20
-0.672
 30
0.0
 10
-24.4349
 20
-0.672
 30
0.0
 10
-24.7245
 20
-0.6352
 30
0.0
 10
-24.9432
 20
-0.5608
 30
0.0
 10
-24.9432
 20
-0.5608
 30
0.0
 10
-25.1626
 20
-0.4872
 30
0.0
 10
-25.3318
 20
-0.3767
 30
0.0
 10
-25.4508
 20
-0.2309
 30
0.0
 10
-25.4508
 20
-0.2309
 30
0.0
 10
-25.5697
 20
-0.0851
 30
0.0
 10
-25.6292
 20
0.0983
 30
0.0
 10
-25.6292
 20
0.3191
 30
0.0
 10
-25.6292
 20
0.3191
 30
0.0
 10
-25.6292
 20
0.4827
 30
0.0
 10
-25.5959
 20
0.6256
 30
0.0
 10
-25.53
 20
0.7488
 30
0.0
 10
-25.53
 20
0.7488
 30
0.0
 10
-25.465
 20
0.872
 30
0.0
 10
-25.37
 20
0.9733
 30
0.0
 10
-25.2462
 20
1.054
 30
0.0
 10
-25.2462
 20
1.054
 30
0.0
 10
-25.1223
 20
1.1339
 30
0.0
 10
-24.9715
 20
1.197
 30
0.0
 10
-24.7939
 20
1.2423
 30
0.0
 10
-24.7939
 20
1.2423
 30
0.0
 10
-24.6161
 20
1.2883
 30
0.0
 10
-24.3768
 20
1.3109
 30
0.0
 10
-24.0752
 20
1.3109
 30
0.0
 10
-24.0752
 20
1.3109
 30
0.0
 10
-23.7185
 20
1.3109
 30
0.0
 10
-23.431
 20
1.2742
 30
0.0
 10
-23.2116
 20
1.2012
 30
0.0
 10
-23.2116
 20
1.2012
 30
0.0
 10
-22.9922
 20
1.1276
 30
0.0
 10
-22.823
 20
1.0179
 30
0.0
 10
-22.7033
 20
0.872
 30
0.0
 10
-22.7033
 20
0.872
 30
0.0
 10
-22.5837
 20
0.7262
 30
0.0
 10
-22.5242
 20
0.5421
 30
0.0
 10
-22.5242
 20
0.3191
 30
0.0
 10
-22.5242
 20
0.3191
 30
0.0
 10
-22.5242
 20
0.026
 30
0.0
 10
-22.629
 20
-0.2041
 30
0.0
 10
-22.8392
 20
-0.3712
 30
0.0
 10
-22.8392
 20
-0.3712
 30
0.0
 10
-23.0919
 20
-0.5715
 30
0.0
 10
-23.5046
 20
-0.672
 30
0.0
 10
-24.0752
 20
-0.672
 30
0.0
  0
SPLINE
  5
67
330
1F
100
AcDbEntity
  8
ROUND
 62
   250
100
AcDbSpline
210
0.0
220
0.0
230
1.0
 70
    11
 71
     3
 72
    36
 73
    32
 74
     0
 42
0.0000000001
 43
0.0000000001
 40
0.0
 40
0.0
 40
0.0
 40
0.0
 40
0.1111111111111111
 40
0.1111111111111111
 40
0.1111111111111111
 40
0.1111111111111111
 40
0.2222222222222222
 40
0.2222222222222222
 40
0.2222222222222222
 40
0.2222222222222222
 40
0.3333333333333333
 40
0.3333333333333333
 40
0.3333333333333333
 40
0.3333333333333333
 40
0.4444444444444444
 40
0.4444444444444444
 40
0.4444444444444444
 40
0.4444444444444444
 40
0.5555555555555556
 40
0.5555555555555556
 40
0.5555555555555556
 40
0.5555555555555556
 40
0.6666666666666666
 40
0.6666666666666666
 40
0.6666666666666666
 40
0.6666666666666666
 40
0.7777777777777778
 40
0.7777777777777778
 40
0.7777777777777778
 40
0.7777777777777778
 40
1.0
 40
1.0
 40
1.0
 40
1.0
 10
-24.0752
 20
-0.2882
 30
0.0
 10
-23.5761
 20
-0.2882
 30
0.0
 10
-23.2441
 20
-0.2295
 30
0.0
 10
-23.0785
 20
-0.1128
 30
0.0
 10
-23.0785
 20
-0.1128
 30
0.0
 10
-22.9136
 20
0.004
 30
0.0
 10
-22.8307
 20
0.1478
 30
0.0
 10
-22.8307
 20
0.3191
 30
0.0
 10
-22.8307
 20
0.3191
 30
0.0
 10
-22.8307
 20
0.4911
 30
0.0
 10
-22.9142
 20
0.6348
 30
0.0
 10
-23.0799
 20
0.7516
 30
0.0
 10
-23.0799
 20
0.7516
 30
0.0
 10
-23.2456
 20
0.8684
 30
0.0
 10
-23.5776
 20
0.9273
 30
0.0
 10
-24.0752
 20
0.9273
 30
0.0
 10
-24.0752
 20
0.9273
 30
0.0
 10
-24.5758
 20
0.9273
 30
0.0
 10
-24.9086
 20
0.8684
 30
0.0
 10
-25.0728
 20
0.7516
 30
0.0
 10
-25.0728
 20
0.7516
 30
0.0
 10
-25.2377
 20
0.6348
 30
0.0
 10
-25.3198
 20
0.4897
 30
0.0
 10
-25.3198
 20
0.3156
 30
0.0
 10
-25.3198
 20
0.3156
 30
0.0
 10
-25.3198
 20
0.1436
 30
0.0
 10
-25.2469
 20
0.0069
 30
0.0
 10
-25.1018
 20
-0.0957
 30
0.0
 10
-25.1018
 20
-0.0957
 30
0.0
 10
-24.917
 20
-0.2238
 30
0.0
 10
-24.5743
 20
-0.2882
 30
0.0
 10
-24.0752
 20
-0.2882
 30
0.0
  0
SPLINE
  5
68
330
1F
100
AcDbEntity
  8
ROUND
 62
   250
100
AcDbSpline
210
0.0
220
0.0
230
1.0
 70
    11
 71
     3
 72
    20
 73
    16
 74
     0
 42
0.0000000001
 43
0.0000000001
 40
0.0
 40
0.0
 40
0.0
 40
0.0
 40
0.2
 40
0.2
 40
0.2
 40
0.2
 40
0.4
 40
0.4
 40
0.4
 40
0.4
 40
0.6
 40
0.6
 40
0.6
 40
0.6
 40
1.0
 40
1.0
 40
1.0
 40
1.0
 10
-21.7244
 20
-41.2943
 30
0.0
 10
-21.7244
 20
-41.2943
 30
0.0
 10
-21.0653
 20
-36.7793
 30
0.0
 10
-21.0653
 20
-36.7793
 30
0.0
 10
-21.0653
 20
-36.7793
 30
0.0
 10
-21.0653
 20
-36.7793
 30
0.0
 10
-22.5203
 20
-36.7793
 30
0.0
 10
-22.5203
 20
-36.7793
 30
0.0
 10
-22.5203
 20
-36.7793
 30
0.0
 10
-22.5203
 20
-36.7793
 30
0.0
 10
-21.7265
 20
-41.2943
 30
0.0
 10
-21.7265
 20
-41.2943
 30
0.0
 10
-21.7265
 20
-41.2943
 30
0.0
 10
-21.7265
 20
-41.2943
 30
0.0
 10
-21.7244
 20
-41.2943
 30
0.0
 10
-21.7244
 20
-41.2943
 30
0.0
  0
SPLINE
  5
69
330
1F
100
AcDbEntity
  8
ROUND
 62
   250
100
AcDbSpline
210
0.0
220
0.0
230
1.0
 70
    11
 71
     3
 72
    20
 73
    16
 74
     0
 42
0.0000000001
 43
0.0000000001
 40
0.0
 40
0.0
 40
0.0
 40
0.0
 40
0.2
 40
0.2
 40
0.2
 40
0.2
 40
0.4
 40
0.4
 40
0.4
 40
0.4
 40
0.6
 40
0.6
 40
0.6
 40
0.6
 40
1.0
 40
1.0
 40
1.0
 40
1.0
 10
-21.7867
 20
36.4245
 30
0.0
 10
-21.7867
 20
36.4245
 30
0.0
 10
-22.446
 20
31.9093
 30
0.0
 10
-22.446
 20
31.9093
 30
0.0
 10
-22.446
 20
31.9093
 30
0.0
 10
-22.446
 20
31.9093
 30
0.0
 10
-20.9908
 20
31.9093
 30
0.0
 10
-20.9908
 20
31.9093
 30
0.0
 10
-20.9908
 20
31.9093
 30
0.0
 10
-20.9908
 20
31.9093
 30
0.0
 10
-21.7848
 20
36.4245
 30
0.0
 10
-21.7848
 20
36.4245
 30
0.0
 10
-21.7848
 20
36.4245
 30
0.0
 10
-21.7848
 20
36.4245
 30
0.0
 10
-21.7867
 20
36.4245
 30
0.0
 10
-21.7867
 20
36.4245
 30
0.0
  0
SPLINE
  5
6A
330
1F
100
AcDbEntity
  8
ROUND
 62
   250
100
AcDbSpline
210
0.0
220
0.0
230
1.0
 70
    24
 71
     3
 72
     8
 73
     4
 74
     0
 42
0.0000000001
 43
0.0000000001
 40
0.0
 40
0.0
 40
0.0
 40
0.0
 40
1.0
 40
1.0
 40
1.0
 40
1.0
 10
-21.7699
 20
35.7149
 30
0.0
 10
-21.7699
 20
35.7149
 30
0.0
 10
-21.7699
 20
-39.1595
 30
0.0
 10
-21.7699
 20
-39.1595
 30
0.0
  0
SPLINE
  5
6B
330
1F
100
AcDbEntity
  8
ROUND
 62
   250
100
AcDbSpline
210
0.0
220
0.0
230
1.0
 70
    11
 71
     3
 72
    84
 73
    80
 74
     0
 42
0.0000000001
 43
0.0000000001
 40
0.0
 40
0.0
 40
0.0
 40
0.0
 40
0.0476190476190476
 40
0.0476190476190476
 40
0.0476190476190476
 40
0.0476190476190476
 40
0.0952380952380952
 40
0.0952380952380952
 40
0.0952380952380952
 40
0.0952380952380952
 40
0.1428571428571428
 40
0.1428571428571428
 40
0.1428571428571428
 40
0.1428571428571428
 40
0.1904761904761905
 40
0.1904761904761905
 40
0.1904761904761905
 40
0.1904761904761905
 40
0.2380952380952381
 40
0.2380952380952381
 40
0.2380952380952381
 40
0.2380952380952381
 40
0.2857142857142857
 40
0.2857142857142857
 40
0.2857142857142857
 40
0.2857142857142857
 40
0.3333333333333333
 40
0.3333333333333333
 40
0.3333333333333333
 40
0.3333333333333333
 40
0.3809523809523809
 40
0.3809523809523809
 40
0.3809523809523809
 40
0.3809523809523809
 40
0.4285714285714285
 40
0.4285714285714285
 40
0.4285714285714285
 40
0.4285714285714285
 40
0.4761904761904762
 40
0.4761904761904762
 40
0.4761904761904762
 40
0.4761904761904762
 40
0.5238095238095238
 40
0.5238095238095238
 40
0.5238095238095238
 40
0.5238095238095238
 40
0.5714285714285714
 40
0.5714285714285714
 40
0.5714285714285714
 40
0.5714285714285714
 40
0.6190476190476191
 40
0.6190476190476191
 40
0.6190476190476191
 40
0.6190476190476191
 40
0.6666666666666666
 40
0.6666666666666666
 40
0.6666666666666666
 40
0.6666666666666666
 40
0.7142857142857143
 40
0.7142857142857143
 40
0.7142857142857143
 40
0.7142857142857143
 40
0.7619047619047619
 40
0.7619047619047619
 40
0.7619047619047619
 40
0.7619047619047619
 40
0.8095238095238095
 40
0.8095238095238095
 40
0.8095238095238095
 40
0.8095238095238095
 40
0.8571428571428571
 40
0.8571428571428571
 40
0.8571428571428571
 40
0.8571428571428571
 40
0.9047619047619048
 40
0.9047619047619048
 40
0.9047619047619048
 40
0.9047619047619048
 40
1.0
 40
1.0
 40
1.0
 40
1.0
 10
2.739
 20
49.9186
 30
0.0
 10
2.739
 20
49.9186
 30
0.0
 10
3.0873
 20
50.3086
 30
0.0
 10
3.0873
 20
50.3086
 30
0.0
 10
3.0873
 20
50.3086
 30
0.0
 10
3.0873
 20
50.3086
 30
0.0
 10
3.2926
 20
50.1345
 30
0.0
 10
3.2926
 20
50.1345
 30
0.0
 10
3.2926
 20
50.1345
 30
0.0
 10
3.2926
 20
50.1345
 30
0.0
 10
2.928
 20
49.7239
 30
0.0
 10
2.928
 20
49.7239
 30
0.0
 10
2.928
 20
49.7239
 30
0.0
 10
3.0469
 20
49.5469
 30
0.0
 10
3.1268
 20
49.3919
 30
0.0
 10
3.1687
 20
49.2596
 30
0.0
 10
3.1687
 20
49.2596
 30
0.0
 10
3.2239
 20
49.0853
 30
0.0
 10
3.2515
 20
48.8899
 30
0.0
 10
3.2515
 20
48.6747
 30
0.0
 10
3.2515
 20
48.6747
 30
0.0
 10
3.2515
 20
48.3633
 30
0.0
 10
3.1886
 20
48.0857
 30
0.0
 10
3.0624
 20
47.843
 30
0.0
 10
3.0624
 20
47.843
 30
0.0
 10
2.9364
 20
47.5993
 30
0.0
 10
2.7602
 20
47.4154
 30
0.0
 10
2.5329
 20
47.2908
 30
0.0
 10
2.5329
 20
47.2908
 30
0.0
 10
2.3049
 20
47.1669
 30
0.0
 10
2.0637
 20
47.1046
 30
0.0
 10
1.8081
 20
47.1046
 30
0.0
 10
1.8081
 20
47.1046
 30
0.0
 10
1.6169
 20
47.1046
 30
0.0
 10
1.4442
 20
47.1314
 30
0.0
 10
1.2891
 20
47.1853
 30
0.0
 10
1.2891
 20
47.1853
 30
0.0
 10
1.1702
 20
47.227
 30
0.0
 10
1.0315
 20
47.3063
 30
0.0
 10
0.8721
 20
47.4238
 30
0.0
 10
0.8721
 20
47.4238
 30
0.0
 10
0.8721
 20
47.4238
 30
0.0
 10
0.5238
 20
47.0337
 30
0.0
 10
0.5238
 20
47.0337
 30
0.0
 10
0.5238
 20
47.0337
 30
0.0
 10
0.5238
 20
47.0337
 30
0.0
 10
0.3185
 20
47.2078
 30
0.0
 10
0.3185
 20
47.2078
 30
0.0
 10
0.3185
 20
47.2078
 30
0.0
 10
0.3185
 20
47.2078
 30
0.0
 10
0.6838
 20
47.6163
 30
0.0
 10
0.6838
 20
47.6163
 30
0.0
 10
0.6838
 20
47.6163
 30
0.0
 10
0.5479
 20
47.8224
 30
0.0
 10
0.4573
 20
47.9986
 30
0.0
 10
0.412
 20
48.1444
 30
0.0
 10
0.412
 20
48.1444
 30
0.0
 10
0.3667
 20
48.2903
 30
0.0
 10
0.3433
 20
48.4659
 30
0.0
 10
0.3433
 20
48.6705
 30
0.0
 10
0.3433
 20
48.6705
 30
0.0
 10
0.3433
 20
48.9826
 30
0.0
 10
0.4057
 20
49.2609
 30
0.0
 10
0.5301
 20
49.5052
 30
0.0
 10
0.5301
 20
49.5052
 30
0.0
 10
0.6547
 20
49.7495
 30
0.0
 10
0.8289
 20
49.9341
 30
0.0
 10
1.054
 20
50.0601
 30
0.0
 10
1.054
 20
50.0601
 30
0.0
 10
1.2785
 20
50.1855
 30
0.0
 10
1.5284
 20
50.2485
 30
0.0
 10
1.8037
 20
50.2485
 30
0.0
 10
1.8037
 20
50.2485
 30
0.0
 10
1.9893
 20
50.2485
 30
0.0
 10
2.1514
 20
50.2245
 30
0.0
 10
2.2902
 20
50.1748
 30
0.0
 10
2.2902
 20
50.1748
 30
0.0
 10
2.4289
 20
50.126
 30
0.0
 10
2.579
 20
50.0404
 30
0.0
 10
2.739
 20
49.9186
 30
0.0
  0
SPLINE
  5
6C
330
1F
100
AcDbEntity
  8
ROUND
 62
   250
100
AcDbSpline
210
0.0
220
0.0
230
1.0
 70
    11
 71
     3
 72
    32
 73
    28
 74
     0
 42
0.0000000001
 43
0.0000000001
 40
0.0
 40
0.0
 40
0.0
 40
0.0
 40
0.125
 40
0.125
 40
0.125
 40
0.125
 40
0.25
 40
0.25
 40
0.25
 40
0.25
 40
0.375
 40
0.375
 40
0.375
 40
0.375
 40
0.5
 40
0.5
 40
0.5
 40
0.5
 40
0.625
 40
0.625
 40
0.625
 40
0.625
 40
0.75
 40
0.75
 40
0.75
 40
0.75
 40
1.0
 40
1.0
 40
1.0
 40
1.0
 10
2.4905
 20
49.639
 30
0.0
 10
2.3602
 20
49.7409
 30
0.0
 10
2.2462
 20
49.811
 30
0.0
 10
2.1493
 20
49.8485
 30
0.0
 10
2.1493
 20
49.8485
 30
0.0
 10
2.0516
 20
49.8854
 30
0.0
 10
1.9369
 20
49.9045
 30
0.0
 10
1.8058
 20
49.9045
 30
0.0
 10
1.8058
 20
49.9045
 30
0.0
 10
1.5029
 20
49.9045
 30
0.0
 10
1.253
 20
49.8018
 30
0.0
 10
1.0548
 20
49.5965
 30
0.0
 10
1.0548
 20
49.5965
 30
0.0
 10
0.8572
 20
49.3911
 30
0.0
 10
0.7581
 20
49.0847
 30
0.0
 10
0.7581
 20
48.6762
 30
0.0
 10
0.7581
 20
48.6762
 30
0.0
 10
0.7581
 20
48.5162
 30
0.0
 10
0.7737
 20
48.3738
 30
0.0
 10
0.8042
 20
48.2492
 30
0.0
 10
0.8042
 20
48.2492
 30
0.0
 10
0.8262
 20
48.1565
 30
0.0
 10
0.8721
 20
48.0426
 30
0.0
 10
0.943
 20
47.9074
 30
0.0
 10
0.943
 20
47.9074
 30
0.0
 10
0.943
 20
47.9074
 30
0.0
 10
2.4905
 20
49.639
 30
0.0
 10
2.4905
 20
49.639
 30
0.0
  0
SPLINE
  5
6D
330
1F
100
AcDbEntity
  8
ROUND
 62
   250
100
AcDbSpline
210
0.0
220
0.0
230
1.0
 70
    11
 71
     3
 72
    28
 73
    24
 74
     0
 42
0.0000000001
 43
0.0000000001
 40
0.0
 40
0.0
 40
0.0
 40
0.0
 40
0.1428571428571428
 40
0.1428571428571428
 40
0.1428571428571428
 40
0.1428571428571428
 40
0.2857142857142857
 40
0.2857142857142857
 40
0.2857142857142857
 40
0.2857142857142857
 40
0.4285714285714285
 40
0.4285714285714285
 40
0.4285714285714285
 40
0.4285714285714285
 40
0.5714285714285714
 40
0.5714285714285714
 40
0.5714285714285714
 40
0.5714285714285714
 40
0.7142857142857143
 40
0.7142857142857143
 40
0.7142857142857143
 40
0.7142857142857143
 40
1.0
 40
1.0
 40
1.0
 40
1.0
 10
2.6604
 20
49.4251
 30
0.0
 10
2.6604
 20
49.4251
 30
0.0
 10
1.1192
 20
47.6998
 30
0.0
 10
1.1192
 20
47.6998
 30
0.0
 10
1.1192
 20
47.6998
 30
0.0
 10
1.2253
 20
47.6129
 30
0.0
 10
1.3238
 20
47.5519
 30
0.0
 10
1.4138
 20
47.5173
 30
0.0
 10
1.4138
 20
47.5173
 30
0.0
 10
1.5312
 20
47.4712
 30
0.0
 10
1.6586
 20
47.4486
 30
0.0
 10
1.7953
 20
47.4486
 30
0.0
 10
1.7953
 20
47.4486
 30
0.0
 10
2.0969
 20
47.4486
 30
0.0
 10
2.3454
 20
47.5548
 30
0.0
 10
2.5421
 20
47.7679
 30
0.0
 10
2.5421
 20
47.7679
 30
0.0
 10
2.7382
 20
47.981
 30
0.0
 10
2.8367
 20
48.2798
 30
0.0
 10
2.8367
 20
48.6642
 30
0.0
 10
2.8367
 20
48.6642
 30
0.0
 10
2.8367
 20
48.9515
 30
0.0
 10
2.778
 20
49.2057
 30
0.0
 10
2.6604
 20
49.4251
 30
0.0
  0
SPLINE
  5
6E
330
1F
100
AcDbEntity
  8
ROUND
 62
   250
100
AcDbSpline
210
0.0
220
0.0
230
1.0
 70
    11
 71
     3
 72
    40
 73
    36
 74
     0
 42
0.0000000001
 43
0.0000000001
 40
0.0
 40
0.0
 40
0.0
 40
0.0
 40
0.1
 40
0.1
 40
0.1
 40
0.1
 40
0.2
 40
0.2
 40
0.2
 40
0.2
 40
0.3
 40
0.3
 40
0.3
 40
0.3
 40
0.4
 40
0.4
 40
0.4
 40
0.4
 40
0.5
 40
0.5
 40
0.5
 40
0.5
 40
0.6
 40
0.6
 40
0.6
 40
0.6
 40
0.7
 40
0.7
 40
0.7
 40
0.7
 40
0.8
 40
0.8
 40
0.8
 40
0.8
 40
1.0
 40
1.0
 40
1.0
 40
1.0
 10
5.0327
 20
47.1562
 30
0.0
 10
5.0327
 20
47.1562
 30
0.0
 10
4.6596
 20
47.1562
 30
0.0
 10
4.6596
 20
47.1562
 30
0.0
 10
4.6596
 20
47.1562
 30
0.0
 10
4.6596
 20
47.1562
 30
0.0
 10
4.6596
 20
49.5348
 30
0.0
 10
4.6596
 20
49.5348
 30
0.0
 10
4.6596
 20
49.5348
 30
0.0
 10
4.5696
 20
49.4492
 30
0.0
 10
4.4522
 20
49.3636
 30
0.0
 10
4.3064
 20
49.2779
 30
0.0
 10
4.3064
 20
49.2779
 30
0.0
 10
4.1598
 20
49.1923
 30
0.0
 10
4.0288
 20
49.1279
 30
0.0
 10
3.9126
 20
49.0853
 30
0.0
 10
3.9126
 20
49.0853
 30
0.0
 10
3.9126
 20
49.0853
 30
0.0
 10
3.9126
 20
49.4457
 30
0.0
 10
3.9126
 20
49.4457
 30
0.0
 10
3.9126
 20
49.4457
 30
0.0
 10
4.1215
 20
49.544
 30
0.0
 10
4.3043
 20
49.6631
 30
0.0
 10
4.4606
 20
49.8024
 30
0.0
 10
4.4606
 20
49.8024
 30
0.0
 10
4.6164
 20
49.9427
 30
0.0
 10
4.7275
 20
50.0779
 30
0.0
 10
4.7927
 20
50.2096
 30
0.0
 10
4.7927
 20
50.2096
 30
0.0
 10
4.7927
 20
50.2096
 30
0.0
 10
5.0327
 20
50.2096
 30
0.0
 10
5.0327
 20
50.2096
 30
0.0
 10
5.0327
 20
50.2096
 30
0.0
 10
5.0327
 20
50.2096
 30
0.0
 10
5.0327
 20
47.1562
 30
0.0
 10
5.0327
 20
47.1562
 30
0.0
  0
SPLINE
  5
6F
330
1F
100
AcDbEntity
  8
ROUND
 62
   250
100
AcDbSpline
210
0.0
220
0.0
230
1.0
 70
    11
 71
     3
 72
   124
 73
   120
 74
     0
 42
0.0000000001
 43
0.0000000001
 40
0.0
 40
0.0
 40
0.0
 40
0.0
 40
0.032258064516129
 40
0.032258064516129
 40
0.032258064516129
 40
0.032258064516129
 40
0.0645161290322581
 40
0.0645161290322581
 40
0.0645161290322581
 40
0.0645161290322581
 40
0.0967741935483871
 40
0.0967741935483871
 40
0.0967741935483871
 40
0.0967741935483871
 40
0.1290322580645161
 40
0.1290322580645161
 40
0.1290322580645161
 40
0.1290322580645161
 40
0.1612903225806452
 40
0.1612903225806452
 40
0.1612903225806452
 40
0.1612903225806452
 40
0.1935483870967742
 40
0.1935483870967742
 40
0.1935483870967742
 40
0.1935483870967742
 40
0.2258064516129032
 40
0.2258064516129032
 40
0.2258064516129032
 40
0.2258064516129032
 40
0.2580645161290323
 40
0.2580645161290323
 40
0.2580645161290323
 40
0.2580645161290323
 40
0.2903225806451613
 40
0.2903225806451613
 40
0.2903225806451613
 40
0.2903225806451613
 40
0.3225806451612903
 40
0.3225806451612903
 40
0.3225806451612903
 40
0.3225806451612903
 40
0.3548387096774194
 40
0.3548387096774194
 40
0.3548387096774194
 40
0.3548387096774194
 40
0.3870967741935484
 40
0.3870967741935484
 40
0.3870967741935484
 40
0.3870967741935484
 40
0.4193548387096774
 40
0.4193548387096774
 40
0.4193548387096774
 40
0.4193548387096774
 40
0.4516129032258064
 40
0.4516129032258064
 40
0.4516129032258064
 40
0.4516129032258064
 40
0.4838709677419355
 40
0.4838709677419355
 40
0.4838709677419355
 40
0.4838709677419355
 40
0.5161290322580645
 40
0.5161290322580645
 40
0.5161290322580645
 40
0.5161290322580645
 40
0.5483870967741935
 40
0.5483870967741935
 40
0.5483870967741935
 40
0.5483870967741935
 40
0.5806451612903226
 40
0.5806451612903226
 40
0.5806451612903226
 40
0.5806451612903226
 40
0.6129032258064516
 40
0.6129032258064516
 40
0.6129032258064516
 40
0.6129032258064516
 40
0.6451612903225806
 40
0.6451612903225806
 40
0.6451612903225806
 40
0.6451612903225806
 40
0.6774193548387096
 40
0.6774193548387096
 40
0.6774193548387096
 40
0.6774193548387096
 40
0.7096774193548387
 40
0.7096774193548387
 40
0.7096774193548387
 40
0.7096774193548387
 40
0.7419354838709677
 40
0.7419354838709677
 40
0.7419354838709677
 40
0.7419354838709677
 40
0.7741935483870968
 40
0.7741935483870968
 40
0.7741935483870968
 40
0.7741935483870968
 40
0.8064516129032258
 40
0.8064516129032258
 40
0.8064516129032258
 40
0.8064516129032258
 40
0.8387096774193549
 40
0.8387096774193549
 40
0.8387096774193549
 40
0.8387096774193549
 40
0.8709677419354839
 40
0.8709677419354839
 40
0.8709677419354839
 40
0.8709677419354839
 40
0.9032258064516129
 40
0.9032258064516129
 40
0.9032258064516129
 40
0.9032258064516129
 40
0.9354838709677419
 40
0.9354838709677419
 40
0.9354838709677419
 40
0.9354838709677419
 40
1.0
 40
1.0
 40
1.0
 40
1.0
 10
5.9912
 20
47.959
 30
0.0
 10
5.9912
 20
47.959
 30
0.0
 10
6.3643
 20
48.0085
 30
0.0
 10
6.3643
 20
48.0085
 30
0.0
 10
6.3643
 20
48.0085
 30
0.0
 10
6.4075
 20
47.7969
 30
0.0
 10
6.4805
 20
47.6448
 30
0.0
 10
6.5831
 20
47.5513
 30
0.0
 10
6.5831
 20
47.5513
 30
0.0
 10
6.6864
 20
47.4578
 30
0.0
 10
6.8117
 20
47.411
 30
0.0
 10
6.9597
 20
47.411
 30
0.0
 10
6.9597
 20
47.411
 30
0.0
 10
7.1352
 20
47.411
 30
0.0
 10
7.2839
 20
47.472
 30
0.0
 10
7.405
 20
47.5937
 30
0.0
 10
7.405
 20
47.5937
 30
0.0
 10
7.5253
 20
47.7155
 30
0.0
 10
7.5862
 20
47.8663
 30
0.0
 10
7.5862
 20
48.0462
 30
0.0
 10
7.5862
 20
48.0462
 30
0.0
 10
7.5862
 20
48.2174
 30
0.0
 10
7.5303
 20
48.3591
 30
0.0
 10
7.4184
 20
48.4701
 30
0.0
 10
7.4184
 20
48.4701
 30
0.0
 10
7.3058
 20
48.5812
 30
0.0
 10
7.1636
 20
48.6372
 30
0.0
 10
6.9908
 20
48.6372
 30
0.0
 10
6.9908
 20
48.6372
 30
0.0
 10
6.9201
 20
48.6372
 30
0.0
 10
6.8322
 20
48.6231
 30
0.0
 10
6.7274
 20
48.5955
 30
0.0
 10
6.7274
 20
48.5955
 30
0.0
 10
6.7274
 20
48.5955
 30
0.0
 10
6.7693
 20
48.9232
 30
0.0
 10
6.7693
 20
48.9232
 30
0.0
 10
6.7693
 20
48.9232
 30
0.0
 10
6.794
 20
48.9205
 30
0.0
 10
6.8138
 20
48.919
 30
0.0
 10
6.8293
 20
48.919
 30
0.0
 10
6.8293
 20
48.919
 30
0.0
 10
6.988
 20
48.919
 30
0.0
 10
7.131
 20
48.9608
 30
0.0
 10
7.2584
 20
49.0436
 30
0.0
 10
7.2584
 20
49.0436
 30
0.0
 10
7.3859
 20
49.1264
 30
0.0
 10
7.4496
 20
49.2546
 30
0.0
 10
7.4496
 20
49.4272
 30
0.0
 10
7.4496
 20
49.4272
 30
0.0
 10
7.4496
 20
49.5639
 30
0.0
 10
7.4028
 20
49.6778
 30
0.0
 10
7.3101
 20
49.7671
 30
0.0
 10
7.3101
 20
49.7671
 30
0.0
 10
7.2173
 20
49.8569
 30
0.0
 10
7.0977
 20
49.9024
 30
0.0
 10
6.9511
 20
49.9024
 30
0.0
 10
6.9511
 20
49.9024
 30
0.0
 10
6.806
 20
49.9024
 30
0.0
 10
6.685
 20
49.8563
 30
0.0
 10
6.5887
 20
49.7657
 30
0.0
 10
6.5887
 20
49.7657
 30
0.0
 10
6.4917
 20
49.6744
 30
0.0
 10
6.4294
 20
49.5369
 30
0.0
 10
6.4017
 20
49.3544
 30
0.0
 10
6.4017
 20
49.3544
 30
0.0
 10
6.4017
 20
49.3544
 30
0.0
 10
6.0288
 20
49.4209
 30
0.0
 10
6.0288
 20
49.4209
 30
0.0
 10
6.0288
 20
49.4209
 30
0.0
 10
6.0741
 20
49.6715
 30
0.0
 10
6.1781
 20
49.8655
 30
0.0
 10
6.3396
 20
50.0028
 30
0.0
 10
6.3396
 20
50.0028
 30
0.0
 10
6.5017
 20
50.1402
 30
0.0
 10
6.7028
 20
50.2096
 30
0.0
 10
6.9434
 20
50.2096
 30
0.0
 10
6.9434
 20
50.2096
 30
0.0
 10
7.109
 20
50.2096
 30
0.0
 10
7.2619
 20
50.1734
 30
0.0
 10
7.4014
 20
50.1027
 30
0.0
 10
7.4014
 20
50.1027
 30
0.0
 10
7.5409
 20
50.0312
 30
0.0
 10
7.6478
 20
49.9341
 30
0.0
 10
7.7221
 20
49.811
 30
0.0
 10
7.7221
 20
49.811
 30
0.0
 10
7.7957
 20
49.6878
 30
0.0
 10
7.8332
 20
49.5576
 30
0.0
 10
7.8332
 20
49.4188
 30
0.0
 10
7.8332
 20
49.4188
 30
0.0
 10
7.8332
 20
49.2879
 30
0.0
 10
7.7979
 20
49.1682
 30
0.0
 10
7.7271
 20
49.0598
 30
0.0
 10
7.7271
 20
49.0598
 30
0.0
 10
7.6562
 20
48.9522
 30
0.0
 10
7.5522
 20
48.8666
 30
0.0
 10
7.4142
 20
48.8029
 30
0.0
 10
7.4142
 20
48.8029
 30
0.0
 10
7.5939
 20
48.7618
 30
0.0
 10
7.7334
 20
48.6754
 30
0.0
 10
7.8332
 20
48.5445
 30
0.0
 10
7.8332
 20
48.5445
 30
0.0
 10
7.9324
 20
48.4142
 30
0.0
 10
7.9819
 20
48.2507
 30
0.0
 10
7.9819
 20
48.0546
 30
0.0
 10
7.9819
 20
48.0546
 30
0.0
 10
7.9819
 20
47.7891
 30
0.0
 10
7.8856
 20
47.5639
 30
0.0
 10
7.6917
 20
47.3793
 30
0.0
 10
7.6917
 20
47.3793
 30
0.0
 10
7.4983
 20
47.1944
 30
0.0
 10
7.2535
 20
47.1025
 30
0.0
 10
6.9576
 20
47.1025
 30
0.0
 10
6.9576
 20
47.1025
 30
0.0
 10
6.6907
 20
47.1025
 30
0.0
 10
6.469
 20
47.1816
 30
0.0
 10
6.2928
 20
47.341
 30
0.0
 10
6.2928
 20
47.341
 30
0.0
 10
6.1165
 20
47.4995
 30
0.0
 10
6.016
 20
47.7056
 30
0.0
 10
5.9912
 20
47.959
 30
0.0
  0
SPLINE
  5
70
330
1F
100
AcDbEntity
  8
ROUND
 62
   250
100
AcDbSpline
210
0.0
220
0.0
230
1.0
 70
    11
 71
     3
 72
    92
 73
    88
 74
     0
 42
0.0000000001
 43
0.0000000001
 40
0.0
 40
0.0
 40
0.0
 40
0.0
 40
0.0434782608695652
 40
0.0434782608695652
 40
0.0434782608695652
 40
0.0434782608695652
 40
0.0869565217391304
 40
0.0869565217391304
 40
0.0869565217391304
 40
0.0869565217391304
 40
0.1304347826086956
 40
0.1304347826086956
 40
0.1304347826086956
 40
0.1304347826086956
 40
0.1739130434782609
 40
0.1739130434782609
 40
0.1739130434782609
 40
0.1739130434782609
 40
0.2173913043478261
 40
0.2173913043478261
 40
0.2173913043478261
 40
0.2173913043478261
 40
0.2608695652173913
 40
0.2608695652173913
 40
0.2608695652173913
 40
0.2608695652173913
 40
0.3043478260869565
 40
0.3043478260869565
 40
0.3043478260869565
 40
0.3043478260869565
 40
0.3478260869565217
 40
0.3478260869565217
 40
0.3478260869565217
 40
0.3478260869565217
 40
0.391304347826087
 40
0.391304347826087
 40
0.391304347826087
 40
0.391304347826087
 40
0.4347826086956522
 40
0.4347826086956522
 40
0.4347826086956522
 40
0.4347826086956522
 40
0.4782608695652174
 40
0.4782608695652174
 40
0.4782608695652174
 40
0.4782608695652174
 40
0.5217391304347826
 40
0.5217391304347826
 40
0.5217391304347826
 40
0.5217391304347826
 40
0.5652173913043478
 40
0.5652173913043478
 40
0.5652173913043478
 40
0.5652173913043478
 40
0.6086956521739131
 40
0.6086956521739131
 40
0.6086956521739131
 40
0.6086956521739131
 40
0.6521739130434783
 40
0.6521739130434783
 40
0.6521739130434783
 40
0.6521739130434783
 40
0.6956521739130435
 40
0.6956521739130435
 40
0.6956521739130435
 40
0.6956521739130435
 40
0.7391304347826086
 40
0.7391304347826086
 40
0.7391304347826086
 40
0.7391304347826086
 40
0.782608695652174
 40
0.782608695652174
 40
0.782608695652174
 40
0.782608695652174
 40
0.8260869565217391
 40
0.8260869565217391
 40
0.8260869565217391
 40
0.8260869565217391
 40
0.8695652173913043
 40
0.8695652173913043
 40
0.8695652173913043
 40
0.8695652173913043
 40
0.9130434782608695
 40
0.9130434782608695
 40
0.9130434782608695
 40
0.9130434782608695
 40
1.0
 40
1.0
 40
1.0
 40
1.0
 10
8.3514
 20
47.9527
 30
0.0
 10
8.3514
 20
47.9527
 30
0.0
 10
8.7436
 20
47.986
 30
0.0
 10
8.7436
 20
47.986
 30
0.0
 10
8.7436
 20
47.986
 30
0.0
 10
8.7727
 20
47.7948
 30
0.0
 10
8.84
 20
47.6518
 30
0.0
 10
8.9455
 20
47.5555
 30
0.0
 10
8.9455
 20
47.5555
 30
0.0
 10
9.0516
 20
47.4592
 30
0.0
 10
9.1791
 20
47.411
 30
0.0
 10
9.3284
 20
47.411
 30
0.0
 10
9.3284
 20
47.411
 30
0.0
 10
9.5082
 20
47.411
 30
0.0
 10
9.6604
 20
47.4791
 30
0.0
 10
9.7843
 20
47.6142
 30
0.0
 10
9.7843
 20
47.6142
 30
0.0
 10
9.9089
 20
47.7501
 30
0.0
 10
9.9712
 20
47.93
 30
0.0
 10
9.9712
 20
48.1536
 30
0.0
 10
9.9712
 20
48.1536
 30
0.0
 10
9.9712
 20
48.3667
 30
0.0
 10
9.9117
 20
48.5346
 30
0.0
 10
9.7921
 20
48.6577
 30
0.0
 10
9.7921
 20
48.6577
 30
0.0
 10
9.6724
 20
48.7809
 30
0.0
 10
9.5161
 20
48.8425
 30
0.0
 10
9.322
 20
48.8425
 30
0.0
 10
9.322
 20
48.8425
 30
0.0
 10
9.2016
 20
48.8425
 30
0.0
 10
9.0934
 20
48.815
 30
0.0
 10
8.9963
 20
48.7605
 30
0.0
 10
8.9963
 20
48.7605
 30
0.0
 10
8.8994
 20
48.7058
 30
0.0
 10
8.8237
 20
48.6351
 30
0.0
 10
8.7685
 20
48.548
 30
0.0
 10
8.7685
 20
48.548
 30
0.0
 10
8.7685
 20
48.548
 30
0.0
 10
8.4179
 20
48.5933
 30
0.0
 10
8.4179
 20
48.5933
 30
0.0
 10
8.4179
 20
48.5933
 30
0.0
 10
8.4179
 20
48.5933
 30
0.0
 10
8.7125
 20
50.1551
 30
0.0
 10
8.7125
 20
50.1551
 30
0.0
 10
8.7125
 20
50.1551
 30
0.0
 10
8.7125
 20
50.1551
 30
0.0
 10
10.2246
 20
50.1551
 30
0.0
 10
10.2246
 20
50.1551
 30
0.0
 10
10.2246
 20
50.1551
 30
0.0
 10
10.2246
 20
50.1551
 30
0.0
 10
10.2246
 20
49.7982
 30
0.0
 10
10.2246
 20
49.7982
 30
0.0
 10
10.2246
 20
49.7982
 30
0.0
 10
10.2246
 20
49.7982
 30
0.0
 10
9.0113
 20
49.7982
 30
0.0
 10
9.0113
 20
49.7982
 30
0.0
 10
9.0113
 20
49.7982
 30
0.0
 10
9.0113
 20
49.7982
 30
0.0
 10
8.847
 20
48.9813
 30
0.0
 10
8.847
 20
48.9813
 30
0.0
 10
8.847
 20
48.9813
 30
0.0
 10
9.0296
 20
49.1088
 30
0.0
 10
9.2215
 20
49.1724
 30
0.0
 10
9.4218
 20
49.1724
 30
0.0
 10
9.4218
 20
49.1724
 30
0.0
 10
9.6873
 20
49.1724
 30
0.0
 10
9.911
 20
49.0805
 30
0.0
 10
10.0937
 20
48.8964
 30
0.0
 10
10.0937
 20
48.8964
 30
0.0
 10
10.2763
 20
48.7123
 30
0.0
 10
10.3676
 20
48.4759
 30
0.0
 10
10.3676
 20
48.187
 30
0.0
 10
10.3676
 20
48.187
 30
0.0
 10
10.3676
 20
47.9116
 30
0.0
 10
10.287
 20
47.6737
 30
0.0
 10
10.127
 20
47.4733
 30
0.0
 10
10.127
 20
47.4733
 30
0.0
 10
9.9316
 20
47.2277
 30
0.0
 10
9.6654
 20
47.1046
 30
0.0
 10
9.3284
 20
47.1046
 30
0.0
 10
9.3284
 20
47.1046
 30
0.0
 10
9.0516
 20
47.1046
 30
0.0
 10
8.8258
 20
47.1816
 30
0.0
 10
8.6509
 20
47.3367
 30
0.0
 10
8.6509
 20
47.3367
 30
0.0
 10
8.476
 20
47.4918
 30
0.0
 10
8.3763
 20
47.6971
 30
0.0
 10
8.3514
 20
47.9527
 30
0.0
  0
SPLINE
  5
71
330
1F
100
AcDbEntity
  8
ROUND
 62
   250
100
AcDbSpline
210
0.0
220
0.0
230
1.0
 70
    11
 71
     3
 72
    20
 73
    16
 74
     0
 42
0.0000000001
 43
0.0000000001
 40
0.0
 40
0.0
 40
0.0
 40
0.0
 40
0.2
 40
0.2
 40
0.2
 40
0.2
 40
0.4
 40
0.4
 40
0.4
 40
0.4
 40
0.6
 40
0.6
 40
0.6
 40
0.6
 40
1.0
 40
1.0
 40
1.0
 40
1.0
 10
-15.3414
 20
46.1201
 30
0.0
 10
-15.3414
 20
46.1201
 30
0.0
 10
-10.8263
 20
45.4609
 30
0.0
 10
-10.8263
 20
45.4609
 30
0.0
 10
-10.8263
 20
45.4609
 30
0.0
 10
-10.8263
 20
45.4609
 30
0.0
 10
-10.8263
 20
46.9162
 30
0.0
 10
-10.8263
 20
46.9162
 30
0.0
 10
-10.8263
 20
46.9162
 30
0.0
 10
-10.8263
 20
46.9162
 30
0.0
 10
-15.3414
 20
46.1222
 30
0.0
 10
-15.3414
 20
46.1222
 30
0.0
 10
-15.3414
 20
46.1222
 30
0.0
 10
-15.3414
 20
46.1222
 30
0.0
 10
-15.3414
 20
46.1201
 30
0.0
 10
-15.3414
 20
46.1201
 30
0.0
  0
SPLINE
  5
72
330
1F
100
AcDbEntity
  8
ROUND
 62
   250
100
AcDbSpline
210
0.0
220
0.0
230
1.0
 70
    11
 71
     3
 72
    20
 73
    16
 74
     0
 42
0.0000000001
 43
0.0000000001
 40
0.0
 40
0.0
 40
0.0
 40
0.0
 40
0.2
 40
0.2
 40
0.2
 40
0.2
 40
0.4
 40
0.4
 40
0.4
 40
0.4
 40
0.6
 40
0.6
 40
0.6
 40
0.6
 40
1.0
 40
1.0
 40
1.0
 40
1.0
 10
25.3593
 20
46.2082
 30
0.0
 10
25.3593
 20
46.2082
 30
0.0
 10
20.8443
 20
46.8672
 30
0.0
 10
20.8443
 20
46.8672
 30
0.0
 10
20.8443
 20
46.8672
 30
0.0
 10
20.8443
 20
46.8672
 30
0.0
 10
20.8443
 20
45.4121
 30
0.0
 10
20.8443
 20
45.4121
 30
0.0
 10
20.8443
 20
45.4121
 30
0.0
 10
20.8443
 20
45.4121
 30
0.0
 10
25.3593
 20
46.2061
 30
0.0
 10
25.3593
 20
46.2061
 30
0.0
 10
25.3593
 20
46.2061
 30
0.0
 10
25.3593
 20
46.2061
 30
0.0
 10
25.3593
 20
46.2082
 30
0.0
 10
25.3593
 20
46.2082
 30
0.0
  0
SPLINE
  5
73
330
1F
100
AcDbEntity
  8
ROUND
 62
   250
100
AcDbSpline
210
0.0
220
0.0
230
1.0
 70
    24
 71
     3
 72
     8
 73
     4
 74
     0
 42
0.0000000001
 43
0.0000000001
 40
0.0
 40
0.0
 40
0.0
 40
0.0
 40
1.0
 40
1.0
 40
1.0
 40
1.0
 10
24.7527
 20
46.1549
 30
0.0
 10
24.7527
 20
46.1549
 30
0.0
 10
-14.9916
 20
46.1549
 30
0.0
 10
-14.9916
 20
46.1549
 30
0.0
  0
ENDSEC
  0
SECTION
  2
OBJECTS
  0
DICTIONARY
  5
C
330
0
100
AcDbDictionary
  3
ACAD_GROUP
350
D
  3
ACAD_LAYOUT
350
1A
  3
ACAD_MATERIAL
350
3B
  3
ACAD_MLEADERSTYLE
350
96
  3
ACAD_MLINESTYLE
350
17
  3
ACAD_PLOTSETTINGS
350
19
  3
ACAD_VISUALSTYLE
350
2A
  3
ACDBHEADERROUNDTRIPXREC
350
74
  3
ACDBVARIABLEDICTIONARY
350
94
  0
DICTIONARY
  5
D
102
{ACAD_REACTORS
330
C
102
}
330
C
100
AcDbDictionary
  0
DICTIONARY
  5
1A
102
{ACAD_REACTORS
330
C
102
}
330
C
100
AcDbDictionary
  0
DICTIONARY
  5
3B
102
{ACAD_REACTORS
330
C
102
}
330
C
100
AcDbDictionary
  3
BYBLOCK
350
3D
  3
BYLAYER
350
3C
  3
GLOBAL
350
3E
  0
DICTIONARY
  5
96
102
{ACAD_REACTORS
330
C
102
}
330
C
100
AcDbDictionary
  0
DICTIONARY
  5
17
102
{ACAD_REACTORS
330
C
102
}
330
C
100
AcDbDictionary
  3
STANDARD
350
18
  0
DICTIONARY
  5
19
102
{ACAD_REACTORS
330
C
102
}
330
C
100
AcDbDictionary
  0
DICTIONARY
  5
2A
102
{ACAD_REACTORS
330
C
102
}
330
C
100
AcDbDictionary
  3
2DWIREFRAME
350
2F
  3
3D_HIDDEN
350
31
  3
3DWIREFRAME
350
30
  3
BASIC
350
32
  3
BRIGHTEN
350
36
  3
COLORCHANGE
350
3A
  3
CONCEPTUAL
350
34
  3
DIM
350
35
  3
FACEPATTERN
350
39
  3
FLAT
350
2B
  3
FLATWITHEDGES
350
2C
  3
GOURAUD
350
2D
  3
GOURAUDWITHEDGES
350
2E
  3
LINEPATTERN
350
38
  3
REALISTIC
350
33
  3
THICKEN
350
37
  0
DICTIONARY
  5
74
102
{ACAD_REACTORS
330
C
102
}
330
C
100
AcDbDictionary
  3
CEPSNTYPE
350
7D
  3
DIMSTYLEDATA
350
93
  3
FINGERPRINTGUID
350
7E
  3
HYPERLINKBASE
350
77
  3
INSUNITS
350
7C
  3
LAYOUTDICT
350
79
  3
LWETCUNION
350
7B
  3
PLOTSETDICT
350
7A
  3
PSVPSCALE
350
80
  3
PUCSBASE
350
83
  3
PUCSORGBACK
350
89
  3
PUCSORGBOTTOM
350
85
  3
PUCSORGFRONT
350
88
  3
PUCSORGLEFT
350
86
  3
PUCSORGRIGHT
350
87
  3
PUCSORGTOP
350
84
  3
PUCSORTHOREF
350
81
  3
PUCSORTHOVIEW
350
82
  3
STYLESHEET
350
78
  3
TSTACKALIGN
350
75
  3
TSTACKSIZE
350
76
  3
UCSBASE
350
8C
  3
UCSORGBACK
350
92
  3
UCSORGBOTTOM
350
8E
  3
UCSORGFRONT
350
91
  3
UCSORGLEFT
350
8F
  3
UCSORGRIGHT
350
90
  3
UCSORGTOP
350
8D
  3
UCSORTHOREF
350
8A
  3
UCSORTHOVIEW
350
8B
  3
VERSIONGUID
350
7F
  0
DICTIONARY
  5
94
102
{ACAD_REACTORS
330
C
102
}
330
C
100
AcDbDictionary
  3
DIMASSOC
350
97
  3
HIDETEXT
350
98
  0
MATERIAL
  5
3D
102
{ACAD_REACTORS
330
3B
102
}
102
{ACAD_XDICTIONARY
360
9B
102
}
330
3B
100
AcDbMaterial
  1
ByBlock
  0
MATERIAL
  5
3C
102
{ACAD_REACTORS
330
3B
102
}
102
{ACAD_XDICTIONARY
360
99
102
}
330
3B
100
AcDbMaterial
  1
ByLayer
  0
MATERIAL
  5
3E
102
{ACAD_REACTORS
330
3B
102
}
102
{ACAD_XDICTIONARY
360
9D
102
}
330
3B
100
AcDbMaterial
  1
Global
  0
MLINESTYLE
  5
18
102
{ACAD_REACTORS
330
17
102
}
330
17
100
AcDbMlineStyle
  2
Standard
 70
     0
  3

 62
   256
 51
90.0
 52
90.0
 71
     2
 49
0.5
 62
   256
  6
BYLAYER
 49
-0.5
 62
   256
  6
BYLAYER
  0
ACAD_PROXY_OBJECT
  5
2F
102
{ACAD_REACTORS
330
2A
102
}
330
2A
100
AcDbProxyObject
 90
      499
 91
      501
 93
      436
310
42CC9915DA5C99599C985B595049028333333333333E3BF0000000000000FB0107901411070040501600405405064090741402480A0340
1001
ACAD
1000
AcDbSavedByObjectVersion
1070
     0
  0
ACAD_PROXY_OBJECT
  5
31
102
{ACAD_REACTORS
330
2A
102
}
330
2A
100
AcDbProxyObject
 90
      499
 91
      501
 93
      500
310
424CD108121A5919195B90640502408333333333333E3BF0000000000000FB01079024090700405020000000000001110200405405064090740C02480A0340
1001
ACAD
1000
AcDbSavedByObjectVersion
1070
     0
  0
ACAD_PROXY_OBJECT
  5
30
102
{ACAD_REACTORS
330
2A
102
}
330
2A
100
AcDbProxyObject
 90
      499
 91
      501
 93
      436
310
42CCD915DA5C99599C985B595059028333333333333E3BF0000000000000FB0107901411070040501600405405064090741402480A0340
1001
ACAD
1000
AcDbSavedByObjectVersion
1070
     0
  0
ACAD_PROXY_OBJECT
  5
32
102
{ACAD_REACTORS
330
2A
102
}
330
2A
100
AcDbProxyObject
 90
      499
 91
      501
 93
      388
310
4150985CDA58D07406404333333333333E3BF0000000000000FB0107A41107004050150841D405064090741402480A0350
1001
ACAD
1000
AcDbSavedByObjectVersion
1070
     0
  0
ACAD_PROXY_OBJECT
  5
36
102
{ACAD_REACTORS
330
2A
102
}
330
2A
100
AcDbProxyObject
 90
      499
 91
      501
 93
      428
310
42109C9A59DA1D195B90C409028333333333333E3BF0000000000000FB010790141107004050150841D405064090741402480A029950
1001
ACAD
1000
AcDbSavedByObjectVersion
1070
     0
  0
ACAD_PROXY_OBJECT
  5
3A
102
{ACAD_REACTORS
330
2A
102
}
330
2A
100
AcDbProxyObject
 90
      499
 91
      501
 93
      452
310
42D0DBDB1BDC90DA185B99D95104090240C333333333333E3BF0000000000000FB0108901411070040501508421405064090741402480A0350
1001
ACAD
1000
AcDbSavedByObjectVersion
1070
     0
  0
ACAD_PROXY_OBJECT
  5
34
102
{ACAD_REACTORS
330
2A
102
}
330
2A
100
AcDbProxyObject
 90
      499
 91
      501
 93
      500
310
4290DBDB98D95C1D1D585B10940D028333333333333E3BF0000000000000FB0107902409070040501000000000000111010841D405064090740C02480A0340
1001
ACAD
1000
AcDbSavedByObjectVersion
1070
     0
  0
ACAD_PROXY_OBJECT
  5
35
102
{ACAD_REACTORS
330
2A
102
}
330
2A
100
AcDbProxyObject
 90
      499
 91
      501
 93
      412
310
40D11A5B50B409028333333333333E3BF0000000000000FB010790141107004050150841D405064090741402480A02677FFFFFD0
1001
ACAD
1000
AcDbSavedByObjectVersion
1070
     0
  0
ACAD_PROXY_OBJECT
  5
39
102
{ACAD_REACTORS
330
2A
102
}
330
2A
100
AcDbProxyObject
 90
      499
 91
      501
 93
      444
310
42D19858D95C185D1D195C9B90F409028333333333333E3BF0000000000000FB010790141107004050150841D405064090741402480A0350
1001
ACAD
1000
AcDbSavedByObjectVersion
1070
     0
  0
ACAD_PROXY_OBJECT
  5
2B
102
{ACAD_REACTORS
330
2A
102
}
330
2A
100
AcDbProxyObject
 90
      499
 91
      501
 93
      388
310
41119B185D240901404333333333333E3BF0000000000000F9010740A41107004050150841D405064090741402480A1B50
1001
ACAD
1000
AcDbSavedByObjectVersion
1070
     0
  0
ACAD_PROXY_OBJECT
  5
2C
102
{ACAD_REACTORS
330
2A
102
}
330
2A
100
AcDbProxyObject
 90
      499
 91
      501
 93
      476
310
43519B185D15DA5D1A115919D95CD0140901404333333333333E3BF0000000000000F9010740901411070040501600405405064090741402480A1B50
1001
ACAD
1000
AcDbSavedByObjectVersion
1070
     0
  0
ACAD_PROXY_OBJECT
  5
2D
102
{ACAD_REACTORS
330
2A
102
}
330
2A
100
AcDbProxyObject
 90
      499
 91
      501
 93
      412
310
41D1DBDD5C985D5910240902404333333333333E3BF0000000000000F9010740A411070040501641D405064090741402480A1B50
1001
ACAD
1000
AcDbSavedByObjectVersion
1070
     0
  0
ACAD_PROXY_OBJECT
  5
2E
102
{ACAD_REACTORS
330
2A
102
}
330
2A
100
AcDbProxyObject
 90
      499
 91
      501
 93
      500
310
4411DBDD5C985D5915DA5D1A115919D95CD0340902404333333333333E3BF0000000000000F9010740901411070040501600405405064090741402480A1B50
1001
ACAD
1000
AcDbSavedByObjectVersion
1070
     0
  0
ACAD_PROXY_OBJECT
  5
38
102
{ACAD_REACTORS
330
2A
102
}
330
2A
100
AcDbProxyObject
 90
      499
 91
      501
 93
      444
310
42D31A5B995C185D1D195C9B90E409028333333333333E3BF0000000000000FB010790141107004050750841D405064090741402483A0350
1001
ACAD
1000
AcDbSavedByObjectVersion
1070
     0
  0
ACAD_PROXY_OBJECT
  5
33
102
{ACAD_REACTORS
330
2A
102
}
330
2A
100
AcDbProxyObject
 90
      499
 91
      501
 93
      420
310
425499585B1A5CDD1A58D08409028333333333333E3BF0000000000000FB01079019070040501508421405064090741402480A1B40
1001
ACAD
1000
AcDbSavedByObjectVersion
1070
     0
  0
ACAD_PROXY_OBJECT
  5
37
102
{ACAD_REACTORS
330
2A
102
}
330
2A
100
AcDbProxyObject
 90
      499
 91
      501
 93
      412
310
41D51A1A58DAD95B90D409028333333333333E3BF0000000000000FB010790141107004050150C41D405064090741402480A0350
1001
ACAD
1000
AcDbSavedByObjectVersion
1070
     0
  0
XRECORD
  5
7D
102
{ACAD_REACTORS
330
74
102
}
330
74
100
AcDbXrecord
 90
        0
  0
XRECORD
  5
93
102
{ACAD_REACTORS
330
74
102
}
330
74
100
AcDbXrecord
1000
DSTYLE
1002
{
1070
   340
340
11
1002
}
  0
XRECORD
  5
7E
102
{ACAD_REACTORS
330
74
102
}
330
74
100
AcDbXrecord
  1
{4794B8B1-ECE2-43B8-876F-83B9B69ED235}
  0
XRECORD
  5
77
102
{ACAD_REACTORS
330
74
102
}
330
74
100
AcDbXrecord
  1

  0
XRECORD
  5
7C
102
{ACAD_REACTORS
330
74
102
}
330
74
100
AcDbXrecord
 90
        4
  0
XRECORD
  5
79
102
{ACAD_REACTORS
330
74
102
}
330
74
100
AcDbXrecord
340
1A
  0
XRECORD
  5
7B
102
{ACAD_REACTORS
330
74
102
}
330
74
100
AcDbXrecord
 90
    10781
  0
XRECORD
  5
7A
102
{ACAD_REACTORS
330
74
102
}
330
74
100
AcDbXrecord
340
19
  0
XRECORD
  5
80
102
{ACAD_REACTORS
330
74
102
}
330
74
100
AcDbXrecord
 40
0.0
  0
XRECORD
  5
83
102
{ACAD_REACTORS
330
74
102
}
330
74
100
AcDbXrecord
340
0
  0
XRECORD
  5
89
102
{ACAD_REACTORS
330
74
102
}
330
74
100
AcDbXrecord
 10
0.0
 20
0.0
 30
0.0
  0
XRECORD
  5
85
102
{ACAD_REACTORS
330
74
102
}
330
74
100
AcDbXrecord
 10
0.0
 20
0.0
 30
0.0
  0
XRECORD
  5
88
102
{ACAD_REACTORS
330
74
102
}
330
74
100
AcDbXrecord
 10
0.0
 20
0.0
 30
0.0
  0
XRECORD
  5
86
102
{ACAD_REACTORS
330
74
102
}
330
74
100
AcDbXrecord
 10
0.0
 20
0.0
 30
0.0
  0
XRECORD
  5
87
102
{ACAD_REACTORS
330
74
102
}
330
74
100
AcDbXrecord
 10
0.0
 20
0.0
 30
0.0
  0
XRECORD
  5
84
102
{ACAD_REACTORS
330
74
102
}
330
74
100
AcDbXrecord
 10
0.0
 20
0.0
 30
0.0
  0
XRECORD
  5
81
102
{ACAD_REACTORS
330
74
102
}
330
74
100
AcDbXrecord
340
0
  0
XRECORD
  5
82
102
{ACAD_REACTORS
330
74
102
}
330
74
100
AcDbXrecord
 70
     0
  0
XRECORD
  5
78
102
{ACAD_REACTORS
330
74
102
}
330
74
100
AcDbXrecord
  1

  0
XRECORD
  5
75
102
{ACAD_REACTORS
330
74
102
}
330
74
100
AcDbXrecord
 90
        1
  0
XRECORD
  5
76
102
{ACAD_REACTORS
330
74
102
}
330
74
100
AcDbXrecord
 90
       70
  0
XRECORD
  5
8C
102
{ACAD_REACTORS
330
74
102
}
330
74
100
AcDbXrecord
340
0
  0
XRECORD
  5
92
102
{ACAD_REACTORS
330
74
102
}
330
74
100
AcDbXrecord
 10
0.0
 20
0.0
 30
0.0
  0
XRECORD
  5
8E
102
{ACAD_REACTORS
330
74
102
}
330
74
100
AcDbXrecord
 10
0.0
 20
0.0
 30
0.0
  0
XRECORD
  5
91
102
{ACAD_REACTORS
330
74
102
}
330
74
100
AcDbXrecord
 10
0.0
 20
0.0
 30
0.0
  0
XRECORD
  5
8F
102
{ACAD_REACTORS
330
74
102
}
330
74
100
AcDbXrecord
 10
0.0
 20
0.0
 30
0.0
  0
XRECORD
  5
90
102
{ACAD_REACTORS
330
74
102
}
330
74
100
AcDbXrecord
 10
0.0
 20
0.0
 30
0.0
  0
XRECORD
  5
8D
102
{ACAD_REACTORS
330
74
102
}
330
74
100
AcDbXrecord
 10
0.0
 20
0.0
 30
0.0
  0
XRECORD
  5
8A
102
{ACAD_REACTORS
330
74
102
}
330
74
100
AcDbXrecord
340
0
  0
XRECORD
  5
8B
102
{ACAD_REACTORS
330
74
102
}
330
74
100
AcDbXrecord
 70
     0
  0
XRECORD
  5
7F
102
{ACAD_REACTORS
330
74
102
}
330
74
100
AcDbXrecord
  1
{FAEB1C32-E019-11D5-929B-00C0DF256EC4}
  0
DICTIONARYVAR
  5
97
102
{ACAD_REACTORS
330
94
102
}
330
94
100
DictionaryVariables
280
     0
  1
2
  0
DICTIONARYVAR
  5
98
102
{ACAD_REACTORS
330
94
102
}
330
94
100
DictionaryVariables
280
     0
  1
1
  0
DICTIONARY
  5
9B
330
3D
100
AcDbDictionary
280
     1
  3
ACAD_XREC_ROUNDTRIP
360
9C
  0
DICTIONARY
  5
99
330
3C
100
AcDbDictionary
280
     1
  3
ACAD_XREC_ROUNDTRIP
360
9A
  0
DICTIONARY
  5
9D
330
3E
100
AcDbDictionary
280
     1
  3
ACAD_XREC_ROUNDTRIP
360
9E
  0
XRECORD
  5
9C
102
{ACAD_REACTORS
330
9B
102
}
330
9B
100
AcDbXrecord
102
MATERIAL
148
0.0
149
0.0
149
0.0
 93
        0
 94
      127
282
     0
 72
     1
 77
     1
171
     1
175
     1
179
     1
273
     0
  0
XRECORD
  5
9A
102
{ACAD_REACTORS
330
99
102
}
330
99
100
AcDbXrecord
102
MATERIAL
148
0.0
149
0.0
149
0.0
 93
        0
 94
      127
282
     0
 72
     1
 77
     1
171
     1
175
     1
179
     1
273
     0
  0
XRECORD
  5
9E
102
{ACAD_REACTORS
330
9D
102
}
330
9D
100
AcDbXrecord
102
MATERIAL
148
0.0
149
0.0
149
0.0
 93
        0
 94
      127
282
     0
 72
     1
 77
     1
171
     1
175
     1
179
     1
273
     0
  0
ENDSEC
  0
EOF
