  0
SECTION
  2
HEADER
  9
$ACADVER
  1
AC1014
  9
$ACADMAINTVER
 70
     9
  9
$DWGCODEPAGE
  3
ANSI_1250
  9
$INSBASE
 10
0.0
 20
0.0
 30
0.0
  9
$EXTMIN
 10
-52.1041
 20
-15.3558
 30
0.0
  9
$EXTMAX
 10
52.2461
 20
15.3555
 30
0.0
  9
$LIMMIN
 10
0.0
 20
0.0
  9
$LIMMAX
 10
12.0
 20
9.0
  9
$ORTHOMODE
 70
     0
  9
$REGENMODE
 70
     1
  9
$FILLMODE
 70
     1
  9
$QTEXTMODE
 70
     0
  9
$MIRRTEXT
 70
     1
  9
$DRAGMODE
 70
     2
  9
$LTSCALE
 40
1.0
  9
$OSMODE
 70
    37
  9
$ATTMODE
 70
     1
  9
$TEXTSIZE
 40
0.2
  9
$TRACEWID
 40
0.05
  9
$TEXTSTYLE
  7
STANDARD
  9
$CLAYER
  8
0
  9
$CELTYPE
  6
BYLAYER
  9
$CECOLOR
 62
   256
  9
$CELTSCALE
 40
1.0
  9
$DELOBJ
 70
     1
  9
$DISPSILH
 70
     0
  9
$DIMSCALE
 40
1.0
  9
$DIMASZ
 40
0.18
  9
$DIMEXO
 40
0.0625
  9
$DIMDLI
 40
0.38
  9
$DIMRND
 40
0.0
  9
$DIMDLE
 40
0.0
  9
$DIMEXE
 40
0.18
  9
$DIMTP
 40
0.0
  9
$DIMTM
 40
0.0
  9
$DIMTXT
 40
0.18
  9
$DIMCEN
 40
0.09
  9
$DIMTSZ
 40
0.0
  9
$DIMTOL
 70
     0
  9
$DIMLIM
 70
     0
  9
$DIMTIH
 70
     1
  9
$DIMTOH
 70
     1
  9
$DIMSE1
 70
     0
  9
$DIMSE2
 70
     0
  9
$DIMTAD
 70
     0
  9
$DIMZIN
 70
     0
  9
$DIMBLK
  1

  9
$DIMASO
 70
     1
  9
$DIMSHO
 70
     1
  9
$DIMPOST
  1

  9
$DIMAPOST
  1

  9
$DIMALT
 70
     0
  9
$DIMALTD
 70
     2
  9
$DIMALTF
 40
25.4
  9
$DIMLFAC
 40
1.0
  9
$DIMTOFL
 70
     0
  9
$DIMTVP
 40
0.0
  9
$DIMTIX
 70
     0
  9
$DIMSOXD
 70
     0
  9
$DIMSAH
 70
     0
  9
$DIMBLK1
  1

  9
$DIMBLK2
  1

  9
$DIMSTYLE
  2
STANDARD
  9
$DIMCLRD
 70
     0
  9
$DIMCLRE
 70
     0
  9
$DIMCLRT
 70
     0
  9
$DIMTFAC
 40
1.0
  9
$DIMGAP
 40
0.09
  9
$DIMJUST
 70
     0
  9
$DIMSD1
 70
     0
  9
$DIMSD2
 70
     0
  9
$DIMTOLJ
 70
     1
  9
$DIMTZIN
 70
     0
  9
$DIMALTZ
 70
     0
  9
$DIMALTTZ
 70
     0
  9
$DIMFIT
 70
     3
  9
$DIMUPT
 70
     0
  9
$DIMUNIT
 70
     2
  9
$DIMDEC
 70
     4
  9
$DIMTDEC
 70
     4
  9
$DIMALTU
 70
     2
  9
$DIMALTTD
 70
     2
  9
$DIMTXSTY
  7
STANDARD
  9
$DIMAUNIT
 70
     0
  9
$LUNITS
 70
     2
  9
$LUPREC
 70
     4
  9
$SKETCHINC
 40
0.1
  9
$FILLETRAD
 40
0.5
  9
$AUNITS
 70
     0
  9
$AUPREC
 70
     0
  9
$MENU
  1
.
  9
$ELEVATION
 40
0.0
  9
$PELEVATION
 40
0.0
  9
$THICKNESS
 40
0.0
  9
$LIMCHECK
 70
     0
  9
$CHAMFERA
 40
0.5
  9
$CHAMFERB
 40
0.5
  9
$CHAMFERC
 40
1.0
  9
$CHAMFERD
 40
0.0
  9
$SKPOLY
 70
     0
  9
$TDCREATE
 40
2456272.362028114
  9
$TDUPDATE
 40
2456272.362028125
  9
$TDINDWG
 40
0.0000000116
  9
$TDUSRTIMER
 40
0.0000000116
  9
$USRTIMER
 70
     1
  9
$ANGBASE
 50
0.0
  9
$ANGDIR
 70
     0
  9
$PDMODE
 70
     0
  9
$PDSIZE
 40
0.0
  9
$PLINEWID
 40
0.0
  9
$COORDS
 70
     1
  9
$SPLFRAME
 70
     0
  9
$SPLINETYPE
 70
     6
  9
$SPLINESEGS
 70
     8
  9
$ATTDIA
 70
     0
  9
$ATTREQ
 70
     1
  9
$HANDLING
 70
     1
  9
$HANDSEED
  5
E1
  9
$SURFTAB1
 70
     6
  9
$SURFTAB2
 70
     6
  9
$SURFTYPE
 70
     6
  9
$SURFU
 70
     6
  9
$SURFV
 70
     6
  9
$UCSNAME
  2

  9
$UCSORG
 10
0.0
 20
0.0
 30
0.0
  9
$UCSXDIR
 10
1.0
 20
0.0
 30
0.0
  9
$UCSYDIR
 10
0.0
 20
1.0
 30
0.0
  9
$PUCSNAME
  2

  9
$PUCSORG
 10
0.0
 20
0.0
 30
0.0
  9
$PUCSXDIR
 10
1.0
 20
0.0
 30
0.0
  9
$PUCSYDIR
 10
0.0
 20
1.0
 30
0.0
  9
$USERI1
 70
     0
  9
$USERI2
 70
     0
  9
$USERI3
 70
     0
  9
$USERI4
 70
     0
  9
$USERI5
 70
     0
  9
$USERR1
 40
0.0
  9
$USERR2
 40
0.0
  9
$USERR3
 40
0.0
  9
$USERR4
 40
0.0
  9
$USERR5
 40
0.0
  9
$WORLDVIEW
 70
     1
  9
$SHADEDGE
 70
     3
  9
$SHADEDIF
 70
    70
  9
$TILEMODE
 70
     1
  9
$MAXACTVP
 70
    64
  9
$PINSBASE
 10
0.0
 20
0.0
 30
0.0
  9
$PLIMCHECK
 70
     0
  9
$PEXTMIN
 10
1.000000000000000E+20
 20
1.000000000000000E+20
 30
1.000000000000000E+20
  9
$PEXTMAX
 10
-1.000000000000000E+20
 20
-1.000000000000000E+20
 30
-1.000000000000000E+20
  9
$PLIMMIN
 10
0.0
 20
0.0
  9
$PLIMMAX
 10
12.0
 20
9.0
  9
$UNITMODE
 70
     0
  9
$VISRETAIN
 70
     1
  9
$PLINEGEN
 70
     0
  9
$PSLTSCALE
 70
     1
  9
$TREEDEPTH
 70
  3020
  9
$PICKSTYLE
 70
     1
  9
$CMLSTYLE
  2
STANDARD
  9
$CMLJUST
 70
     0
  9
$CMLSCALE
 40
1.0
  9
$PROXYGRAPHICS
 70
     1
  9
$MEASUREMENT
 70
     0
  0
ENDSEC
  0
SECTION
  2
CLASSES
  0
CLASS
  1
ACDBDICTIONARYWDFLT
  2
AcDbDictionaryWithDefault
  3
ObjectDBX Classes
 90
        0
280
     0
281
     0
  0
CLASS
  1
VISUALSTYLE
  2
AcDbVisualStyle
  3
ObjectDBX Classes
 90
     4095
280
     0
281
     0
  0
CLASS
  1
MATERIAL
  2
AcDbMaterial
  3
ObjectDBX Classes
 90
     1153
280
     0
281
     0
  0
CLASS
  1
DICTIONARYVAR
  2
AcDbDictionaryVar
  3
ObjectDBX Classes
 90
        0
280
     0
281
     0
  0
CLASS
  1
XRECORD
  2
AcDbXrecord
  3
AutoCAD 2000
 90
        0
280
     0
281
     0
  0
CLASS
  1
LWPOLYLINE
  2
AcDbPolyline
  3
AutoCAD 2000
 90
        0
280
     0
281
     1
  0
CLASS
  1
HATCH
  2
AcDbHatch
  3
AutoCAD 2000
 90
        0
280
     0
281
     1
  0
CLASS
  1
ACDBPLACEHOLDER
  2
AcDbPlaceHolder
  3
ObjectDBX Classes
 90
        0
280
     0
281
     0
  0
CLASS
  1
LAYOUT
  2
AcDbLayout
  3
ObjectDBX Classes
 90
        0
280
     0
281
     0
  0
ENDSEC
  0
SECTION
  2
TABLES
  0
TABLE
  2
VPORT
  5
8
330
0
100
AcDbSymbolTable
 70
     1
  0
VPORT
  5
29
330
8
100
AcDbSymbolTableRecord
100
AcDbViewportTableRecord
  2
*ACTIVE
 70
     0
 10
0.0
 20
0.0
 11
1.0
 21
1.0
 12
10.42990654205607
 22
4.5
 13
0.0
 23
0.0
 14
0.5
 24
0.5
 15
0.5
 25
0.5
 16
0.0
 26
0.0
 36
1.0
 17
0.0
 27
0.0
 37
0.0
 40
9.0
 41
1.972972972850329
 42
50.0
 43
0.0
 44
0.0
 50
0.0
 51
0.0
 71
     0
 72
   100
 73
     1
 74
     3
 75
     0
 76
     0
 77
     0
 78
     0
  0
ENDTAB
  0
TABLE
  2
LTYPE
  5
5
330
0
100
AcDbSymbolTable
 70
     2
  0
LTYPE
  5
14
330
5
100
AcDbSymbolTableRecord
100
AcDbLinetypeTableRecord
  2
BYBLOCK
 70
     0
  3

 72
    65
 73
     0
 40
0.0
  0
LTYPE
  5
15
330
5
100
AcDbSymbolTableRecord
100
AcDbLinetypeTableRecord
  2
BYLAYER
 70
     0
  3

 72
    65
 73
     0
 40
0.0
  0
LTYPE
  5
16
330
5
100
AcDbSymbolTableRecord
100
AcDbLinetypeTableRecord
  2
CONTINUOUS
 70
     0
  3
Solid line
 72
    65
 73
     0
 40
0.0
  0
LTYPE
  5
6E
330
5
100
AcDbSymbolTableRecord
100
AcDbLinetypeTableRecord
  2
NEW_LINE1
 70
     0
  3

 72
    65
 73
     4
 40
1.2
 49
0.5
 74
     4
 75
     0
340
0
 46
1.0
 50
0.0
 44
0.0
 45
0.0
 49
-0.3
 74
     4
 75
     0
340
0
 46
1.0
 50
0.0
 44
0.0
 45
0.0
 49
0.1
 74
     4
 75
     0
340
0
 46
1.0
 50
0.0
 44
0.0
 45
0.0
 49
-0.3
 74
     4
 75
     0
340
0
 46
1.0
 50
0.0
 44
0.0
 45
0.0
  0
ENDTAB
  0
TABLE
  2
LAYER
  5
2
330
0
100
AcDbSymbolTable
 70
     2
  0
LAYER
  5
10
330
2
100
AcDbSymbolTableRecord
100
AcDbLayerTableRecord
  2
0
 70
     0
 62
     7
  6
CONTINUOUS
  0
LAYER
  5
40
330
2
100
AcDbSymbolTableRecord
100
AcDbLayerTableRecord
  2
VRSTVA_1
 70
     0
 62
     7
  6
CONTINUOUS
  0
ENDTAB
  0
TABLE
  2
STYLE
  5
3
330
0
100
AcDbSymbolTable
 70
     1
  0
STYLE
  5
11
330
3
100
AcDbSymbolTableRecord
100
AcDbTextStyleTableRecord
  2
STANDARD
 70
     0
 40
0.0
 41
1.0
 50
0.0
 71
     0
 42
0.2
  3
txt
  4

  0
ENDTAB
  0
TABLE
  2
VIEW
  5
6
330
0
100
AcDbSymbolTable
 70
     0
  0
ENDTAB
  0
TABLE
  2
UCS
  5
7
330
0
100
AcDbSymbolTable
 70
     0
  0
ENDTAB
  0
TABLE
  2
APPID
  5
9
330
0
100
AcDbSymbolTable
 70
     2
  0
APPID
  5
12
330
9
100
AcDbSymbolTableRecord
100
AcDbRegAppTableRecord
  2
ACAD
 70
     0
  0
APPID
  5
3F
330
9
100
AcDbSymbolTableRecord
100
AcDbRegAppTableRecord
  2
ODA
 70
     0
  0
ENDTAB
  0
TABLE
  2
DIMSTYLE
  5
A
330
0
100
AcDbSymbolTable
 70
     1
  0
DIMSTYLE
105
27
330
A
100
AcDbSymbolTableRecord
100
AcDbDimStyleTableRecord
  2
STANDARD
 70
     0
  3

  4

  5

  6

  7

 40
1.0
 41
0.18
 42
0.0625
 43
0.38
 44
0.18
 45
0.0
 46
0.0
 47
0.0
 48
0.0
140
0.18
141
0.09
142
0.0
143
25.4
144
1.0
145
0.0
146
1.0
147
0.09
 71
     0
 72
     0
 73
     1
 74
     1
 75
     0
 76
     0
 77
     0
 78
     0
170
     0
171
     2
172
     0
173
     0
174
     0
175
     0
176
     0
177
     0
178
     0
270
     2
271
     4
272
     4
273
     2
274
     2
340
11
275
     0
280
     0
281
     0
282
     0
283
     1
284
     0
285
     0
286
     0
287
     3
288
     0
  0
ENDTAB
  0
TABLE
  2
BLOCK_RECORD
  5
1
330
0
100
AcDbSymbolTable
 70
     1
  0
BLOCK_RECORD
  5
1F
330
1
100
AcDbSymbolTableRecord
100
AcDbBlockTableRecord
  2
*MODEL_SPACE
  0
BLOCK_RECORD
  5
1B
330
1
100
AcDbSymbolTableRecord
100
AcDbBlockTableRecord
  2
*PAPER_SPACE
  0
ENDTAB
  0
ENDSEC
  0
SECTION
  2
BLOCKS
  0
BLOCK
  5
20
330
1F
100
AcDbEntity
  8
0
100
AcDbBlockBegin
  2
*MODEL_SPACE
 70
     0
 10
0.0
 20
0.0
 30
0.0
  3
*MODEL_SPACE
  1

  0
ENDBLK
  5
21
330
1F
100
AcDbEntity
  8
0
100
AcDbBlockEnd
  0
BLOCK
  5
1C
330
1B
100
AcDbEntity
 67
     1
  8
0
100
AcDbBlockBegin
  2
*PAPER_SPACE
 70
     0
 10
0.0
 20
0.0
 30
0.0
  3
*PAPER_SPACE
  1

  0
ENDBLK
  5
1D
330
1B
100
AcDbEntity
 67
     1
  8
0
100
AcDbBlockEnd
  0
ENDSEC
  0
SECTION
  2
ENTITIES
  0
SPLINE
  5
41
330
1F
100
AcDbEntity
  8
VRSTVA_1
 62
   250
100
AcDbSpline
210
0.0
220
0.0
230
1.0
 70
    24
 71
     3
 72
     8
 73
     4
 74
     0
 42
0.0000000001
 43
0.0000000001
 40
0.0
 40
0.0
 40
0.0
 40
0.0
 40
1.0
 40
1.0
 40
1.0
 40
1.0
 10
-49.451
 20
-8.7682
 30
0.0
 10
-49.451
 20
-8.7682
 30
0.0
 10
-49.451
 20
15.3555
 30
0.0
 10
-49.451
 20
15.3555
 30
0.0
  0
SPLINE
  5
42
330
1F
100
AcDbEntity
  8
VRSTVA_1
 62
   250
100
AcDbSpline
210
0.0
220
0.0
230
1.0
 70
    27
 71
     3
 72
    12
 73
     8
 74
     0
 42
0.0000000001
 43
0.0000000001
 40
0.0
 40
0.0
 40
0.0
 40
0.0
 40
0.3333333333333333
 40
0.3333333333333333
 40
0.3333333333333333
 40
0.3333333333333333
 40
1.0
 40
1.0
 40
1.0
 40
1.0
 10
50.6664
 20
-14.6974
 30
0.0
 10
50.6664
 20
-14.6974
 30
0.0
 10
-44.4442
 20
-14.6974
 30
0.0
 10
-44.4442
 20
-14.6974
 30
0.0
 10
-44.4442
 20
-14.6974
 30
0.0
 10
-44.4442
 20
-14.6974
 30
0.0
 10
50.6664
 20
-14.6974
 30
0.0
 10
50.6664
 20
-14.6974
 30
0.0
  0
SPLINE
  5
43
330
1F
100
AcDbEntity
  8
VRSTVA_1
 62
   250
100
AcDbSpline
210
0.0
220
0.0
230
1.0
 70
    11
 71
     3
 72
    20
 73
    16
 74
     0
 42
0.0000000001
 43
0.0000000001
 40
0.0
 40
0.0
 40
0.0
 40
0.0
 40
0.2
 40
0.2
 40
0.2
 40
0.2
 40
0.4
 40
0.4
 40
0.4
 40
0.4
 40
0.6
 40
0.6
 40
0.6
 40
0.6
 40
1.0
 40
1.0
 40
1.0
 40
1.0
 10
-49.9311
 20
-7.6923
 30
0.0
 10
-49.9311
 20
-7.6923
 30
0.0
 10
-49.5079
 20
-4.6923
 30
0.0
 10
-49.5079
 20
-4.6923
 30
0.0
 10
-49.5079
 20
-4.6923
 30
0.0
 10
-49.5079
 20
-4.6923
 30
0.0
 10
-49.4138
 20
-4.6923
 30
0.0
 10
-49.4138
 20
-4.6923
 30
0.0
 10
-49.4138
 20
-4.6923
 30
0.0
 10
-49.4138
 20
-4.6923
 30
0.0
 10
-48.9624
 20
-7.6923
 30
0.0
 10
-48.9624
 20
-7.6923
 30
0.0
 10
-48.9624
 20
-7.6923
 30
0.0
 10
-48.9624
 20
-7.6923
 30
0.0
 10
-49.9311
 20
-7.6923
 30
0.0
 10
-49.9311
 20
-7.6923
 30
0.0
  0
SPLINE
  5
44
330
1F
100
AcDbEntity
  8
VRSTVA_1
 62
   250
100
AcDbSpline
210
0.0
220
0.0
230
1.0
 70
    11
 71
     3
 72
   124
 73
   120
 74
     0
 42
0.0000000001
 43
0.0000000001
 40
0.0
 40
0.0
 40
0.0
 40
0.0
 40
0.032258064516129
 40
0.032258064516129
 40
0.032258064516129
 40
0.032258064516129
 40
0.0645161290322581
 40
0.0645161290322581
 40
0.0645161290322581
 40
0.0645161290322581
 40
0.0967741935483871
 40
0.0967741935483871
 40
0.0967741935483871
 40
0.0967741935483871
 40
0.1290322580645161
 40
0.1290322580645161
 40
0.1290322580645161
 40
0.1290322580645161
 40
0.1612903225806452
 40
0.1612903225806452
 40
0.1612903225806452
 40
0.1612903225806452
 40
0.1935483870967742
 40
0.1935483870967742
 40
0.1935483870967742
 40
0.1935483870967742
 40
0.2258064516129032
 40
0.2258064516129032
 40
0.2258064516129032
 40
0.2258064516129032
 40
0.2580645161290323
 40
0.2580645161290323
 40
0.2580645161290323
 40
0.2580645161290323
 40
0.2903225806451613
 40
0.2903225806451613
 40
0.2903225806451613
 40
0.2903225806451613
 40
0.3225806451612903
 40
0.3225806451612903
 40
0.3225806451612903
 40
0.3225806451612903
 40
0.3548387096774194
 40
0.3548387096774194
 40
0.3548387096774194
 40
0.3548387096774194
 40
0.3870967741935484
 40
0.3870967741935484
 40
0.3870967741935484
 40
0.3870967741935484
 40
0.4193548387096774
 40
0.4193548387096774
 40
0.4193548387096774
 40
0.4193548387096774
 40
0.4516129032258064
 40
0.4516129032258064
 40
0.4516129032258064
 40
0.4516129032258064
 40
0.4838709677419355
 40
0.4838709677419355
 40
0.4838709677419355
 40
0.4838709677419355
 40
0.5161290322580645
 40
0.5161290322580645
 40
0.5161290322580645
 40
0.5161290322580645
 40
0.5483870967741935
 40
0.5483870967741935
 40
0.5483870967741935
 40
0.5483870967741935
 40
0.5806451612903226
 40
0.5806451612903226
 40
0.5806451612903226
 40
0.5806451612903226
 40
0.6129032258064516
 40
0.6129032258064516
 40
0.6129032258064516
 40
0.6129032258064516
 40
0.6451612903225806
 40
0.6451612903225806
 40
0.6451612903225806
 40
0.6451612903225806
 40
0.6774193548387096
 40
0.6774193548387096
 40
0.6774193548387096
 40
0.6774193548387096
 40
0.7096774193548387
 40
0.7096774193548387
 40
0.7096774193548387
 40
0.7096774193548387
 40
0.7419354838709677
 40
0.7419354838709677
 40
0.7419354838709677
 40
0.7419354838709677
 40
0.7741935483870968
 40
0.7741935483870968
 40
0.7741935483870968
 40
0.7741935483870968
 40
0.8064516129032258
 40
0.8064516129032258
 40
0.8064516129032258
 40
0.8064516129032258
 40
0.8387096774193549
 40
0.8387096774193549
 40
0.8387096774193549
 40
0.8387096774193549
 40
0.8709677419354839
 40
0.8709677419354839
 40
0.8709677419354839
 40
0.8709677419354839
 40
0.9032258064516129
 40
0.9032258064516129
 40
0.9032258064516129
 40
0.9032258064516129
 40
0.9354838709677419
 40
0.9354838709677419
 40
0.9354838709677419
 40
0.9354838709677419
 40
1.0
 40
1.0
 40
1.0
 40
1.0
 10
-4.6468
 20
-13.4566
 30
0.0
 10
-4.6468
 20
-13.4566
 30
0.0
 10
-4.3989
 20
-13.4237
 30
0.0
 10
-4.3989
 20
-13.4237
 30
0.0
 10
-4.3989
 20
-13.4237
 30
0.0
 10
-4.3702
 20
-13.5643
 30
0.0
 10
-4.3217
 20
-13.6654
 30
0.0
 10
-4.2535
 20
-13.7275
 30
0.0
 10
-4.2535
 20
-13.7275
 30
0.0
 10
-4.1849
 20
-13.7896
 30
0.0
 10
-4.1016
 20
-13.8207
 30
0.0
 10
-4.0033
 20
-13.8207
 30
0.0
 10
-4.0033
 20
-13.8207
 30
0.0
 10
-3.8867
 20
-13.8207
 30
0.0
 10
-3.7879
 20
-13.7802
 30
0.0
 10
-3.7074
 20
-13.6993
 30
0.0
 10
-3.7074
 20
-13.6993
 30
0.0
 10
-3.6275
 20
-13.6184
 30
0.0
 10
-3.587
 20
-13.5182
 30
0.0
 10
-3.587
 20
-13.3987
 30
0.0
 10
-3.587
 20
-13.3987
 30
0.0
 10
-3.587
 20
-13.2849
 30
0.0
 10
-3.6242
 20
-13.1908
 30
0.0
 10
-3.6985
 20
-13.117
 30
0.0
 10
-3.6985
 20
-13.117
 30
0.0
 10
-3.7733
 20
-13.0432
 30
0.0
 10
-3.8678
 20
-13.006
 30
0.0
 10
-3.9826
 20
-13.006
 30
0.0
 10
-3.9826
 20
-13.006
 30
0.0
 10
-4.0296
 20
-13.006
 30
0.0
 10
-4.088
 20
-13.0154
 30
0.0
 10
-4.1576
 20
-13.0337
 30
0.0
 10
-4.1576
 20
-13.0337
 30
0.0
 10
-4.1576
 20
-13.0337
 30
0.0
 10
-4.1298
 20
-12.816
 30
0.0
 10
-4.1298
 20
-12.816
 30
0.0
 10
-4.1298
 20
-12.816
 30
0.0
 10
-4.1134
 20
-12.8178
 30
0.0
 10
-4.1002
 20
-12.8188
 30
0.0
 10
-4.0899
 20
-12.8188
 30
0.0
 10
-4.0899
 20
-12.8188
 30
0.0
 10
-3.9845
 20
-12.8188
 30
0.0
 10
-3.8895
 20
-12.791
 30
0.0
 10
-3.8048
 20
-12.736
 30
0.0
 10
-3.8048
 20
-12.736
 30
0.0
 10
-3.7201
 20
-12.681
 30
0.0
 10
-3.6778
 20
-12.5958
 30
0.0
 10
-3.6778
 20
-12.4811
 30
0.0
 10
-3.6778
 20
-12.4811
 30
0.0
 10
-3.6778
 20
-12.3903
 30
0.0
 10
-3.7089
 20
-12.3146
 30
0.0
 10
-3.7705
 20
-12.2553
 30
0.0
 10
-3.7705
 20
-12.2553
 30
0.0
 10
-3.8321
 20
-12.1956
 30
0.0
 10
-3.9116
 20
-12.1654
 30
0.0
 10
-4.009
 20
-12.1654
 30
0.0
 10
-4.009
 20
-12.1654
 30
0.0
 10
-4.1054
 20
-12.1654
 30
0.0
 10
-4.1858
 20
-12.196
 30
0.0
 10
-4.2498
 20
-12.2562
 30
0.0
 10
-4.2498
 20
-12.2562
 30
0.0
 10
-4.3142
 20
-12.3169
 30
0.0
 10
-4.3556
 20
-12.4082
 30
0.0
 10
-4.374
 20
-12.5295
 30
0.0
 10
-4.374
 20
-12.5295
 30
0.0
 10
-4.374
 20
-12.5295
 30
0.0
 10
-4.6218
 20
-12.4853
 30
0.0
 10
-4.6218
 20
-12.4853
 30
0.0
 10
-4.6218
 20
-12.4853
 30
0.0
 10
-4.5917
 20
-12.3188
 30
0.0
 10
-4.5226
 20
-12.1899
 30
0.0
 10
-4.4153
 20
-12.0987
 30
0.0
 10
-4.4153
 20
-12.0987
 30
0.0
 10
-4.3076
 20
-12.0074
 30
0.0
 10
-4.174
 20
-11.9613
 30
0.0
 10
-4.0141
 20
-11.9613
 30
0.0
 10
-4.0141
 20
-11.9613
 30
0.0
 10
-3.9041
 20
-11.9613
 30
0.0
 10
-3.8025
 20
-11.9853
 30
0.0
 10
-3.7098
 20
-12.0323
 30
0.0
 10
-3.7098
 20
-12.0323
 30
0.0
 10
-3.6171
 20
-12.0798
 30
0.0
 10
-3.5461
 20
-12.1443
 30
0.0
 10
-3.4967
 20
-12.2261
 30
0.0
 10
-3.4967
 20
-12.2261
 30
0.0
 10
-3.4478
 20
-12.308
 30
0.0
 10
-3.4229
 20
-12.3945
 30
0.0
 10
-3.4229
 20
-12.4867
 30
0.0
 10
-3.4229
 20
-12.4867
 30
0.0
 10
-3.4229
 20
-12.5737
 30
0.0
 10
-3.4464
 20
-12.6532
 30
0.0
 10
-3.4934
 20
-12.7252
 30
0.0
 10
-3.4934
 20
-12.7252
 30
0.0
 10
-3.5405
 20
-12.7967
 30
0.0
 10
-3.6096
 20
-12.8536
 30
0.0
 10
-3.7013
 20
-12.8959
 30
0.0
 10
-3.7013
 20
-12.8959
 30
0.0
 10
-3.5819
 20
-12.9232
 30
0.0
 10
-3.4892
 20
-12.9806
 30
0.0
 10
-3.4229
 20
-13.0676
 30
0.0
 10
-3.4229
 20
-13.0676
 30
0.0
 10
-3.357
 20
-13.1542
 30
0.0
 10
-3.3241
 20
-13.2628
 30
0.0
 10
-3.3241
 20
-13.3931
 30
0.0
 10
-3.3241
 20
-13.3931
 30
0.0
 10
-3.3241
 20
-13.5695
 30
0.0
 10
-3.3881
 20
-13.7191
 30
0.0
 10
-3.5169
 20
-13.8418
 30
0.0
 10
-3.5169
 20
-13.8418
 30
0.0
 10
-3.6454
 20
-13.9646
 30
0.0
 10
-3.8081
 20
-14.0257
 30
0.0
 10
-4.0047
 20
-14.0257
 30
0.0
 10
-4.0047
 20
-14.0257
 30
0.0
 10
-4.182
 20
-14.0257
 30
0.0
 10
-4.3293
 20
-13.9731
 30
0.0
 10
-4.4464
 20
-13.8672
 30
0.0
 10
-4.4464
 20
-13.8672
 30
0.0
 10
-4.5635
 20
-13.7619
 30
0.0
 10
-4.6303
 20
-13.625
 30
0.0
 10
-4.6468
 20
-13.4566
 30
0.0
  0
SPLINE
  5
45
330
1F
100
AcDbEntity
  8
VRSTVA_1
 62
   250
100
AcDbSpline
210
0.0
220
0.0
230
1.0
 70
    11
 71
     3
 72
    92
 73
    88
 74
     0
 42
0.0000000001
 43
0.0000000001
 40
0.0
 40
0.0
 40
0.0
 40
0.0
 40
0.0434782608695652
 40
0.0434782608695652
 40
0.0434782608695652
 40
0.0434782608695652
 40
0.0869565217391304
 40
0.0869565217391304
 40
0.0869565217391304
 40
0.0869565217391304
 40
0.1304347826086956
 40
0.1304347826086956
 40
0.1304347826086956
 40
0.1304347826086956
 40
0.1739130434782609
 40
0.1739130434782609
 40
0.1739130434782609
 40
0.1739130434782609
 40
0.2173913043478261
 40
0.2173913043478261
 40
0.2173913043478261
 40
0.2173913043478261
 40
0.2608695652173913
 40
0.2608695652173913
 40
0.2608695652173913
 40
0.2608695652173913
 40
0.3043478260869565
 40
0.3043478260869565
 40
0.3043478260869565
 40
0.3043478260869565
 40
0.3478260869565217
 40
0.3478260869565217
 40
0.3478260869565217
 40
0.3478260869565217
 40
0.391304347826087
 40
0.391304347826087
 40
0.391304347826087
 40
0.391304347826087
 40
0.4347826086956522
 40
0.4347826086956522
 40
0.4347826086956522
 40
0.4347826086956522
 40
0.4782608695652174
 40
0.4782608695652174
 40
0.4782608695652174
 40
0.4782608695652174
 40
0.5217391304347826
 40
0.5217391304347826
 40
0.5217391304347826
 40
0.5217391304347826
 40
0.5652173913043478
 40
0.5652173913043478
 40
0.5652173913043478
 40
0.5652173913043478
 40
0.6086956521739131
 40
0.6086956521739131
 40
0.6086956521739131
 40
0.6086956521739131
 40
0.6521739130434783
 40
0.6521739130434783
 40
0.6521739130434783
 40
0.6521739130434783
 40
0.6956521739130435
 40
0.6956521739130435
 40
0.6956521739130435
 40
0.6956521739130435
 40
0.7391304347826086
 40
0.7391304347826086
 40
0.7391304347826086
 40
0.7391304347826086
 40
0.782608695652174
 40
0.782608695652174
 40
0.782608695652174
 40
0.782608695652174
 40
0.8260869565217391
 40
0.8260869565217391
 40
0.8260869565217391
 40
0.8260869565217391
 40
0.8695652173913043
 40
0.8695652173913043
 40
0.8695652173913043
 40
0.8695652173913043
 40
0.9130434782608695
 40
0.9130434782608695
 40
0.9130434782608695
 40
0.9130434782608695
 40
1.0
 40
1.0
 40
1.0
 40
1.0
 10
-3.0786
 20
-13.4608
 30
0.0
 10
-3.0786
 20
-13.4608
 30
0.0
 10
-2.818
 20
-13.4387
 30
0.0
 10
-2.818
 20
-13.4387
 30
0.0
 10
-2.818
 20
-13.4387
 30
0.0
 10
-2.7987
 20
-13.5657
 30
0.0
 10
-2.754
 20
-13.6607
 30
0.0
 10
-2.6839
 20
-13.7247
 30
0.0
 10
-2.6839
 20
-13.7247
 30
0.0
 10
-2.6134
 20
-13.7887
 30
0.0
 10
-2.5287
 20
-13.8207
 30
0.0
 10
-2.4295
 20
-13.8207
 30
0.0
 10
-2.4295
 20
-13.8207
 30
0.0
 10
-2.31
 20
-13.8207
 30
0.0
 10
-2.2089
 20
-13.7755
 30
0.0
 10
-2.1266
 20
-13.6857
 30
0.0
 10
-2.1266
 20
-13.6857
 30
0.0
 10
-2.0438
 20
-13.5954
 30
0.0
 10
-2.0024
 20
-13.4759
 30
0.0
 10
-2.0024
 20
-13.3273
 30
0.0
 10
-2.0024
 20
-13.3273
 30
0.0
 10
-2.0024
 20
-13.1857
 30
0.0
 10
-2.0419
 20
-13.0742
 30
0.0
 10
-2.1214
 20
-12.9924
 30
0.0
 10
-2.1214
 20
-12.9924
 30
0.0
 10
-2.2009
 20
-12.9105
 30
0.0
 10
-2.3048
 20
-12.8696
 30
0.0
 10
-2.4337
 20
-12.8696
 30
0.0
 10
-2.4337
 20
-12.8696
 30
0.0
 10
-2.5137
 20
-12.8696
 30
0.0
 10
-2.5856
 20
-12.8879
 30
0.0
 10
-2.6501
 20
-12.9241
 30
0.0
 10
-2.6501
 20
-12.9241
 30
0.0
 10
-2.7145
 20
-12.9604
 30
0.0
 10
-2.7648
 20
-13.0074
 30
0.0
 10
-2.8015
 20
-13.0653
 30
0.0
 10
-2.8015
 20
-13.0653
 30
0.0
 10
-2.8015
 20
-13.0653
 30
0.0
 10
-3.0344
 20
-13.0352
 30
0.0
 10
-3.0344
 20
-13.0352
 30
0.0
 10
-3.0344
 20
-13.0352
 30
0.0
 10
-3.0344
 20
-13.0352
 30
0.0
 10
-2.8387
 20
-11.9975
 30
0.0
 10
-2.8387
 20
-11.9975
 30
0.0
 10
-2.8387
 20
-11.9975
 30
0.0
 10
-2.8387
 20
-11.9975
 30
0.0
 10
-1.834
 20
-11.9975
 30
0.0
 10
-1.834
 20
-11.9975
 30
0.0
 10
-1.834
 20
-11.9975
 30
0.0
 10
-1.834
 20
-11.9975
 30
0.0
 10
-1.834
 20
-12.2346
 30
0.0
 10
-1.834
 20
-12.2346
 30
0.0
 10
-1.834
 20
-12.2346
 30
0.0
 10
-1.834
 20
-12.2346
 30
0.0
 10
-2.6402
 20
-12.2346
 30
0.0
 10
-2.6402
 20
-12.2346
 30
0.0
 10
-2.6402
 20
-12.2346
 30
0.0
 10
-2.6402
 20
-12.2346
 30
0.0
 10
-2.7493
 20
-12.7774
 30
0.0
 10
-2.7493
 20
-12.7774
 30
0.0
 10
-2.7493
 20
-12.7774
 30
0.0
 10
-2.628
 20
-12.6927
 30
0.0
 10
-2.5005
 20
-12.6504
 30
0.0
 10
-2.3674
 20
-12.6504
 30
0.0
 10
-2.3674
 20
-12.6504
 30
0.0
 10
-2.191
 20
-12.6504
 30
0.0
 10
-2.0424
 20
-12.7115
 30
0.0
 10
-1.921
 20
-12.8338
 30
0.0
 10
-1.921
 20
-12.8338
 30
0.0
 10
-1.7997
 20
-12.9561
 30
0.0
 10
-1.739
 20
-13.1132
 30
0.0
 10
-1.739
 20
-13.3051
 30
0.0
 10
-1.739
 20
-13.3051
 30
0.0
 10
-1.739
 20
-13.4881
 30
0.0
 10
-1.7926
 20
-13.6462
 30
0.0
 10
-1.8989
 20
-13.7793
 30
0.0
 10
-1.8989
 20
-13.7793
 30
0.0
 10
-2.0287
 20
-13.9425
 30
0.0
 10
-2.2056
 20
-14.0243
 30
0.0
 10
-2.4295
 20
-14.0243
 30
0.0
 10
-2.4295
 20
-14.0243
 30
0.0
 10
-2.6134
 20
-14.0243
 30
0.0
 10
-2.7634
 20
-13.9731
 30
0.0
 10
-2.8796
 20
-13.8701
 30
0.0
 10
-2.8796
 20
-13.8701
 30
0.0
 10
-2.9958
 20
-13.767
 30
0.0
 10
-3.0621
 20
-13.6306
 30
0.0
 10
-3.0786
 20
-13.4608
 30
0.0
  0
SPLINE
  5
46
330
1F
100
AcDbEntity
  8
VRSTVA_1
 62
   250
100
AcDbSpline
210
0.0
220
0.0
230
1.0
 70
    11
 71
     3
 72
    52
 73
    48
 74
     0
 42
0.0000000001
 43
0.0000000001
 40
0.0
 40
0.0
 40
0.0
 40
0.0
 40
0.0769230769230769
 40
0.0769230769230769
 40
0.0769230769230769
 40
0.0769230769230769
 40
0.1538461538461539
 40
0.1538461538461539
 40
0.1538461538461539
 40
0.1538461538461539
 40
0.2307692307692308
 40
0.2307692307692308
 40
0.2307692307692308
 40
0.2307692307692308
 40
0.3076923076923077
 40
0.3076923076923077
 40
0.3076923076923077
 40
0.3076923076923077
 40
0.3846153846153846
 40
0.3846153846153846
 40
0.3846153846153846
 40
0.3846153846153846
 40
0.4615384615384616
 40
0.4615384615384616
 40
0.4615384615384616
 40
0.4615384615384616
 40
0.5384615384615384
 40
0.5384615384615384
 40
0.5384615384615384
 40
0.5384615384615384
 40
0.6153846153846154
 40
0.6153846153846154
 40
0.6153846153846154
 40
0.6153846153846154
 40
0.6923076923076923
 40
0.6923076923076923
 40
0.6923076923076923
 40
0.6923076923076923
 40
0.7692307692307693
 40
0.7692307692307693
 40
0.7692307692307693
 40
0.7692307692307693
 40
0.8461538461538461
 40
0.8461538461538461
 40
0.8461538461538461
 40
0.8461538461538461
 40
1.0
 40
1.0
 40
1.0
 40
1.0
 10
-1.509
 20
-12.9938
 30
0.0
 10
-1.509
 20
-12.7548
 30
0.0
 10
-1.4845
 20
-12.5624
 30
0.0
 10
-1.4351
 20
-12.4171
 30
0.0
 10
-1.4351
 20
-12.4171
 30
0.0
 10
-1.3862
 20
-12.2713
 30
0.0
 10
-1.3128
 20
-12.1589
 30
0.0
 10
-1.2159
 20
-12.0798
 30
0.0
 10
-1.2159
 20
-12.0798
 30
0.0
 10
-1.119
 20
-12.0008
 30
0.0
 10
-0.9972
 20
-11.9613
 30
0.0
 10
-0.8505
 20
-11.9613
 30
0.0
 10
-0.8505
 20
-11.9613
 30
0.0
 10
-0.7418
 20
-11.9613
 30
0.0
 10
-0.6468
 20
-11.9834
 30
0.0
 10
-0.565
 20
-12.0272
 30
0.0
 10
-0.565
 20
-12.0272
 30
0.0
 10
-0.4831
 20
-12.0704
 30
0.0
 10
-0.4158
 20
-12.1335
 30
0.0
 10
-0.3622
 20
-12.2158
 30
0.0
 10
-0.3622
 20
-12.2158
 30
0.0
 10
-0.3091
 20
-12.2981
 30
0.0
 10
-0.2672
 20
-12.3983
 30
0.0
 10
-0.2371
 20
-12.5163
 30
0.0
 10
-0.2371
 20
-12.5163
 30
0.0
 10
-0.2065
 20
-12.6344
 30
0.0
 10
-0.1915
 20
-12.7934
 30
0.0
 10
-0.1915
 20
-12.9938
 30
0.0
 10
-0.1915
 20
-12.9938
 30
0.0
 10
-0.1915
 20
-13.2308
 30
0.0
 10
-0.2159
 20
-13.4218
 30
0.0
 10
-0.2644
 20
-13.5676
 30
0.0
 10
-0.2644
 20
-13.5676
 30
0.0
 10
-0.3133
 20
-13.7134
 30
0.0
 10
-0.3862
 20
-13.8258
 30
0.0
 10
-0.4831
 20
-13.9053
 30
0.0
 10
-0.4831
 20
-13.9053
 30
0.0
 10
-0.58
 20
-13.9848
 30
0.0
 10
-0.7023
 20
-14.0243
 30
0.0
 10
-0.8505
 20
-14.0243
 30
0.0
 10
-0.8505
 20
-14.0243
 30
0.0
 10
-1.0452
 20
-14.0243
 30
0.0
 10
-1.1981
 20
-13.9547
 30
0.0
 10
-1.3091
 20
-13.815
 30
0.0
 10
-1.3091
 20
-13.815
 30
0.0
 10
-1.4422
 20
-13.6471
 30
0.0
 10
-1.509
 20
-13.3729
 30
0.0
 10
-1.509
 20
-12.9938
 30
0.0
  0
SPLINE
  5
47
330
1F
100
AcDbEntity
  8
VRSTVA_1
 62
   250
100
AcDbSpline
210
0.0
220
0.0
230
1.0
 70
    11
 71
     3
 72
    36
 73
    32
 74
     0
 42
0.0000000001
 43
0.0000000001
 40
0.0
 40
0.0
 40
0.0
 40
0.0
 40
0.1111111111111111
 40
0.1111111111111111
 40
0.1111111111111111
 40
0.1111111111111111
 40
0.2222222222222222
 40
0.2222222222222222
 40
0.2222222222222222
 40
0.2222222222222222
 40
0.3333333333333333
 40
0.3333333333333333
 40
0.3333333333333333
 40
0.3333333333333333
 40
0.4444444444444444
 40
0.4444444444444444
 40
0.4444444444444444
 40
0.4444444444444444
 40
0.5555555555555556
 40
0.5555555555555556
 40
0.5555555555555556
 40
0.5555555555555556
 40
0.6666666666666666
 40
0.6666666666666666
 40
0.6666666666666666
 40
0.6666666666666666
 40
0.7777777777777778
 40
0.7777777777777778
 40
0.7777777777777778
 40
0.7777777777777778
 40
1.0
 40
1.0
 40
1.0
 40
1.0
 10
-1.254
 20
-12.9938
 30
0.0
 10
-1.254
 20
-13.3254
 30
0.0
 10
-1.215
 20
-13.546
 30
0.0
 10
-1.1374
 20
-13.656
 30
0.0
 10
-1.1374
 20
-13.656
 30
0.0
 10
-1.0598
 20
-13.7656
 30
0.0
 10
-0.9643
 20
-13.8207
 30
0.0
 10
-0.8505
 20
-13.8207
 30
0.0
 10
-0.8505
 20
-13.8207
 30
0.0
 10
-0.7362
 20
-13.8207
 30
0.0
 10
-0.6407
 20
-13.7652
 30
0.0
 10
-0.5631
 20
-13.6551
 30
0.0
 10
-0.5631
 20
-13.6551
 30
0.0
 10
-0.4855
 20
-13.545
 30
0.0
 10
-0.4464
 20
-13.3244
 30
0.0
 10
-0.4464
 20
-12.9938
 30
0.0
 10
-0.4464
 20
-12.9938
 30
0.0
 10
-0.4464
 20
-12.6612
 30
0.0
 10
-0.4855
 20
-12.4401
 30
0.0
 10
-0.5631
 20
-12.331
 30
0.0
 10
-0.5631
 20
-12.331
 30
0.0
 10
-0.6407
 20
-12.2214
 30
0.0
 10
-0.7371
 20
-12.1669
 30
0.0
 10
-0.8528
 20
-12.1669
 30
0.0
 10
-0.8528
 20
-12.1669
 30
0.0
 10
-0.9671
 20
-12.1669
 30
0.0
 10
-1.0579
 20
-12.2153
 30
0.0
 10
-1.1261
 20
-12.3117
 30
0.0
 10
-1.1261
 20
-12.3117
 30
0.0
 10
-1.2112
 20
-12.4345
 30
0.0
 10
-1.254
 20
-12.6622
 30
0.0
 10
-1.254
 20
-12.9938
 30
0.0
  0
SPLINE
  5
48
330
1F
100
AcDbEntity
  8
VRSTVA_1
 62
   250
100
AcDbSpline
210
0.0
220
0.0
230
1.0
 70
    11
 71
     3
 72
    20
 73
    16
 74
     0
 42
0.0000000001
 43
0.0000000001
 40
0.0
 40
0.0
 40
0.0
 40
0.0
 40
0.2
 40
0.2
 40
0.2
 40
0.2
 40
0.4
 40
0.4
 40
0.4
 40
0.4
 40
0.6
 40
0.6
 40
0.6
 40
0.6
 40
1.0
 40
1.0
 40
1.0
 40
1.0
 10
0.817
 20
-13.3837
 30
0.0
 10
0.817
 20
-13.3837
 30
0.0
 10
0.817
 20
-13.1344
 30
0.0
 10
0.817
 20
-13.1344
 30
0.0
 10
0.817
 20
-13.1344
 30
0.0
 10
0.817
 20
-13.1344
 30
0.0
 10
1.5794
 20
-13.1344
 30
0.0
 10
1.5794
 20
-13.1344
 30
0.0
 10
1.5794
 20
-13.1344
 30
0.0
 10
1.5794
 20
-13.1344
 30
0.0
 10
1.5794
 20
-13.3837
 30
0.0
 10
1.5794
 20
-13.3837
 30
0.0
 10
1.5794
 20
-13.3837
 30
0.0
 10
1.5794
 20
-13.3837
 30
0.0
 10
0.817
 20
-13.3837
 30
0.0
 10
0.817
 20
-13.3837
 30
0.0
  0
SPLINE
  5
49
330
1F
100
AcDbEntity
  8
VRSTVA_1
 62
   250
100
AcDbSpline
210
0.0
220
0.0
230
1.0
 70
    11
 71
     3
 72
    68
 73
    64
 74
     0
 42
0.0000000001
 43
0.0000000001
 40
0.0
 40
0.0
 40
0.0
 40
0.0
 40
0.0588235294117647
 40
0.0588235294117647
 40
0.0588235294117647
 40
0.0588235294117647
 40
0.1176470588235294
 40
0.1176470588235294
 40
0.1176470588235294
 40
0.1176470588235294
 40
0.1764705882352941
 40
0.1764705882352941
 40
0.1764705882352941
 40
0.1764705882352941
 40
0.2352941176470588
 40
0.2352941176470588
 40
0.2352941176470588
 40
0.2352941176470588
 40
0.2941176470588235
 40
0.2941176470588235
 40
0.2941176470588235
 40
0.2941176470588235
 40
0.3529411764705883
 40
0.3529411764705883
 40
0.3529411764705883
 40
0.3529411764705883
 40
0.4117647058823529
 40
0.4117647058823529
 40
0.4117647058823529
 40
0.4117647058823529
 40
0.4705882352941176
 40
0.4705882352941176
 40
0.4705882352941176
 40
0.4705882352941176
 40
0.5294117647058824
 40
0.5294117647058824
 40
0.5294117647058824
 40
0.5294117647058824
 40
0.5882352941176471
 40
0.5882352941176471
 40
0.5882352941176471
 40
0.5882352941176471
 40
0.6470588235294118
 40
0.6470588235294118
 40
0.6470588235294118
 40
0.6470588235294118
 40
0.7058823529411765
 40
0.7058823529411765
 40
0.7058823529411765
 40
0.7058823529411765
 40
0.7647058823529411
 40
0.7647058823529411
 40
0.7647058823529411
 40
0.7647058823529411
 40
0.8235294117647058
 40
0.8235294117647058
 40
0.8235294117647058
 40
0.8235294117647058
 40
0.8823529411764706
 40
0.8823529411764706
 40
0.8823529411764706
 40
0.8823529411764706
 40
1.0
 40
1.0
 40
1.0
 40
1.0
 10
2.9506
 20
-12.8945
 30
0.0
 10
2.8475
 20
-12.8569
 30
0.0
 10
2.7713
 20
-12.8033
 30
0.0
 10
2.7215
 20
-12.7332
 30
0.0
 10
2.7215
 20
-12.7332
 30
0.0
 10
2.6721
 20
-12.6636
 30
0.0
 10
2.6472
 20
-12.5798
 30
0.0
 10
2.6472
 20
-12.4825
 30
0.0
 10
2.6472
 20
-12.4825
 30
0.0
 10
2.6472
 20
-12.3353
 30
0.0
 10
2.6999
 20
-12.212
 30
0.0
 10
2.8057
 20
-12.1118
 30
0.0
 10
2.8057
 20
-12.1118
 30
0.0
 10
2.9115
 20
-12.0116
 30
0.0
 10
3.0517
 20
-11.9613
 30
0.0
 10
3.2271
 20
-11.9613
 30
0.0
 10
3.2271
 20
-11.9613
 30
0.0
 10
3.4035
 20
-11.9613
 30
0.0
 10
3.5456
 20
-12.0126
 30
0.0
 10
3.6533
 20
-12.1151
 30
0.0
 10
3.6533
 20
-12.1151
 30
0.0
 10
3.7605
 20
-12.2177
 30
0.0
 10
3.8142
 20
-12.3423
 30
0.0
 10
3.8142
 20
-12.4895
 30
0.0
 10
3.8142
 20
-12.4895
 30
0.0
 10
3.8142
 20
-12.5831
 30
0.0
 10
3.7897
 20
-12.6645
 30
0.0
 10
3.7408
 20
-12.7341
 30
0.0
 10
3.7408
 20
-12.7341
 30
0.0
 10
3.6914
 20
-12.8033
 30
0.0
 10
3.6171
 20
-12.8569
 30
0.0
 10
3.5169
 20
-12.8945
 30
0.0
 10
3.5169
 20
-12.8945
 30
0.0
 10
3.6406
 20
-12.935
 30
0.0
 10
3.7351
 20
-12.9999
 30
0.0
 10
3.8
 20
-13.0902
 30
0.0
 10
3.8
 20
-13.0902
 30
0.0
 10
3.8645
 20
-13.18
 30
0.0
 10
3.8969
 20
-13.2877
 30
0.0
 10
3.8969
 20
-13.4124
 30
0.0
 10
3.8969
 20
-13.4124
 30
0.0
 10
3.8969
 20
-13.5855
 30
0.0
 10
3.8358
 20
-13.7304
 30
0.0
 10
3.714
 20
-13.8479
 30
0.0
 10
3.714
 20
-13.8479
 30
0.0
 10
3.5917
 20
-13.9655
 30
0.0
 10
3.4308
 20
-14.0243
 30
0.0
 10
3.2314
 20
-14.0243
 30
0.0
 10
3.2314
 20
-14.0243
 30
0.0
 10
3.0319
 20
-14.0243
 30
0.0
 10
2.8715
 20
-13.9655
 30
0.0
 10
2.7492
 20
-13.8475
 30
0.0
 10
2.7492
 20
-13.8475
 30
0.0
 10
2.6269
 20
-13.7294
 30
0.0
 10
2.5658
 20
-13.5822
 30
0.0
 10
2.5658
 20
-13.4058
 30
0.0
 10
2.5658
 20
-13.4058
 30
0.0
 10
2.5658
 20
-13.2746
 30
0.0
 10
2.5992
 20
-13.1645
 30
0.0
 10
2.666
 20
-13.0756
 30
0.0
 10
2.666
 20
-13.0756
 30
0.0
 10
2.7323
 20
-12.9872
 30
0.0
 10
2.8273
 20
-12.9265
 30
0.0
 10
2.9506
 20
-12.8945
 30
0.0
  0
SPLINE
  5
4A
330
1F
100
AcDbEntity
  8
VRSTVA_1
 62
   250
100
AcDbSpline
210
0.0
220
0.0
230
1.0
 70
    11
 71
     3
 72
    36
 73
    32
 74
     0
 42
0.0000000001
 43
0.0000000001
 40
0.0
 40
0.0
 40
0.0
 40
0.0
 40
0.1111111111111111
 40
0.1111111111111111
 40
0.1111111111111111
 40
0.1111111111111111
 40
0.2222222222222222
 40
0.2222222222222222
 40
0.2222222222222222
 40
0.2222222222222222
 40
0.3333333333333333
 40
0.3333333333333333
 40
0.3333333333333333
 40
0.3333333333333333
 40
0.4444444444444444
 40
0.4444444444444444
 40
0.4444444444444444
 40
0.4444444444444444
 40
0.5555555555555556
 40
0.5555555555555556
 40
0.5555555555555556
 40
0.5555555555555556
 40
0.6666666666666666
 40
0.6666666666666666
 40
0.6666666666666666
 40
0.6666666666666666
 40
0.7777777777777778
 40
0.7777777777777778
 40
0.7777777777777778
 40
0.7777777777777778
 40
1.0
 40
1.0
 40
1.0
 40
1.0
 10
2.9007
 20
-12.474
 30
0.0
 10
2.9007
 20
-12.5695
 30
0.0
 10
2.9317
 20
-12.6476
 30
0.0
 10
2.9929
 20
-12.7083
 30
0.0
 10
2.9929
 20
-12.7083
 30
0.0
 10
3.0545
 20
-12.7689
 30
0.0
 10
3.1345
 20
-12.7995
 30
0.0
 10
3.2328
 20
-12.7995
 30
0.0
 10
3.2328
 20
-12.7995
 30
0.0
 10
3.3283
 20
-12.7995
 30
0.0
 10
3.4068
 20
-12.7694
 30
0.0
 10
3.468
 20
-12.7092
 30
0.0
 10
3.468
 20
-12.7092
 30
0.0
 10
3.5291
 20
-12.649
 30
0.0
 10
3.5592
 20
-12.5751
 30
0.0
 10
3.5592
 20
-12.4881
 30
0.0
 10
3.5592
 20
-12.4881
 30
0.0
 10
3.5592
 20
-12.3969
 30
0.0
 10
3.5282
 20
-12.3207
 30
0.0
 10
3.4651
 20
-12.2586
 30
0.0
 10
3.4651
 20
-12.2586
 30
0.0
 10
3.4021
 20
-12.1965
 30
0.0
 10
3.324
 20
-12.1654
 30
0.0
 10
3.23
 20
-12.1654
 30
0.0
 10
3.23
 20
-12.1654
 30
0.0
 10
3.1354
 20
-12.1654
 30
0.0
 10
3.0569
 20
-12.196
 30
0.0
 10
2.9943
 20
-12.2562
 30
0.0
 10
2.9943
 20
-12.2562
 30
0.0
 10
2.9317
 20
-12.3169
 30
0.0
 10
2.9007
 20
-12.3898
 30
0.0
 10
2.9007
 20
-12.474
 30
0.0
  0
SPLINE
  5
4B
330
1F
100
AcDbEntity
  8
VRSTVA_1
 62
   250
100
AcDbSpline
210
0.0
220
0.0
230
1.0
 70
    11
 71
     3
 72
    40
 73
    36
 74
     0
 42
0.0000000001
 43
0.0000000001
 40
0.0
 40
0.0
 40
0.0
 40
0.0
 40
0.1
 40
0.1
 40
0.1
 40
0.1
 40
0.2
 40
0.2
 40
0.2
 40
0.2
 40
0.3
 40
0.3
 40
0.3
 40
0.3
 40
0.4
 40
0.4
 40
0.4
 40
0.4
 40
0.5
 40
0.5
 40
0.5
 40
0.5
 40
0.6
 40
0.6
 40
0.6
 40
0.6
 40
0.7
 40
0.7
 40
0.7
 40
0.7
 40
0.8
 40
0.8
 40
0.8
 40
0.8
 40
1.0
 40
1.0
 40
1.0
 40
1.0
 10
2.8207
 20
-13.4072
 30
0.0
 10
2.8207
 20
-13.4778
 30
0.0
 10
2.8377
 20
-13.5464
 30
0.0
 10
2.8711
 20
-13.6123
 30
0.0
 10
2.8711
 20
-13.6123
 30
0.0
 10
2.9045
 20
-13.6786
 30
0.0
 10
2.9543
 20
-13.7299
 30
0.0
 10
3.0206
 20
-13.7661
 30
0.0
 10
3.0206
 20
-13.7661
 30
0.0
 10
3.087
 20
-13.8023
 30
0.0
 10
3.158
 20
-13.8207
 30
0.0
 10
3.2342
 20
-13.8207
 30
0.0
 10
3.2342
 20
-13.8207
 30
0.0
 10
3.3527
 20
-13.8207
 30
0.0
 10
3.4506
 20
-13.7826
 30
0.0
 10
3.5277
 20
-13.7059
 30
0.0
 10
3.5277
 20
-13.7059
 30
0.0
 10
3.6048
 20
-13.6297
 30
0.0
 10
3.6434
 20
-13.5328
 30
0.0
 10
3.6434
 20
-13.4152
 30
0.0
 10
3.6434
 20
-13.4152
 30
0.0
 10
3.6434
 20
-13.2957
 30
0.0
 10
3.6039
 20
-13.197
 30
0.0
 10
3.5244
 20
-13.1189
 30
0.0
 10
3.5244
 20
-13.1189
 30
0.0
 10
3.4449
 20
-13.0408
 30
0.0
 10
3.3452
 20
-13.0018
 30
0.0
 10
3.2257
 20
-13.0018
 30
0.0
 10
3.2257
 20
-13.0018
 30
0.0
 10
3.1091
 20
-13.0018
 30
0.0
 10
3.0126
 20
-13.0403
 30
0.0
 10
2.936
 20
-13.1175
 30
0.0
 10
2.936
 20
-13.1175
 30
0.0
 10
2.8593
 20
-13.1951
 30
0.0
 10
2.8207
 20
-13.2915
 30
0.0
 10
2.8207
 20
-13.4072
 30
0.0
  0
SPLINE
  5
4C
330
1F
100
AcDbEntity
  8
VRSTVA_1
 62
   250
100
AcDbSpline
210
0.0
220
0.0
230
1.0
 70
    11
 71
     3
 72
    52
 73
    48
 74
     0
 42
0.0000000001
 43
0.0000000001
 40
0.0
 40
0.0
 40
0.0
 40
0.0
 40
0.0769230769230769
 40
0.0769230769230769
 40
0.0769230769230769
 40
0.0769230769230769
 40
0.1538461538461539
 40
0.1538461538461539
 40
0.1538461538461539
 40
0.1538461538461539
 40
0.2307692307692308
 40
0.2307692307692308
 40
0.2307692307692308
 40
0.2307692307692308
 40
0.3076923076923077
 40
0.3076923076923077
 40
0.3076923076923077
 40
0.3076923076923077
 40
0.3846153846153846
 40
0.3846153846153846
 40
0.3846153846153846
 40
0.3846153846153846
 40
0.4615384615384616
 40
0.4615384615384616
 40
0.4615384615384616
 40
0.4615384615384616
 40
0.5384615384615384
 40
0.5384615384615384
 40
0.5384615384615384
 40
0.5384615384615384
 40
0.6153846153846154
 40
0.6153846153846154
 40
0.6153846153846154
 40
0.6153846153846154
 40
0.6923076923076923
 40
0.6923076923076923
 40
0.6923076923076923
 40
0.6923076923076923
 40
0.7692307692307693
 40
0.7692307692307693
 40
0.7692307692307693
 40
0.7692307692307693
 40
0.8461538461538461
 40
0.8461538461538461
 40
0.8461538461538461
 40
0.8461538461538461
 40
1.0
 40
1.0
 40
1.0
 40
1.0
 10
4.1382
 20
-12.9938
 30
0.0
 10
4.1382
 20
-12.7548
 30
0.0
 10
4.1627
 20
-12.5624
 30
0.0
 10
4.2121
 20
-12.4171
 30
0.0
 10
4.2121
 20
-12.4171
 30
0.0
 10
4.261
 20
-12.2713
 30
0.0
 10
4.3344
 20
-12.1589
 30
0.0
 10
4.4313
 20
-12.0798
 30
0.0
 10
4.4313
 20
-12.0798
 30
0.0
 10
4.5282
 20
-12.0008
 30
0.0
 10
4.65
 20
-11.9613
 30
0.0
 10
4.7967
 20
-11.9613
 30
0.0
 10
4.7967
 20
-11.9613
 30
0.0
 10
4.9054
 20
-11.9613
 30
0.0
 10
5.0004
 20
-11.9834
 30
0.0
 10
5.0822
 20
-12.0272
 30
0.0
 10
5.0822
 20
-12.0272
 30
0.0
 10
5.1641
 20
-12.0704
 30
0.0
 10
5.2314
 20
-12.1335
 30
0.0
 10
5.285
 20
-12.2158
 30
0.0
 10
5.285
 20
-12.2158
 30
0.0
 10
5.3381
 20
-12.2981
 30
0.0
 10
5.38
 20
-12.3983
 30
0.0
 10
5.4101
 20
-12.5163
 30
0.0
 10
5.4101
 20
-12.5163
 30
0.0
 10
5.4407
 20
-12.6344
 30
0.0
 10
5.4557
 20
-12.7934
 30
0.0
 10
5.4557
 20
-12.9938
 30
0.0
 10
5.4557
 20
-12.9938
 30
0.0
 10
5.4557
 20
-13.2308
 30
0.0
 10
5.4313
 20
-13.4218
 30
0.0
 10
5.3828
 20
-13.5676
 30
0.0
 10
5.3828
 20
-13.5676
 30
0.0
 10
5.3339
 20
-13.7134
 30
0.0
 10
5.261
 20
-13.8258
 30
0.0
 10
5.1641
 20
-13.9053
 30
0.0
 10
5.1641
 20
-13.9053
 30
0.0
 10
5.0672
 20
-13.9848
 30
0.0
 10
4.9449
 20
-14.0243
 30
0.0
 10
4.7967
 20
-14.0243
 30
0.0
 10
4.7967
 20
-14.0243
 30
0.0
 10
4.602
 20
-14.0243
 30
0.0
 10
4.4491
 20
-13.9547
 30
0.0
 10
4.3381
 20
-13.815
 30
0.0
 10
4.3381
 20
-13.815
 30
0.0
 10
4.205
 20
-13.6471
 30
0.0
 10
4.1382
 20
-13.3729
 30
0.0
 10
4.1382
 20
-12.9938
 30
0.0
  0
SPLINE
  5
4D
330
1F
100
AcDbEntity
  8
VRSTVA_1
 62
   250
100
AcDbSpline
210
0.0
220
0.0
230
1.0
 70
    11
 71
     3
 72
    36
 73
    32
 74
     0
 42
0.0000000001
 43
0.0000000001
 40
0.0
 40
0.0
 40
0.0
 40
0.0
 40
0.1111111111111111
 40
0.1111111111111111
 40
0.1111111111111111
 40
0.1111111111111111
 40
0.2222222222222222
 40
0.2222222222222222
 40
0.2222222222222222
 40
0.2222222222222222
 40
0.3333333333333333
 40
0.3333333333333333
 40
0.3333333333333333
 40
0.3333333333333333
 40
0.4444444444444444
 40
0.4444444444444444
 40
0.4444444444444444
 40
0.4444444444444444
 40
0.5555555555555556
 40
0.5555555555555556
 40
0.5555555555555556
 40
0.5555555555555556
 40
0.6666666666666666
 40
0.6666666666666666
 40
0.6666666666666666
 40
0.6666666666666666
 40
0.7777777777777778
 40
0.7777777777777778
 40
0.7777777777777778
 40
0.7777777777777778
 40
1.0
 40
1.0
 40
1.0
 40
1.0
 10
4.3932
 20
-12.9938
 30
0.0
 10
4.3932
 20
-13.3254
 30
0.0
 10
4.4322
 20
-13.546
 30
0.0
 10
4.5098
 20
-13.656
 30
0.0
 10
4.5098
 20
-13.656
 30
0.0
 10
4.5874
 20
-13.7656
 30
0.0
 10
4.6829
 20
-13.8207
 30
0.0
 10
4.7967
 20
-13.8207
 30
0.0
 10
4.7967
 20
-13.8207
 30
0.0
 10
4.911
 20
-13.8207
 30
0.0
 10
5.0065
 20
-13.7652
 30
0.0
 10
5.0841
 20
-13.6551
 30
0.0
 10
5.0841
 20
-13.6551
 30
0.0
 10
5.1617
 20
-13.545
 30
0.0
 10
5.2008
 20
-13.3244
 30
0.0
 10
5.2008
 20
-12.9938
 30
0.0
 10
5.2008
 20
-12.9938
 30
0.0
 10
5.2008
 20
-12.6612
 30
0.0
 10
5.1617
 20
-12.4401
 30
0.0
 10
5.0841
 20
-12.331
 30
0.0
 10
5.0841
 20
-12.331
 30
0.0
 10
5.0065
 20
-12.2214
 30
0.0
 10
4.9101
 20
-12.1669
 30
0.0
 10
4.7944
 20
-12.1669
 30
0.0
 10
4.7944
 20
-12.1669
 30
0.0
 10
4.6801
 20
-12.1669
 30
0.0
 10
4.5893
 20
-12.2153
 30
0.0
 10
4.5211
 20
-12.3117
 30
0.0
 10
4.5211
 20
-12.3117
 30
0.0
 10
4.436
 20
-12.4345
 30
0.0
 10
4.3932
 20
-12.6622
 30
0.0
 10
4.3932
 20
-12.9938
 30
0.0
  0
SPLINE
  5
4E
330
1F
100
AcDbEntity
  8
VRSTVA_1
 62
   250
100
AcDbSpline
210
0.0
220
0.0
230
1.0
 70
    11
 71
     3
 72
    52
 73
    48
 74
     0
 42
0.0000000001
 43
0.0000000001
 40
0.0
 40
0.0
 40
0.0
 40
0.0
 40
0.0769230769230769
 40
0.0769230769230769
 40
0.0769230769230769
 40
0.0769230769230769
 40
0.1538461538461539
 40
0.1538461538461539
 40
0.1538461538461539
 40
0.1538461538461539
 40
0.2307692307692308
 40
0.2307692307692308
 40
0.2307692307692308
 40
0.2307692307692308
 40
0.3076923076923077
 40
0.3076923076923077
 40
0.3076923076923077
 40
0.3076923076923077
 40
0.3846153846153846
 40
0.3846153846153846
 40
0.3846153846153846
 40
0.3846153846153846
 40
0.4615384615384616
 40
0.4615384615384616
 40
0.4615384615384616
 40
0.4615384615384616
 40
0.5384615384615384
 40
0.5384615384615384
 40
0.5384615384615384
 40
0.5384615384615384
 40
0.6153846153846154
 40
0.6153846153846154
 40
0.6153846153846154
 40
0.6153846153846154
 40
0.6923076923076923
 40
0.6923076923076923
 40
0.6923076923076923
 40
0.6923076923076923
 40
0.7692307692307693
 40
0.7692307692307693
 40
0.7692307692307693
 40
0.7692307692307693
 40
0.8461538461538461
 40
0.8461538461538461
 40
0.8461538461538461
 40
0.8461538461538461
 40
1.0
 40
1.0
 40
1.0
 40
1.0
 10
5.7078
 20
-12.9938
 30
0.0
 10
5.7078
 20
-12.7548
 30
0.0
 10
5.7323
 20
-12.5624
 30
0.0
 10
5.7817
 20
-12.4171
 30
0.0
 10
5.7817
 20
-12.4171
 30
0.0
 10
5.8306
 20
-12.2713
 30
0.0
 10
5.904
 20
-12.1589
 30
0.0
 10
6.0009
 20
-12.0798
 30
0.0
 10
6.0009
 20
-12.0798
 30
0.0
 10
6.0978
 20
-12.0008
 30
0.0
 10
6.2196
 20
-11.9613
 30
0.0
 10
6.3663
 20
-11.9613
 30
0.0
 10
6.3663
 20
-11.9613
 30
0.0
 10
6.475
 20
-11.9613
 30
0.0
 10
6.57
 20
-11.9834
 30
0.0
 10
6.6518
 20
-12.0272
 30
0.0
 10
6.6518
 20
-12.0272
 30
0.0
 10
6.7337
 20
-12.0704
 30
0.0
 10
6.801
 20
-12.1335
 30
0.0
 10
6.8546
 20
-12.2158
 30
0.0
 10
6.8546
 20
-12.2158
 30
0.0
 10
6.9077
 20
-12.2981
 30
0.0
 10
6.9496
 20
-12.3983
 30
0.0
 10
6.9797
 20
-12.5163
 30
0.0
 10
6.9797
 20
-12.5163
 30
0.0
 10
7.0103
 20
-12.6344
 30
0.0
 10
7.0253
 20
-12.7934
 30
0.0
 10
7.0253
 20
-12.9938
 30
0.0
 10
7.0253
 20
-12.9938
 30
0.0
 10
7.0253
 20
-13.2308
 30
0.0
 10
7.0009
 20
-13.4218
 30
0.0
 10
6.9524
 20
-13.5676
 30
0.0
 10
6.9524
 20
-13.5676
 30
0.0
 10
6.9035
 20
-13.7134
 30
0.0
 10
6.8306
 20
-13.8258
 30
0.0
 10
6.7337
 20
-13.9053
 30
0.0
 10
6.7337
 20
-13.9053
 30
0.0
 10
6.6368
 20
-13.9848
 30
0.0
 10
6.5145
 20
-14.0243
 30
0.0
 10
6.3663
 20
-14.0243
 30
0.0
 10
6.3663
 20
-14.0243
 30
0.0
 10
6.1716
 20
-14.0243
 30
0.0
 10
6.0187
 20
-13.9547
 30
0.0
 10
5.9077
 20
-13.815
 30
0.0
 10
5.9077
 20
-13.815
 30
0.0
 10
5.7746
 20
-13.6471
 30
0.0
 10
5.7078
 20
-13.3729
 30
0.0
 10
5.7078
 20
-12.9938
 30
0.0
  0
SPLINE
  5
4F
330
1F
100
AcDbEntity
  8
VRSTVA_1
 62
   250
100
AcDbSpline
210
0.0
220
0.0
230
1.0
 70
    11
 71
     3
 72
    36
 73
    32
 74
     0
 42
0.0000000001
 43
0.0000000001
 40
0.0
 40
0.0
 40
0.0
 40
0.0
 40
0.1111111111111111
 40
0.1111111111111111
 40
0.1111111111111111
 40
0.1111111111111111
 40
0.2222222222222222
 40
0.2222222222222222
 40
0.2222222222222222
 40
0.2222222222222222
 40
0.3333333333333333
 40
0.3333333333333333
 40
0.3333333333333333
 40
0.3333333333333333
 40
0.4444444444444444
 40
0.4444444444444444
 40
0.4444444444444444
 40
0.4444444444444444
 40
0.5555555555555556
 40
0.5555555555555556
 40
0.5555555555555556
 40
0.5555555555555556
 40
0.6666666666666666
 40
0.6666666666666666
 40
0.6666666666666666
 40
0.6666666666666666
 40
0.7777777777777778
 40
0.7777777777777778
 40
0.7777777777777778
 40
0.7777777777777778
 40
1.0
 40
1.0
 40
1.0
 40
1.0
 10
5.9628
 20
-12.9938
 30
0.0
 10
5.9628
 20
-13.3254
 30
0.0
 10
6.0018
 20
-13.546
 30
0.0
 10
6.0794
 20
-13.656
 30
0.0
 10
6.0794
 20
-13.656
 30
0.0
 10
6.157
 20
-13.7656
 30
0.0
 10
6.2525
 20
-13.8207
 30
0.0
 10
6.3663
 20
-13.8207
 30
0.0
 10
6.3663
 20
-13.8207
 30
0.0
 10
6.4806
 20
-13.8207
 30
0.0
 10
6.5761
 20
-13.7652
 30
0.0
 10
6.6537
 20
-13.6551
 30
0.0
 10
6.6537
 20
-13.6551
 30
0.0
 10
6.7313
 20
-13.545
 30
0.0
 10
6.7704
 20
-13.3244
 30
0.0
 10
6.7704
 20
-12.9938
 30
0.0
 10
6.7704
 20
-12.9938
 30
0.0
 10
6.7704
 20
-12.6612
 30
0.0
 10
6.7313
 20
-12.4401
 30
0.0
 10
6.6537
 20
-12.331
 30
0.0
 10
6.6537
 20
-12.331
 30
0.0
 10
6.5761
 20
-12.2214
 30
0.0
 10
6.4797
 20
-12.1669
 30
0.0
 10
6.364
 20
-12.1669
 30
0.0
 10
6.364
 20
-12.1669
 30
0.0
 10
6.2497
 20
-12.1669
 30
0.0
 10
6.1589
 20
-12.2153
 30
0.0
 10
6.0907
 20
-12.3117
 30
0.0
 10
6.0907
 20
-12.3117
 30
0.0
 10
6.0056
 20
-12.4345
 30
0.0
 10
5.9628
 20
-12.6622
 30
0.0
 10
5.9628
 20
-12.9938
 30
0.0
  0
SPLINE
  5
50
330
1F
100
AcDbEntity
  8
VRSTVA_1
 62
   250
100
AcDbSpline
210
0.0
220
0.0
230
1.0
 70
    11
 71
     3
 72
   120
 73
   116
 74
     0
 42
0.0000000001
 43
0.0000000001
 40
0.0
 40
0.0
 40
0.0
 40
0.0
 40
0.0333333333333333
 40
0.0333333333333333
 40
0.0333333333333333
 40
0.0333333333333333
 40
0.0666666666666667
 40
0.0666666666666667
 40
0.0666666666666667
 40
0.0666666666666667
 40
0.1
 40
0.1
 40
0.1
 40
0.1
 40
0.1333333333333333
 40
0.1333333333333333
 40
0.1333333333333333
 40
0.1333333333333333
 40
0.1666666666666667
 40
0.1666666666666667
 40
0.1666666666666667
 40
0.1666666666666667
 40
0.2
 40
0.2
 40
0.2
 40
0.2
 40
0.2333333333333333
 40
0.2333333333333333
 40
0.2333333333333333
 40
0.2333333333333333
 40
0.2666666666666667
 40
0.2666666666666667
 40
0.2666666666666667
 40
0.2666666666666667
 40
0.3
 40
0.3
 40
0.3
 40
0.3
 40
0.3333333333333333
 40
0.3333333333333333
 40
0.3333333333333333
 40
0.3333333333333333
 40
0.3666666666666666
 40
0.3666666666666666
 40
0.3666666666666666
 40
0.3666666666666666
 40
0.4
 40
0.4
 40
0.4
 40
0.4
 40
0.4333333333333333
 40
0.4333333333333333
 40
0.4333333333333333
 40
0.4333333333333333
 40
0.4666666666666667
 40
0.4666666666666667
 40
0.4666666666666667
 40
0.4666666666666667
 40
0.5
 40
0.5
 40
0.5
 40
0.5
 40
0.5333333333333333
 40
0.5333333333333333
 40
0.5333333333333333
 40
0.5333333333333333
 40
0.5666666666666667
 40
0.5666666666666667
 40
0.5666666666666667
 40
0.5666666666666667
 40
0.6
 40
0.6
 40
0.6
 40
0.6
 40
0.6333333333333333
 40
0.6333333333333333
 40
0.6333333333333333
 40
0.6333333333333333
 40
0.6666666666666666
 40
0.6666666666666666
 40
0.6666666666666666
 40
0.6666666666666666
 40
0.7
 40
0.7
 40
0.7
 40
0.7
 40
0.7333333333333333
 40
0.7333333333333333
 40
0.7333333333333333
 40
0.7333333333333333
 40
0.7666666666666667
 40
0.7666666666666667
 40
0.7666666666666667
 40
0.7666666666666667
 40
0.8
 40
0.8
 40
0.8
 40
0.8
 40
0.8333333333333334
 40
0.8333333333333334
 40
0.8333333333333334
 40
0.8333333333333334
 40
0.8666666666666667
 40
0.8666666666666667
 40
0.8666666666666667
 40
0.8666666666666667
 40
0.9
 40
0.9
 40
0.9
 40
0.9
 40
0.9333333333333333
 40
0.9333333333333333
 40
0.9333333333333333
 40
0.9333333333333333
 40
1.0
 40
1.0
 40
1.0
 40
1.0
 10
-50.842
 20
1.3593
 30
0.0
 10
-50.842
 20
1.3593
 30
0.0
 10
-51.0786
 20
1.36
 30
0.0
 10
-51.0786
 20
1.36
 30
0.0
 10
-51.0786
 20
1.36
 30
0.0
 10
-51.0786
 20
1.36
 30
0.0
 10
-51.0774
 20
2.2156
 30
0.0
 10
-51.0774
 20
2.2156
 30
0.0
 10
-51.0774
 20
2.2156
 30
0.0
 10
-51.0774
 20
2.2156
 30
0.0
 10
-50.3281
 20
2.2133
 30
0.0
 10
-50.3281
 20
2.2133
 30
0.0
 10
-50.3281
 20
2.2133
 30
0.0
 10
-50.2236
 20
2.0818
 30
0.0
 10
-50.1454
 20
1.9461
 30
0.0
 10
-50.0928
 20
1.8062
 30
0.0
 10
-50.0928
 20
1.8062
 30
0.0
 10
-50.0405
 20
1.6664
 30
0.0
 10
-50.0146
 20
1.5229
 30
0.0
 10
-50.015
 20
1.3761
 30
0.0
 10
-50.015
 20
1.3761
 30
0.0
 10
-50.0156
 20
1.1776
 30
0.0
 10
-50.0585
 20
0.9971
 30
0.0
 10
-50.1441
 20
0.8356
 30
0.0
 10
-50.1441
 20
0.8356
 30
0.0
 10
-50.2293
 20
0.6735
 30
0.0
 10
-50.3528
 20
0.5516
 30
0.0
 10
-50.5135
 20
0.4693
 30
0.0
 10
-50.5135
 20
0.4693
 30
0.0
 10
-50.6746
 20
0.387
 30
0.0
 10
-50.8544
 20
0.3461
 30
0.0
 10
-51.0529
 20
0.3467
 30
0.0
 10
-51.0529
 20
0.3467
 30
0.0
 10
-51.2495
 20
0.3473
 30
0.0
 10
-51.4328
 20
0.3892
 30
0.0
 10
-51.6029
 20
0.4722
 30
0.0
 10
-51.6029
 20
0.4722
 30
0.0
 10
-51.7733
 20
0.5545
 30
0.0
 10
-51.8996
 20
0.6734
 30
0.0
 10
-51.9819
 20
0.8279
 30
0.0
 10
-51.9819
 20
0.8279
 30
0.0
 10
-52.0637
 20
0.9824
 30
0.0
 10
-52.1046
 20
1.1604
 30
0.0
 10
-52.104
 20
1.3617
 30
0.0
 10
-52.104
 20
1.3617
 30
0.0
 10
-52.1036
 20
1.5075
 30
0.0
 10
-52.0796
 20
1.6396
 30
0.0
 10
-52.0317
 20
1.7576
 30
0.0
 10
-52.0317
 20
1.7576
 30
0.0
 10
-51.9844
 20
1.8754
 30
0.0
 10
-51.9182
 20
1.9679
 30
0.0
 10
-51.8334
 20
2.0345
 30
0.0
 10
-51.8334
 20
2.0345
 30
0.0
 10
-51.7485
 20
2.1014
 30
0.0
 10
-51.6383
 20
2.1519
 30
0.0
 10
-51.5022
 20
2.1868
 30
0.0
 10
-51.5022
 20
2.1868
 30
0.0
 10
-51.5022
 20
2.1868
 30
0.0
 10
-51.4366
 20
1.9453
 30
0.0
 10
-51.4366
 20
1.9453
 30
0.0
 10
-51.4366
 20
1.9453
 30
0.0
 10
-51.5397
 20
1.915
 30
0.0
 10
-51.6207
 20
1.8776
 30
0.0
 10
-51.6797
 20
1.8331
 30
0.0
 10
-51.6797
 20
1.8331
 30
0.0
 10
-51.7386
 20
1.7882
 30
0.0
 10
-51.7858
 20
1.7238
 30
0.0
 10
-51.8214
 20
1.6402
 30
0.0
 10
-51.8214
 20
1.6402
 30
0.0
 10
-51.8569
 20
1.557
 30
0.0
 10
-51.8751
 20
1.464
 30
0.0
 10
-51.8754
 20
1.3624
 30
0.0
 10
-51.8754
 20
1.3624
 30
0.0
 10
-51.8758
 20
1.2401
 30
0.0
 10
-51.8572
 20
1.1342
 30
0.0
 10
-51.8203
 20
1.0452
 30
0.0
 10
-51.8203
 20
1.0452
 30
0.0
 10
-51.7834
 20
0.9557
 30
0.0
 10
-51.7347
 20
0.8841
 30
0.0
 10
-51.6742
 20
0.8289
 30
0.0
 10
-51.6742
 20
0.8289
 30
0.0
 10
-51.6138
 20
0.7741
 30
0.0
 10
-51.5475
 20
0.7316
 30
0.0
 10
-51.4747
 20
0.7008
 30
0.0
 10
-51.4747
 20
0.7008
 30
0.0
 10
-51.3502
 20
0.6492
 30
0.0
 10
-51.2148
 20
0.6229
 30
0.0
 10
-51.0685
 20
0.6225
 30
0.0
 10
-51.0685
 20
0.6225
 30
0.0
 10
-50.8884
 20
0.6219
 30
0.0
 10
-50.7378
 20
0.6525
 30
0.0
 10
-50.6162
 20
0.7142
 30
0.0
 10
-50.6162
 20
0.7142
 30
0.0
 10
-50.4948
 20
0.7759
 30
0.0
 10
-50.4046
 20
0.866
 30
0.0
 10
-50.3454
 20
0.9843
 30
0.0
 10
-50.3454
 20
0.9843
 30
0.0
 10
-50.2863
 20
1.1027
 30
0.0
 10
-50.2563
 20
1.2282
 30
0.0
 10
-50.2559
 20
1.3613
 30
0.0
 10
-50.2559
 20
1.3613
 30
0.0
 10
-50.2555
 20
1.4775
 30
0.0
 10
-50.2778
 20
1.5904
 30
0.0
 10
-50.3222
 20
1.7006
 30
0.0
 10
-50.3222
 20
1.7006
 30
0.0
 10
-50.366
 20
1.8113
 30
0.0
 10
-50.4133
 20
1.8947
 30
0.0
 10
-50.4639
 20
1.9517
 30
0.0
 10
-50.4639
 20
1.9517
 30
0.0
 10
-50.4639
 20
1.9517
 30
0.0
 10
-50.8402
 20
1.9529
 30
0.0
 10
-50.8402
 20
1.9529
 30
0.0
 10
-50.8402
 20
1.9529
 30
0.0
 10
-50.8402
 20
1.9529
 30
0.0
 10
-50.842
 20
1.3593
 30
0.0
 10
-50.842
 20
1.3593
 30
0.0
  0
SPLINE
  5
51
330
1F
100
AcDbEntity
  8
VRSTVA_1
 62
   250
100
AcDbSpline
210
0.0
220
0.0
230
1.0
 70
    11
 71
     3
 72
    80
 73
    76
 74
     0
 42
0.0000000001
 43
0.0000000001
 40
0.0
 40
0.0
 40
0.0
 40
0.0
 40
0.05
 40
0.05
 40
0.05
 40
0.05
 40
0.1
 40
0.1
 40
0.1
 40
0.1
 40
0.15
 40
0.15
 40
0.15
 40
0.15
 40
0.2
 40
0.2
 40
0.2
 40
0.2
 40
0.25
 40
0.25
 40
0.25
 40
0.25
 40
0.3
 40
0.3
 40
0.3
 40
0.3
 40
0.35
 40
0.35
 40
0.35
 40
0.35
 40
0.4
 40
0.4
 40
0.4
 40
0.4
 40
0.45
 40
0.45
 40
0.45
 40
0.45
 40
0.5
 40
0.5
 40
0.5
 40
0.5
 40
0.55
 40
0.55
 40
0.55
 40
0.55
 40
0.6
 40
0.6
 40
0.6
 40
0.6
 40
0.65
 40
0.65
 40
0.65
 40
0.65
 40
0.7
 40
0.7
 40
0.7
 40
0.7
 40
0.75
 40
0.75
 40
0.75
 40
0.75
 40
0.8
 40
0.8
 40
0.8
 40
0.8
 40
0.85
 40
0.85
 40
0.85
 40
0.85
 40
0.9
 40
0.9
 40
0.9
 40
0.9
 40
1.0
 40
1.0
 40
1.0
 40
1.0
 10
-51.5651
 20
4.5816
 30
0.0
 10
-51.5651
 20
4.5816
 30
0.0
 10
-51.5466
 20
4.3351
 30
0.0
 10
-51.5466
 20
4.3351
 30
0.0
 10
-51.5466
 20
4.3351
 30
0.0
 10
-51.644
 20
4.3133
 30
0.0
 10
-51.7151
 20
4.2824
 30
0.0
 10
-51.7589
 20
4.2421
 30
0.0
 10
-51.7589
 20
4.2421
 30
0.0
 10
-51.8302
 20
4.1751
 30
0.0
 10
-51.8658
 20
4.0924
 30
0.0
 10
-51.8661
 20
3.9941
 30
0.0
 10
-51.8661
 20
3.9941
 30
0.0
 10
-51.8663
 20
3.9151
 30
0.0
 10
-51.8443
 20
3.8459
 30
0.0
 10
-51.8003
 20
3.786
 30
0.0
 10
-51.8003
 20
3.786
 30
0.0
 10
-51.7436
 20
3.7077
 30
0.0
 10
-51.6606
 20
3.6458
 30
0.0
 10
-51.5516
 20
3.6004
 30
0.0
 10
-51.5516
 20
3.6004
 30
0.0
 10
-51.4426
 20
3.5554
 30
0.0
 10
-51.287
 20
3.5314
 30
0.0
 10
-51.0848
 20
3.5289
 30
0.0
 10
-51.0848
 20
3.5289
 30
0.0
 10
-51.1753
 20
3.5889
 30
0.0
 10
-51.2429
 20
3.662
 30
0.0
 10
-51.2868
 20
3.7487
 30
0.0
 10
-51.2868
 20
3.7487
 30
0.0
 10
-51.3303
 20
3.8349
 30
0.0
 10
-51.3521
 20
3.9257
 30
0.0
 10
-51.3518
 20
4.0203
 30
0.0
 10
-51.3518
 20
4.0203
 30
0.0
 10
-51.3513
 20
4.1858
 30
0.0
 10
-51.2903
 20
4.3263
 30
0.0
 10
-51.168
 20
4.4422
 30
0.0
 10
-51.168
 20
4.4422
 30
0.0
 10
-51.0459
 20
4.5579
 30
0.0
 10
-50.8886
 20
4.6158
 30
0.0
 10
-50.6958
 20
4.6153
 30
0.0
 10
-50.6958
 20
4.6153
 30
0.0
 10
-50.5688
 20
4.6149
 30
0.0
 10
-50.4513
 20
4.5867
 30
0.0
 10
-50.3423
 20
4.5318
 30
0.0
 10
-50.3423
 20
4.5318
 30
0.0
 10
-50.2338
 20
4.477
 30
0.0
 10
-50.1503
 20
4.4014
 30
0.0
 10
-50.0927
 20
4.3057
 30
0.0
 10
-50.0927
 20
4.3057
 30
0.0
 10
-50.0352
 20
4.2102
 30
0.0
 10
-50.0068
 20
4.1019
 30
0.0
 10
-50.0072
 20
3.9805
 30
0.0
 10
-50.0072
 20
3.9805
 30
0.0
 10
-50.0078
 20
3.7736
 30
0.0
 10
-50.084
 20
3.6054
 30
0.0
 10
-50.2368
 20
3.4756
 30
0.0
 10
-50.2368
 20
3.4756
 30
0.0
 10
-50.3891
 20
3.3452
 30
0.0
 10
-50.64
 20
3.2811
 30
0.0
 10
-50.989
 20
3.2821
 30
0.0
 10
-50.989
 20
3.2821
 30
0.0
 10
-51.3794
 20
3.2833
 30
0.0
 10
-51.6629
 20
3.3562
 30
0.0
 10
-51.8398
 20
3.5011
 30
0.0
 10
-51.8398
 20
3.5011
 30
0.0
 10
-51.9937
 20
3.6272
 30
0.0
 10
-52.0708
 20
3.7967
 30
0.0
 10
-52.0701
 20
4.0102
 30
0.0
 10
-52.0701
 20
4.0102
 30
0.0
 10
-52.0697
 20
4.1688
 30
0.0
 10
-52.0246
 20
4.2988
 30
0.0
 10
-51.9349
 20
4.4002
 30
0.0
 10
-51.9349
 20
4.4002
 30
0.0
 10
-51.8457
 20
4.5015
 30
0.0
 10
-51.7223
 20
4.5618
 30
0.0
 10
-51.5651
 20
4.5816
 30
0.0
  0
SPLINE
  5
52
330
1F
100
AcDbEntity
  8
VRSTVA_1
 62
   250
100
AcDbSpline
210
0.0
220
0.0
230
1.0
 70
    11
 71
     3
 72
    40
 73
    36
 74
     0
 42
0.0000000001
 43
0.0000000001
 40
0.0
 40
0.0
 40
0.0
 40
0.0
 40
0.1
 40
0.1
 40
0.1
 40
0.1
 40
0.2
 40
0.2
 40
0.2
 40
0.2
 40
0.3
 40
0.3
 40
0.3
 40
0.3
 40
0.4
 40
0.4
 40
0.4
 40
0.4
 40
0.5
 40
0.5
 40
0.5
 40
0.5
 40
0.6
 40
0.6
 40
0.6
 40
0.6
 40
0.7
 40
0.7
 40
0.7
 40
0.7
 40
0.8
 40
0.8
 40
0.8
 40
0.8
 40
1.0
 40
1.0
 40
1.0
 40
1.0
 10
-50.6976
 20
3.5663
 30
0.0
 10
-50.6119
 20
3.566
 30
0.0
 10
-50.53
 20
3.5841
 30
0.0
 10
-50.4518
 20
3.6201
 30
0.0
 10
-50.4518
 20
3.6201
 30
0.0
 10
-50.3736
 20
3.6561
 30
0.0
 10
-50.3142
 20
3.7067
 30
0.0
 10
-50.2731
 20
3.7715
 30
0.0
 10
-50.2731
 20
3.7715
 30
0.0
 10
-50.2319
 20
3.8368
 30
0.0
 10
-50.211
 20
3.9054
 30
0.0
 10
-50.2108
 20
3.9769
 30
0.0
 10
-50.2108
 20
3.9769
 30
0.0
 10
-50.2105
 20
4.0818
 30
0.0
 10
-50.2526
 20
4.1717
 30
0.0
 10
-50.337
 20
4.2473
 30
0.0
 10
-50.337
 20
4.2473
 30
0.0
 10
-50.4215
 20
4.3227
 30
0.0
 10
-50.5362
 20
4.3608
 30
0.0
 10
-50.681
 20
4.3612
 30
0.0
 10
-50.681
 20
4.3612
 30
0.0
 10
-50.8207
 20
4.3616
 30
0.0
 10
-50.9309
 20
4.3248
 30
0.0
 10
-51.0115
 20
4.2507
 30
0.0
 10
-51.0115
 20
4.2507
 30
0.0
 10
-51.0922
 20
4.1766
 30
0.0
 10
-51.1325
 20
4.0832
 30
0.0
 10
-51.1329
 20
3.9703
 30
0.0
 10
-51.1329
 20
3.9703
 30
0.0
 10
-51.1332
 20
3.8579
 30
0.0
 10
-51.0935
 20
3.7626
 30
0.0
 10
-51.0132
 20
3.6844
 30
0.0
 10
-51.0132
 20
3.6844
 30
0.0
 10
-50.933
 20
3.6061
 30
0.0
 10
-50.8278
 20
3.5666
 30
0.0
 10
-50.6976
 20
3.5663
 30
0.0
  0
SPLINE
  5
53
330
1F
100
AcDbEntity
  8
VRSTVA_1
 62
   250
100
AcDbSpline
210
0.0
220
0.0
230
1.0
 70
    11
 71
     3
 72
    20
 73
    16
 74
     0
 42
0.0000000001
 43
0.0000000001
 40
0.0
 40
0.0
 40
0.0
 40
0.0
 40
0.2
 40
0.2
 40
0.2
 40
0.2
 40
0.4
 40
0.4
 40
0.4
 40
0.4
 40
0.6
 40
0.6
 40
0.6
 40
0.6
 40
1.0
 40
1.0
 40
1.0
 40
1.0
 10
-50.0049
 20
4.7425
 30
0.0
 10
-50.0049
 20
4.7425
 30
0.0
 10
-52.0921
 20
5.3344
 30
0.0
 10
-52.0921
 20
5.3344
 30
0.0
 10
-52.0921
 20
5.3344
 30
0.0
 10
-52.0921
 20
5.3344
 30
0.0
 10
-52.0915
 20
5.5329
 30
0.0
 10
-52.0915
 20
5.5329
 30
0.0
 10
-52.0915
 20
5.5329
 30
0.0
 10
-52.0915
 20
5.5329
 30
0.0
 10
-50.0043
 20
4.9424
 30
0.0
 10
-50.0043
 20
4.9424
 30
0.0
 10
-50.0043
 20
4.9424
 30
0.0
 10
-50.0043
 20
4.9424
 30
0.0
 10
-50.0049
 20
4.7425
 30
0.0
 10
-50.0049
 20
4.7425
 30
0.0
  0
SPLINE
  5
54
330
1F
100
AcDbEntity
  8
VRSTVA_1
 62
   250
100
AcDbSpline
210
0.0
220
0.0
230
1.0
 70
    11
 71
     3
 72
    48
 73
    44
 74
     0
 42
0.0000000001
 43
0.0000000001
 40
0.0
 40
0.0
 40
0.0
 40
0.0
 40
0.0833333333333333
 40
0.0833333333333333
 40
0.0833333333333333
 40
0.0833333333333333
 40
0.1666666666666667
 40
0.1666666666666667
 40
0.1666666666666667
 40
0.1666666666666667
 40
0.25
 40
0.25
 40
0.25
 40
0.25
 40
0.3333333333333333
 40
0.3333333333333333
 40
0.3333333333333333
 40
0.3333333333333333
 40
0.4166666666666667
 40
0.4166666666666667
 40
0.4166666666666667
 40
0.4166666666666667
 40
0.5
 40
0.5
 40
0.5
 40
0.5
 40
0.5833333333333334
 40
0.5833333333333334
 40
0.5833333333333334
 40
0.5833333333333334
 40
0.6666666666666666
 40
0.6666666666666666
 40
0.6666666666666666
 40
0.6666666666666666
 40
0.75
 40
0.75
 40
0.75
 40
0.75
 40
0.8333333333333334
 40
0.8333333333333334
 40
0.8333333333333334
 40
0.8333333333333334
 40
1.0
 40
1.0
 40
1.0
 40
1.0
 10
-50.0341
 20
6.4387
 30
0.0
 10
-50.0341
 20
6.4387
 30
0.0
 10
-50.5176
 20
6.4401
 30
0.0
 10
-50.5176
 20
6.4401
 30
0.0
 10
-50.5176
 20
6.4401
 30
0.0
 10
-50.5176
 20
6.4401
 30
0.0
 10
-50.5203
 20
5.5638
 30
0.0
 10
-50.5203
 20
5.5638
 30
0.0
 10
-50.5203
 20
5.5638
 30
0.0
 10
-50.5203
 20
5.5638
 30
0.0
 10
-50.748
 20
5.5645
 30
0.0
 10
-50.748
 20
5.5645
 30
0.0
 10
-50.748
 20
5.5645
 30
0.0
 10
-50.748
 20
5.5645
 30
0.0
 10
-52.0542
 20
6.4904
 30
0.0
 10
-52.0542
 20
6.4904
 30
0.0
 10
-52.0542
 20
6.4904
 30
0.0
 10
-52.0542
 20
6.4904
 30
0.0
 10
-52.0536
 20
6.6931
 30
0.0
 10
-52.0536
 20
6.6931
 30
0.0
 10
-52.0536
 20
6.6931
 30
0.0
 10
-52.0536
 20
6.6931
 30
0.0
 10
-50.7446
 20
6.6892
 30
0.0
 10
-50.7446
 20
6.6892
 30
0.0
 10
-50.7446
 20
6.6892
 30
0.0
 10
-50.7446
 20
6.6892
 30
0.0
 10
-50.7438
 20
6.962
 30
0.0
 10
-50.7438
 20
6.962
 30
0.0
 10
-50.7438
 20
6.962
 30
0.0
 10
-50.7438
 20
6.962
 30
0.0
 10
-50.5161
 20
6.9613
 30
0.0
 10
-50.5161
 20
6.9613
 30
0.0
 10
-50.5161
 20
6.9613
 30
0.0
 10
-50.5161
 20
6.9613
 30
0.0
 10
-50.5169
 20
6.6885
 30
0.0
 10
-50.5169
 20
6.6885
 30
0.0
 10
-50.5169
 20
6.6885
 30
0.0
 10
-50.5169
 20
6.6885
 30
0.0
 10
-50.0334
 20
6.6871
 30
0.0
 10
-50.0334
 20
6.6871
 30
0.0
 10
-50.0334
 20
6.6871
 30
0.0
 10
-50.0334
 20
6.6871
 30
0.0
 10
-50.0341
 20
6.4387
 30
0.0
 10
-50.0341
 20
6.4387
 30
0.0
  0
SPLINE
  5
55
330
1F
100
AcDbEntity
  8
VRSTVA_1
 62
   250
100
AcDbSpline
210
0.0
220
0.0
230
1.0
 70
    11
 71
     3
 72
    16
 73
    12
 74
     0
 42
0.0000000001
 43
0.0000000001
 40
0.0
 40
0.0
 40
0.0
 40
0.0
 40
0.25
 40
0.25
 40
0.25
 40
0.25
 40
0.5
 40
0.5
 40
0.5
 40
0.5
 40
1.0
 40
1.0
 40
1.0
 40
1.0
 10
-50.7453
 20
6.4408
 30
0.0
 10
-50.7453
 20
6.4408
 30
0.0
 10
-51.6559
 20
6.4435
 30
0.0
 10
-51.6559
 20
6.4435
 30
0.0
 10
-51.6559
 20
6.4435
 30
0.0
 10
-51.6559
 20
6.4435
 30
0.0
 10
-50.7472
 20
5.8087
 30
0.0
 10
-50.7472
 20
5.8087
 30
0.0
 10
-50.7472
 20
5.8087
 30
0.0
 10
-50.7472
 20
5.8087
 30
0.0
 10
-50.7453
 20
6.4408
 30
0.0
 10
-50.7453
 20
6.4408
 30
0.0
  0
SPLINE
  5
56
330
1F
100
AcDbEntity
  8
VRSTVA_1
 62
   250
100
AcDbSpline
210
0.0
220
0.0
230
1.0
 70
    11
 71
     3
 72
    28
 73
    24
 74
     0
 42
0.0000000001
 43
0.0000000001
 40
0.0
 40
0.0
 40
0.0
 40
0.0
 40
0.1428571428571428
 40
0.1428571428571428
 40
0.1428571428571428
 40
0.1428571428571428
 40
0.2857142857142857
 40
0.2857142857142857
 40
0.2857142857142857
 40
0.2857142857142857
 40
0.4285714285714285
 40
0.4285714285714285
 40
0.4285714285714285
 40
0.4285714285714285
 40
0.5714285714285714
 40
0.5714285714285714
 40
0.5714285714285714
 40
0.5714285714285714
 40
0.7142857142857143
 40
0.7142857142857143
 40
0.7142857142857143
 40
0.7142857142857143
 40
1.0
 40
1.0
 40
1.0
 40
1.0
 10
-51.3363
 20
7.2987
 30
0.0
 10
-51.3363
 20
7.2987
 30
0.0
 10
-51.7213
 20
7.2307
 30
0.0
 10
-51.7213
 20
7.2307
 30
0.0
 10
-51.7213
 20
7.2307
 30
0.0
 10
-51.7213
 20
7.2307
 30
0.0
 10
-52.0519
 20
7.2317
 30
0.0
 10
-52.0519
 20
7.2317
 30
0.0
 10
-52.0519
 20
7.2317
 30
0.0
 10
-52.0519
 20
7.2317
 30
0.0
 10
-52.0511
 20
7.5143
 30
0.0
 10
-52.0511
 20
7.5143
 30
0.0
 10
-52.0511
 20
7.5143
 30
0.0
 10
-52.0511
 20
7.5143
 30
0.0
 10
-51.7205
 20
7.5133
 30
0.0
 10
-51.7205
 20
7.5133
 30
0.0
 10
-51.7205
 20
7.5133
 30
0.0
 10
-51.7205
 20
7.5133
 30
0.0
 10
-51.3359
 20
7.4502
 30
0.0
 10
-51.3359
 20
7.4502
 30
0.0
 10
-51.3359
 20
7.4502
 30
0.0
 10
-51.3359
 20
7.4502
 30
0.0
 10
-51.3363
 20
7.2987
 30
0.0
 10
-51.3363
 20
7.2987
 30
0.0
  0
SPLINE
  5
57
330
1F
100
AcDbEntity
  8
VRSTVA_1
 62
   250
100
AcDbSpline
210
0.0
220
0.0
230
1.0
 70
    11
 71
     3
 72
    28
 73
    24
 74
     0
 42
0.0000000001
 43
0.0000000001
 40
0.0
 40
0.0
 40
0.0
 40
0.0
 40
0.1428571428571428
 40
0.1428571428571428
 40
0.1428571428571428
 40
0.1428571428571428
 40
0.2857142857142857
 40
0.2857142857142857
 40
0.2857142857142857
 40
0.2857142857142857
 40
0.4285714285714285
 40
0.4285714285714285
 40
0.4285714285714285
 40
0.4285714285714285
 40
0.5714285714285714
 40
0.5714285714285714
 40
0.5714285714285714
 40
0.5714285714285714
 40
0.7142857142857143
 40
0.7142857142857143
 40
0.7142857142857143
 40
0.7142857142857143
 40
1.0
 40
1.0
 40
1.0
 40
1.0
 10
-51.335
 20
7.755
 30
0.0
 10
-51.335
 20
7.755
 30
0.0
 10
-51.72
 20
7.6883
 30
0.0
 10
-51.72
 20
7.6883
 30
0.0
 10
-51.72
 20
7.6883
 30
0.0
 10
-51.72
 20
7.6883
 30
0.0
 10
-52.0506
 20
7.6893
 30
0.0
 10
-52.0506
 20
7.6893
 30
0.0
 10
-52.0506
 20
7.6893
 30
0.0
 10
-52.0506
 20
7.6893
 30
0.0
 10
-52.0497
 20
7.972
 30
0.0
 10
-52.0497
 20
7.972
 30
0.0
 10
-52.0497
 20
7.972
 30
0.0
 10
-52.0497
 20
7.972
 30
0.0
 10
-51.7191
 20
7.971
 30
0.0
 10
-51.7191
 20
7.971
 30
0.0
 10
-51.7191
 20
7.971
 30
0.0
 10
-51.7191
 20
7.971
 30
0.0
 10
-51.3345
 20
7.9036
 30
0.0
 10
-51.3345
 20
7.9036
 30
0.0
 10
-51.3345
 20
7.9036
 30
0.0
 10
-51.3345
 20
7.9036
 30
0.0
 10
-51.335
 20
7.755
 30
0.0
 10
-51.335
 20
7.755
 30
0.0
  0
SPLINE
  5
58
330
1F
100
AcDbEntity
  8
VRSTVA_1
 62
   250
100
AcDbSpline
210
0.0
220
0.0
230
1.0
 70
    11
 71
     3
 72
    20
 73
    16
 74
     0
 42
0.0000000001
 43
0.0000000001
 40
0.0
 40
0.0
 40
0.0
 40
0.0
 40
0.2
 40
0.2
 40
0.2
 40
0.2
 40
0.4
 40
0.4
 40
0.4
 40
0.4
 40
0.6
 40
0.6
 40
0.6
 40
0.6
 40
1.0
 40
1.0
 40
1.0
 40
1.0
 10
-42.0455
 20
-15.1564
 30
0.0
 10
-42.0455
 20
-15.1564
 30
0.0
 10
-45.0455
 20
-14.7331
 30
0.0
 10
-45.0455
 20
-14.7331
 30
0.0
 10
-45.0455
 20
-14.7331
 30
0.0
 10
-45.0455
 20
-14.7331
 30
0.0
 10
-45.0455
 20
-14.6391
 30
0.0
 10
-45.0455
 20
-14.6391
 30
0.0
 10
-45.0455
 20
-14.6391
 30
0.0
 10
-45.0455
 20
-14.6391
 30
0.0
 10
-42.0455
 20
-14.1877
 30
0.0
 10
-42.0455
 20
-14.1877
 30
0.0
 10
-42.0455
 20
-14.1877
 30
0.0
 10
-42.0455
 20
-14.1877
 30
0.0
 10
-42.0455
 20
-15.1564
 30
0.0
 10
-42.0455
 20
-15.1564
 30
0.0
  0
SPLINE
  5
59
330
1F
100
AcDbEntity
  8
VRSTVA_1
 62
   250
100
AcDbSpline
210
0.0
220
0.0
230
1.0
 70
    11
 71
     3
 72
    20
 73
    16
 74
     0
 42
0.0000000001
 43
0.0000000001
 40
0.0
 40
0.0
 40
0.0
 40
0.0
 40
0.2
 40
0.2
 40
0.2
 40
0.2
 40
0.4
 40
0.4
 40
0.4
 40
0.4
 40
0.6
 40
0.6
 40
0.6
 40
0.6
 40
1.0
 40
1.0
 40
1.0
 40
1.0
 10
-49.0013
 20
14.0884
 30
0.0
 10
-49.0013
 20
14.0884
 30
0.0
 10
-49.4246
 20
11.0884
 30
0.0
 10
-49.4246
 20
11.0884
 30
0.0
 10
-49.4246
 20
11.0884
 30
0.0
 10
-49.4246
 20
11.0884
 30
0.0
 10
-49.5186
 20
11.0884
 30
0.0
 10
-49.5186
 20
11.0884
 30
0.0
 10
-49.5186
 20
11.0884
 30
0.0
 10
-49.5186
 20
11.0884
 30
0.0
 10
-49.97
 20
14.0884
 30
0.0
 10
-49.97
 20
14.0884
 30
0.0
 10
-49.97
 20
14.0884
 30
0.0
 10
-49.97
 20
14.0884
 30
0.0
 10
-49.0013
 20
14.0884
 30
0.0
 10
-49.0013
 20
14.0884
 30
0.0
  0
SPLINE
  5
5A
330
1F
100
AcDbEntity
  8
VRSTVA_1
 62
   250
100
AcDbSpline
210
0.0
220
0.0
230
1.0
 70
    11
 71
     3
 72
    20
 73
    16
 74
     0
 42
0.0000000001
 43
0.0000000001
 40
0.0
 40
0.0
 40
0.0
 40
0.0
 40
0.2
 40
0.2
 40
0.2
 40
0.2
 40
0.4
 40
0.4
 40
0.4
 40
0.4
 40
0.6
 40
0.6
 40
0.6
 40
0.6
 40
1.0
 40
1.0
 40
1.0
 40
1.0
 10
49.0195
 20
-14.206
 30
0.0
 10
49.0195
 20
-14.206
 30
0.0
 10
52.0197
 20
-14.6294
 30
0.0
 10
52.0197
 20
-14.6294
 30
0.0
 10
52.0197
 20
-14.6294
 30
0.0
 10
52.0197
 20
-14.6294
 30
0.0
 10
52.0197
 20
-14.7234
 30
0.0
 10
52.0197
 20
-14.7234
 30
0.0
 10
52.0197
 20
-14.7234
 30
0.0
 10
52.0197
 20
-14.7234
 30
0.0
 10
49.0195
 20
-15.1749
 30
0.0
 10
49.0195
 20
-15.1749
 30
0.0
 10
49.0195
 20
-15.1749
 30
0.0
 10
49.0195
 20
-15.1749
 30
0.0
 10
49.0195
 20
-14.206
 30
0.0
 10
49.0195
 20
-14.206
 30
0.0
  0
SPLINE
  5
5B
330
1F
100
AcDbEntity
  8
VRSTVA_1
 62
   250
100
AcDbSpline
210
0.0
220
0.0
230
1.0
 70
    24
 71
     3
 72
     8
 73
     4
 74
     0
 42
0.0000000001
 43
0.0000000001
 40
0.0
 40
0.0
 40
0.0
 40
0.0
 40
1.0
 40
1.0
 40
1.0
 40
1.0
 10
-45.1218
 20
-6.7339
 30
0.0
 10
-45.1218
 20
-6.7339
 30
0.0
 10
-45.1218
 20
-15.303
 30
0.0
 10
-45.1218
 20
-15.303
 30
0.0
  0
SPLINE
  5
5C
330
1F
100
AcDbEntity
  8
VRSTVA_1
 62
   250
100
AcDbSpline
210
0.0
220
0.0
230
1.0
 70
    24
 71
     3
 72
     8
 73
     4
 74
     0
 42
0.0000000001
 43
0.0000000001
 40
0.0
 40
0.0
 40
0.0
 40
0.0
 40
1.0
 40
1.0
 40
1.0
 40
1.0
 10
52.1035
 20
-4.2386
 30
0.0
 10
52.1035
 20
-4.2386
 30
0.0
 10
52.1035
 20
-15.3558
 30
0.0
 10
52.1035
 20
-15.3558
 30
0.0
  0
SPLINE
  5
5D
330
1F
100
AcDbEntity
  8
VRSTVA_1
 62
   250
100
AcDbSpline
210
0.0
220
0.0
230
1.0
 70
    24
 71
     3
 72
     8
 73
     4
 74
     0
 42
0.0000000001
 43
0.0000000001
 40
0.0
 40
0.0
 40
0.0
 40
0.0
 40
1.0
 40
1.0
 40
1.0
 40
1.0
 10
-0.1715
 20
-2.6508
 30
0.0
 10
-0.1715
 20
-2.6508
 30
0.0
 10
-0.1715
 20
8.4959
 30
0.0
 10
-0.1715
 20
8.4959
 30
0.0
  0
SPLINE
  5
5E
330
1F
100
AcDbEntity
  8
VRSTVA_1
 62
   250
100
AcDbSpline
210
0.0
220
0.0
230
1.0
 70
    24
 71
     3
 72
     8
 73
     4
 74
     0
 42
0.0000000001
 43
0.0000000001
 40
0.0
 40
0.0
 40
0.0
 40
0.0
 40
1.0
 40
1.0
 40
1.0
 40
1.0
 10
1.7128
 20
-1.3061
 30
0.0
 10
1.7128
 20
-1.3061
 30
0.0
 10
1.7128
 20
7.6925
 30
0.0
 10
1.7128
 20
7.6925
 30
0.0
  0
SPLINE
  5
5F
330
1F
100
AcDbEntity
  8
VRSTVA_1
 62
   250
100
AcDbSpline
210
0.0
220
0.0
230
1.0
 70
    24
 71
     3
 72
     8
 73
     4
 74
     0
 42
0.0000000001
 43
0.0000000001
 40
0.0
 40
0.0
 40
0.0
 40
0.0
 40
1.0
 40
1.0
 40
1.0
 40
1.0
 10
4.5387
 20
-1.3061
 30
0.0
 10
4.5387
 20
-1.3061
 30
0.0
 10
4.5387
 20
7.6925
 30
0.0
 10
4.5387
 20
7.6925
 30
0.0
  0
SPLINE
  5
60
330
1F
100
AcDbEntity
  8
VRSTVA_1
 62
   250
100
AcDbSpline
210
0.0
220
0.0
230
1.0
 70
    24
 71
     3
 72
     8
 73
     4
 74
     0
 42
0.0000000001
 43
0.0000000001
 40
0.0
 40
0.0
 40
0.0
 40
0.0
 40
1.0
 40
1.0
 40
1.0
 40
1.0
 10
7.3645
 20
-1.3061
 30
0.0
 10
7.3645
 20
-1.3061
 30
0.0
 10
7.3645
 20
7.6925
 30
0.0
 10
7.3645
 20
7.6925
 30
0.0
  0
SPLINE
  5
61
330
1F
100
AcDbEntity
  8
VRSTVA_1
 62
   250
100
AcDbSpline
210
0.0
220
0.0
230
1.0
 70
    24
 71
     3
 72
     8
 73
     4
 74
     0
 42
0.0000000001
 43
0.0000000001
 40
0.0
 40
0.0
 40
0.0
 40
0.0
 40
1.0
 40
1.0
 40
1.0
 40
1.0
 10
10.1904
 20
-1.3061
 30
0.0
 10
10.1904
 20
-1.3061
 30
0.0
 10
10.1904
 20
7.6925
 30
0.0
 10
10.1904
 20
7.6925
 30
0.0
  0
SPLINE
  5
62
330
1F
100
AcDbEntity
  8
VRSTVA_1
 62
   250
100
AcDbSpline
210
0.0
220
0.0
230
1.0
 70
    24
 71
     3
 72
     8
 73
     4
 74
     0
 42
0.0000000001
 43
0.0000000001
 40
0.0
 40
0.0
 40
0.0
 40
0.0
 40
1.0
 40
1.0
 40
1.0
 40
1.0
 10
13.0163
 20
-1.3061
 30
0.0
 10
13.0163
 20
-1.3061
 30
0.0
 10
13.0163
 20
7.6925
 30
0.0
 10
13.0163
 20
7.6925
 30
0.0
  0
SPLINE
  5
63
330
1F
100
AcDbEntity
  8
VRSTVA_1
 62
   250
100
AcDbSpline
210
0.0
220
0.0
230
1.0
 70
    24
 71
     3
 72
     8
 73
     4
 74
     0
 42
0.0000000001
 43
0.0000000001
 40
0.0
 40
0.0
 40
0.0
 40
0.0
 40
1.0
 40
1.0
 40
1.0
 40
1.0
 10
15.8429
 20
-1.3056
 30
0.0
 10
15.8429
 20
-1.3056
 30
0.0
 10
15.8429
 20
7.6919
 30
0.0
 10
15.8429
 20
7.6919
 30
0.0
  0
SPLINE
  5
64
330
1F
100
AcDbEntity
  8
VRSTVA_1
 62
   250
100
AcDbSpline
210
0.0
220
0.0
230
1.0
 70
    24
 71
     3
 72
     8
 73
     4
 74
     0
 42
0.0000000001
 43
0.0000000001
 40
0.0
 40
0.0
 40
0.0
 40
0.0
 40
1.0
 40
1.0
 40
1.0
 40
1.0
 10
18.7808
 20
-0.9724
 30
0.0
 10
18.7808
 20
-0.9724
 30
0.0
 10
18.7808
 20
7.3587
 30
0.0
 10
18.7808
 20
7.3587
 30
0.0
  0
SPLINE
  5
65
330
1F
100
AcDbEntity
  8
VRSTVA_1
 62
   250
100
AcDbSpline
210
0.0
220
0.0
230
1.0
 70
     8
 71
     3
 72
   228
 73
   224
 74
     0
 42
0.0000000001
 43
0.0000000001
 40
0.0
 40
0.0
 40
0.0
 40
0.0
 40
0.0175438596491228
 40
0.0175438596491228
 40
0.0175438596491228
 40
0.0175438596491228
 40
0.0350877192982456
 40
0.0350877192982456
 40
0.0350877192982456
 40
0.0350877192982456
 40
0.0526315789473684
 40
0.0526315789473684
 40
0.0526315789473684
 40
0.0526315789473684
 40
0.0701754385964912
 40
0.0701754385964912
 40
0.0701754385964912
 40
0.0701754385964912
 40
0.087719298245614
 40
0.087719298245614
 40
0.087719298245614
 40
0.087719298245614
 40
0.1052631578947368
 40
0.1052631578947368
 40
0.1052631578947368
 40
0.1052631578947368
 40
0.1228070175438596
 40
0.1228070175438596
 40
0.1228070175438596
 40
0.1228070175438596
 40
0.1403508771929824
 40
0.1403508771929824
 40
0.1403508771929824
 40
0.1403508771929824
 40
0.1578947368421053
 40
0.1578947368421053
 40
0.1578947368421053
 40
0.1578947368421053
 40
0.1754385964912281
 40
0.1754385964912281
 40
0.1754385964912281
 40
0.1754385964912281
 40
0.1929824561403509
 40
0.1929824561403509
 40
0.1929824561403509
 40
0.1929824561403509
 40
0.2105263157894737
 40
0.2105263157894737
 40
0.2105263157894737
 40
0.2105263157894737
 40
0.2280701754385965
 40
0.2280701754385965
 40
0.2280701754385965
 40
0.2280701754385965
 40
0.2456140350877193
 40
0.2456140350877193
 40
0.2456140350877193
 40
0.2456140350877193
 40
0.2631578947368421
 40
0.2631578947368421
 40
0.2631578947368421
 40
0.2631578947368421
 40
0.2807017543859649
 40
0.2807017543859649
 40
0.2807017543859649
 40
0.2807017543859649
 40
0.2982456140350877
 40
0.2982456140350877
 40
0.2982456140350877
 40
0.2982456140350877
 40
0.3157894736842105
 40
0.3157894736842105
 40
0.3157894736842105
 40
0.3157894736842105
 40
0.3333333333333333
 40
0.3333333333333333
 40
0.3333333333333333
 40
0.3333333333333333
 40
0.3508771929824561
 40
0.3508771929824561
 40
0.3508771929824561
 40
0.3508771929824561
 40
0.3684210526315789
 40
0.3684210526315789
 40
0.3684210526315789
 40
0.3684210526315789
 40
0.3859649122807017
 40
0.3859649122807017
 40
0.3859649122807017
 40
0.3859649122807017
 40
0.4035087719298245
 40
0.4035087719298245
 40
0.4035087719298245
 40
0.4035087719298245
 40
0.4210526315789473
 40
0.4210526315789473
 40
0.4210526315789473
 40
0.4210526315789473
 40
0.4385964912280702
 40
0.4385964912280702
 40
0.4385964912280702
 40
0.4385964912280702
 40
0.456140350877193
 40
0.456140350877193
 40
0.456140350877193
 40
0.456140350877193
 40
0.4736842105263158
 40
0.4736842105263158
 40
0.4736842105263158
 40
0.4736842105263158
 40
0.4912280701754386
 40
0.4912280701754386
 40
0.4912280701754386
 40
0.4912280701754386
 40
0.5087719298245614
 40
0.5087719298245614
 40
0.5087719298245614
 40
0.5087719298245614
 40
0.5263157894736842
 40
0.5263157894736842
 40
0.5263157894736842
 40
0.5263157894736842
 40
0.543859649122807
 40
0.543859649122807
 40
0.543859649122807
 40
0.543859649122807
 40
0.5614035087719298
 40
0.5614035087719298
 40
0.5614035087719298
 40
0.5614035087719298
 40
0.5789473684210527
 40
0.5789473684210527
 40
0.5789473684210527
 40
0.5789473684210527
 40
0.5964912280701754
 40
0.5964912280701754
 40
0.5964912280701754
 40
0.5964912280701754
 40
0.6140350877192983
 40
0.6140350877192983
 40
0.6140350877192983
 40
0.6140350877192983
 40
0.631578947368421
 40
0.631578947368421
 40
0.631578947368421
 40
0.631578947368421
 40
0.6491228070175439
 40
0.6491228070175439
 40
0.6491228070175439
 40
0.6491228070175439
 40
0.6666666666666666
 40
0.6666666666666666
 40
0.6666666666666666
 40
0.6666666666666666
 40
0.6842105263157895
 40
0.6842105263157895
 40
0.6842105263157895
 40
0.6842105263157895
 40
0.7017543859649122
 40
0.7017543859649122
 40
0.7017543859649122
 40
0.7017543859649122
 40
0.7192982456140351
 40
0.7192982456140351
 40
0.7192982456140351
 40
0.7192982456140351
 40
0.7368421052631579
 40
0.7368421052631579
 40
0.7368421052631579
 40
0.7368421052631579
 40
0.7543859649122807
 40
0.7543859649122807
 40
0.7543859649122807
 40
0.7543859649122807
 40
0.7719298245614035
 40
0.7719298245614035
 40
0.7719298245614035
 40
0.7719298245614035
 40
0.7894736842105263
 40
0.7894736842105263
 40
0.7894736842105263
 40
0.7894736842105263
 40
0.8070175438596491
 40
0.8070175438596491
 40
0.8070175438596491
 40
0.8070175438596491
 40
0.8245614035087719
 40
0.8245614035087719
 40
0.8245614035087719
 40
0.8245614035087719
 40
0.8421052631578947
 40
0.8421052631578947
 40
0.8421052631578947
 40
0.8421052631578947
 40
0.8596491228070176
 40
0.8596491228070176
 40
0.8596491228070176
 40
0.8596491228070176
 40
0.8771929824561403
 40
0.8771929824561403
 40
0.8771929824561403
 40
0.8771929824561403
 40
0.8947368421052632
 40
0.8947368421052632
 40
0.8947368421052632
 40
0.8947368421052632
 40
0.9122807017543859
 40
0.9122807017543859
 40
0.9122807017543859
 40
0.9122807017543859
 40
0.9298245614035088
 40
0.9298245614035088
 40
0.9298245614035088
 40
0.9298245614035088
 40
0.9473684210526315
 40
0.9473684210526315
 40
0.9473684210526315
 40
0.9473684210526315
 40
0.9649122807017544
 40
0.9649122807017544
 40
0.9649122807017544
 40
0.9649122807017544
 40
1.0
 40
1.0
 40
1.0
 40
1.0
 10
23.7794
 20
7.3587
 30
0.0
 10
23.7794
 20
7.3587
 30
0.0
 10
18.7808
 20
7.3587
 30
0.0
 10
18.7808
 20
7.3587
 30
0.0
 10
18.7808
 20
7.3587
 30
0.0
 10
18.7808
 20
7.3587
 30
0.0
 10
17.0964
 20
9.0788
 30
0.0
 10
17.0964
 20
9.0788
 30
0.0
 10
17.0964
 20
9.0788
 30
0.0
 10
17.0964
 20
9.0788
 30
0.0
 10
16.9727
 20
9.0788
 30
0.0
 10
16.9727
 20
9.0788
 30
0.0
 10
16.9727
 20
9.0788
 30
0.0
 10
16.9727
 20
9.0788
 30
0.0
 10
15.9327
 20
7.6894
 30
0.0
 10
15.9327
 20
7.6894
 30
0.0
 10
15.9327
 20
7.6894
 30
0.0
 10
15.9327
 20
7.6894
 30
0.0
 10
14.2243
 20
9.1035
 30
0.0
 10
14.2243
 20
9.1035
 30
0.0
 10
14.2243
 20
9.1035
 30
0.0
 10
14.2243
 20
9.1035
 30
0.0
 10
14.0758
 20
9.1035
 30
0.0
 10
14.0758
 20
9.1035
 30
0.0
 10
14.0758
 20
9.1035
 30
0.0
 10
14.0758
 20
9.1035
 30
0.0
 10
13.0605
 20
7.7885
 30
0.0
 10
13.0605
 20
7.7885
 30
0.0
 10
13.0605
 20
7.7885
 30
0.0
 10
13.0605
 20
7.7885
 30
0.0
 10
11.4017
 20
9.1035
 30
0.0
 10
11.4017
 20
9.1035
 30
0.0
 10
11.4017
 20
9.1035
 30
0.0
 10
11.4017
 20
9.1035
 30
0.0
 10
11.1789
 20
9.1035
 30
0.0
 10
11.1789
 20
9.1035
 30
0.0
 10
11.1789
 20
9.1035
 30
0.0
 10
11.1789
 20
9.1035
 30
0.0
 10
10.2132
 20
7.7638
 30
0.0
 10
10.2132
 20
7.7638
 30
0.0
 10
10.2132
 20
7.7638
 30
0.0
 10
10.2132
 20
7.7638
 30
0.0
 10
8.5542
 20
9.1035
 30
0.0
 10
8.5542
 20
9.1035
 30
0.0
 10
8.5542
 20
9.1035
 30
0.0
 10
8.5542
 20
9.1035
 30
0.0
 10
8.4305
 20
9.1035
 30
0.0
 10
8.4305
 20
9.1035
 30
0.0
 10
8.4305
 20
9.1035
 30
0.0
 10
8.4305
 20
9.1035
 30
0.0
 10
7.4153
 20
7.7141
 30
0.0
 10
7.4153
 20
7.7141
 30
0.0
 10
7.4153
 20
7.7141
 30
0.0
 10
7.4153
 20
7.7141
 30
0.0
 10
5.8059
 20
9.0788
 30
0.0
 10
5.8059
 20
9.0788
 30
0.0
 10
5.8059
 20
9.0788
 30
0.0
 10
5.8059
 20
9.0788
 30
0.0
 10
5.6078
 20
9.0788
 30
0.0
 10
5.6078
 20
9.0788
 30
0.0
 10
5.6078
 20
9.0788
 30
0.0
 10
5.6078
 20
9.0788
 30
0.0
 10
4.5432
 20
7.7141
 30
0.0
 10
4.5432
 20
7.7141
 30
0.0
 10
4.5432
 20
7.7141
 30
0.0
 10
4.5432
 20
7.7141
 30
0.0
 10
2.909
 20
9.0788
 30
0.0
 10
2.909
 20
9.0788
 30
0.0
 10
2.909
 20
9.0788
 30
0.0
 10
2.909
 20
9.0788
 30
0.0
 10
2.7853
 20
9.0788
 30
0.0
 10
2.7853
 20
9.0788
 30
0.0
 10
2.7853
 20
9.0788
 30
0.0
 10
2.7853
 20
9.0788
 30
0.0
 10
1.7949
 20
7.7389
 30
0.0
 10
1.7949
 20
7.7389
 30
0.0
 10
1.7949
 20
7.7389
 30
0.0
 10
1.7949
 20
7.7389
 30
0.0
 10
0.0617
 20
9.1035
 30
0.0
 10
0.0617
 20
9.1035
 30
0.0
 10
0.0617
 20
9.1035
 30
0.0
 10
0.0617
 20
9.1035
 30
0.0
 10
-0.1364
 20
8.4584
 30
0.0
 10
-0.1364
 20
8.4584
 30
0.0
 10
-0.1364
 20
8.4584
 30
0.0
 10
-0.1364
 20
8.4584
 30
0.0
 10
-0.4831
 20
7.4412
 30
0.0
 10
-0.4831
 20
7.4412
 30
0.0
 10
-0.4831
 20
7.4412
 30
0.0
 10
-0.4831
 20
7.4412
 30
0.0
 10
-0.8545
 20
6.3744
 30
0.0
 10
-0.8545
 20
6.3744
 30
0.0
 10
-0.8545
 20
6.3744
 30
0.0
 10
-0.8545
 20
6.3744
 30
0.0
 10
-1.0278
 20
5.6052
 30
0.0
 10
-1.0278
 20
5.6052
 30
0.0
 10
-1.0278
 20
5.6052
 30
0.0
 10
-1.0278
 20
5.6052
 30
0.0
 10
-1.0773
 20
4.985
 30
0.0
 10
-1.0773
 20
4.985
 30
0.0
 10
-1.0773
 20
4.985
 30
0.0
 10
-1.0773
 20
4.985
 30
0.0
 10
-1.0526
 20
4.4391
 30
0.0
 10
-1.0526
 20
4.4391
 30
0.0
 10
-1.0526
 20
4.4391
 30
0.0
 10
-1.0526
 20
4.4391
 30
0.0
 10
-0.8792
 20
3.7692
 30
0.0
 10
-0.8792
 20
3.7692
 30
0.0
 10
-0.8792
 20
3.7692
 30
0.0
 10
-0.8792
 20
3.7692
 30
0.0
 10
-0.6564
 20
3.025
 30
0.0
 10
-0.6564
 20
3.025
 30
0.0
 10
-0.6564
 20
3.025
 30
0.0
 10
-0.6564
 20
3.025
 30
0.0
 10
-0.4089
 20
2.1565
 30
0.0
 10
-0.4089
 20
2.1565
 30
0.0
 10
-0.4089
 20
2.1565
 30
0.0
 10
-0.4089
 20
2.1565
 30
0.0
 10
-0.3345
 20
1.189
 30
0.0
 10
-0.3345
 20
1.189
 30
0.0
 10
-0.3345
 20
1.189
 30
0.0
 10
-0.3345
 20
1.189
 30
0.0
 10
-0.4089
 20
-0.002
 30
0.0
 10
-0.4089
 20
-0.002
 30
0.0
 10
-0.4089
 20
-0.002
 30
0.0
 10
-0.4089
 20
-0.002
 30
0.0
 10
-0.4089
 20
-1.2177
 30
0.0
 10
-0.4089
 20
-1.2177
 30
0.0
 10
-0.4089
 20
-1.2177
 30
0.0
 10
-0.4089
 20
-1.2177
 30
0.0
 10
-0.4336
 20
-2.1604
 30
0.0
 10
-0.4336
 20
-2.1604
 30
0.0
 10
-0.4336
 20
-2.1604
 30
0.0
 10
-0.4336
 20
-2.1604
 30
0.0
 10
-0.3097
 20
-2.4582
 30
0.0
 10
-0.3097
 20
-2.4582
 30
0.0
 10
-0.3097
 20
-2.4582
 30
0.0
 10
-0.3097
 20
-2.4582
 30
0.0
 10
-0.1611
 20
-2.7559
 30
0.0
 10
-0.1611
 20
-2.7559
 30
0.0
 10
-0.1611
 20
-2.7559
 30
0.0
 10
-0.1611
 20
-2.7559
 30
0.0
 10
0.0369
 20
-2.7559
 30
0.0
 10
0.0369
 20
-2.7559
 30
0.0
 10
0.0369
 20
-2.7559
 30
0.0
 10
0.0369
 20
-2.7559
 30
0.0
 10
1.7205
 20
-1.2921
 30
0.0
 10
1.7205
 20
-1.2921
 30
0.0
 10
1.7205
 20
-1.2921
 30
0.0
 10
1.7205
 20
-1.2921
 30
0.0
 10
2.7356
 20
-2.6815
 30
0.0
 10
2.7356
 20
-2.6815
 30
0.0
 10
2.7356
 20
-2.6815
 30
0.0
 10
2.7356
 20
-2.6815
 30
0.0
 10
2.8842
 20
-2.6319
 30
0.0
 10
2.8842
 20
-2.6319
 30
0.0
 10
2.8842
 20
-2.6319
 30
0.0
 10
2.8842
 20
-2.6319
 30
0.0
 10
4.5927
 20
-1.2672
 30
0.0
 10
4.5927
 20
-1.2672
 30
0.0
 10
4.5927
 20
-1.2672
 30
0.0
 10
4.5927
 20
-1.2672
 30
0.0
 10
5.5583
 20
-2.7062
 30
0.0
 10
5.5583
 20
-2.7062
 30
0.0
 10
5.5583
 20
-2.7062
 30
0.0
 10
5.5583
 20
-2.7062
 30
0.0
 10
5.7564
 20
-2.7062
 30
0.0
 10
5.7564
 20
-2.7062
 30
0.0
 10
5.7564
 20
-2.7062
 30
0.0
 10
5.7564
 20
-2.7062
 30
0.0
 10
7.3905
 20
-1.2921
 30
0.0
 10
7.3905
 20
-1.2921
 30
0.0
 10
7.3905
 20
-1.2921
 30
0.0
 10
7.3905
 20
-1.2921
 30
0.0
 10
8.3809
 20
-2.7311
 30
0.0
 10
8.3809
 20
-2.7311
 30
0.0
 10
8.3809
 20
-2.7311
 30
0.0
 10
8.3809
 20
-2.7311
 30
0.0
 10
8.5542
 20
-2.7062
 30
0.0
 10
8.5542
 20
-2.7062
 30
0.0
 10
8.5542
 20
-2.7062
 30
0.0
 10
8.5542
 20
-2.7062
 30
0.0
 10
10.2627
 20
-1.2177
 30
0.0
 10
10.2627
 20
-1.2177
 30
0.0
 10
10.2627
 20
-1.2177
 30
0.0
 10
10.2627
 20
-1.2177
 30
0.0
 10
11.2284
 20
-2.7311
 30
0.0
 10
11.2284
 20
-2.7311
 30
0.0
 10
11.2284
 20
-2.7311
 30
0.0
 10
11.2284
 20
-2.7311
 30
0.0
 10
11.4759
 20
-2.6566
 30
0.0
 10
11.4759
 20
-2.6566
 30
0.0
 10
11.4759
 20
-2.6566
 30
0.0
 10
11.4759
 20
-2.6566
 30
0.0
 10
13.0358
 20
-1.2921
 30
0.0
 10
13.0358
 20
-1.2921
 30
0.0
 10
13.0358
 20
-1.2921
 30
0.0
 10
13.0358
 20
-1.2921
 30
0.0
 10
14.0262
 20
-2.6815
 30
0.0
 10
14.0262
 20
-2.6815
 30
0.0
 10
14.0262
 20
-2.6815
 30
0.0
 10
14.0262
 20
-2.6815
 30
0.0
 10
14.2243
 20
-2.6815
 30
0.0
 10
14.2243
 20
-2.6815
 30
0.0
 10
14.2243
 20
-2.6815
 30
0.0
 10
14.2243
 20
-2.6815
 30
0.0
 10
15.8832
 20
-1.3169
 30
0.0
 10
15.8832
 20
-1.3169
 30
0.0
 10
15.8832
 20
-1.3169
 30
0.0
 10
15.8832
 20
-1.3169
 30
0.0
 10
16.9231
 20
-2.6319
 30
0.0
 10
16.9231
 20
-2.6319
 30
0.0
 10
16.9231
 20
-2.6319
 30
0.0
 10
16.9231
 20
-2.6319
 30
0.0
 10
17.0964
 20
-2.5822
 30
0.0
 10
17.0964
 20
-2.5822
 30
0.0
 10
17.0964
 20
-2.5822
 30
0.0
 10
17.0964
 20
-2.5822
 30
0.0
 10
18.8791
 20
-0.9199
 30
0.0
 10
18.8791
 20
-0.9199
 30
0.0
 10
18.8791
 20
-0.9199
 30
0.0
 10
18.8791
 20
-0.9199
 30
0.0
 10
23.7074
 20
-0.9448
 30
0.0
 10
23.7074
 20
-0.9448
 30
0.0
  0
SPLINE
  5
66
330
1F
100
AcDbEntity
  8
VRSTVA_1
 62
   250
100
AcDbSpline
210
0.0
220
0.0
230
1.0
 70
     8
 71
     3
 72
   152
 73
   148
 74
     0
 42
0.0000000001
 43
0.0000000001
 40
0.0
 40
0.0
 40
0.0
 40
0.0
 40
0.0263157894736842
 40
0.0263157894736842
 40
0.0263157894736842
 40
0.0263157894736842
 40
0.0526315789473684
 40
0.0526315789473684
 40
0.0526315789473684
 40
0.0526315789473684
 40
0.0789473684210526
 40
0.0789473684210526
 40
0.0789473684210526
 40
0.0789473684210526
 40
0.1052631578947368
 40
0.1052631578947368
 40
0.1052631578947368
 40
0.1052631578947368
 40
0.131578947368421
 40
0.131578947368421
 40
0.131578947368421
 40
0.131578947368421
 40
0.1578947368421053
 40
0.1578947368421053
 40
0.1578947368421053
 40
0.1578947368421053
 40
0.1842105263157895
 40
0.1842105263157895
 40
0.1842105263157895
 40
0.1842105263157895
 40
0.2105263157894737
 40
0.2105263157894737
 40
0.2105263157894737
 40
0.2105263157894737
 40
0.2368421052631579
 40
0.2368421052631579
 40
0.2368421052631579
 40
0.2368421052631579
 40
0.2631578947368421
 40
0.2631578947368421
 40
0.2631578947368421
 40
0.2631578947368421
 40
0.2894736842105263
 40
0.2894736842105263
 40
0.2894736842105263
 40
0.2894736842105263
 40
0.3157894736842105
 40
0.3157894736842105
 40
0.3157894736842105
 40
0.3157894736842105
 40
0.3421052631578947
 40
0.3421052631578947
 40
0.3421052631578947
 40
0.3421052631578947
 40
0.3684210526315789
 40
0.3684210526315789
 40
0.3684210526315789
 40
0.3684210526315789
 40
0.3947368421052632
 40
0.3947368421052632
 40
0.3947368421052632
 40
0.3947368421052632
 40
0.4210526315789473
 40
0.4210526315789473
 40
0.4210526315789473
 40
0.4210526315789473
 40
0.4473684210526316
 40
0.4473684210526316
 40
0.4473684210526316
 40
0.4473684210526316
 40
0.4736842105263158
 40
0.4736842105263158
 40
0.4736842105263158
 40
0.4736842105263158
 40
0.5
 40
0.5
 40
0.5
 40
0.5
 40
0.5263157894736842
 40
0.5263157894736842
 40
0.5263157894736842
 40
0.5263157894736842
 40
0.5526315789473685
 40
0.5526315789473685
 40
0.5526315789473685
 40
0.5526315789473685
 40
0.5789473684210527
 40
0.5789473684210527
 40
0.5789473684210527
 40
0.5789473684210527
 40
0.6052631578947368
 40
0.6052631578947368
 40
0.6052631578947368
 40
0.6052631578947368
 40
0.631578947368421
 40
0.631578947368421
 40
0.631578947368421
 40
0.631578947368421
 40
0.6578947368421053
 40
0.6578947368421053
 40
0.6578947368421053
 40
0.6578947368421053
 40
0.6842105263157895
 40
0.6842105263157895
 40
0.6842105263157895
 40
0.6842105263157895
 40
0.7105263157894737
 40
0.7105263157894737
 40
0.7105263157894737
 40
0.7105263157894737
 40
0.7368421052631579
 40
0.7368421052631579
 40
0.7368421052631579
 40
0.7368421052631579
 40
0.7631578947368421
 40
0.7631578947368421
 40
0.7631578947368421
 40
0.7631578947368421
 40
0.7894736842105263
 40
0.7894736842105263
 40
0.7894736842105263
 40
0.7894736842105263
 40
0.8157894736842105
 40
0.8157894736842105
 40
0.8157894736842105
 40
0.8157894736842105
 40
0.8421052631578947
 40
0.8421052631578947
 40
0.8421052631578947
 40
0.8421052631578947
 40
0.868421052631579
 40
0.868421052631579
 40
0.868421052631579
 40
0.868421052631579
 40
0.8947368421052632
 40
0.8947368421052632
 40
0.8947368421052632
 40
0.8947368421052632
 40
0.9210526315789473
 40
0.9210526315789473
 40
0.9210526315789473
 40
0.9210526315789473
 40
0.9473684210526315
 40
0.9473684210526315
 40
0.9473684210526315
 40
0.9473684210526315
 40
1.0
 40
1.0
 40
1.0
 40
1.0
 10
-19.4224
 20
-0.9694
 30
0.0
 10
-19.4224
 20
-0.9694
 30
0.0
 10
-14.7123
 20
-0.9172
 30
0.0
 10
-14.7123
 20
-0.9172
 30
0.0
 10
-14.7123
 20
-0.9172
 30
0.0
 10
-14.7123
 20
-0.9172
 30
0.0
 10
-12.9427
 20
-2.6382
 30
0.0
 10
-12.9427
 20
-2.6382
 30
0.0
 10
-12.9427
 20
-2.6382
 30
0.0
 10
-12.9427
 20
-2.6382
 30
0.0
 10
-12.8125
 20
-2.6644
 30
0.0
 10
-12.8125
 20
-2.6644
 30
0.0
 10
-12.8125
 20
-2.6644
 30
0.0
 10
-12.8125
 20
-2.6644
 30
0.0
 10
-11.1732
 20
-1.3083
 30
0.0
 10
-11.1732
 20
-1.3083
 30
0.0
 10
-11.1732
 20
-1.3083
 30
0.0
 10
-11.1732
 20
-1.3083
 30
0.0
 10
-10.1843
 20
-2.7686
 30
0.0
 10
-10.1843
 20
-2.7686
 30
0.0
 10
-10.1843
 20
-2.7686
 30
0.0
 10
-10.1843
 20
-2.7686
 30
0.0
 10
-10.0282
 20
-2.7686
 30
0.0
 10
-10.0282
 20
-2.7686
 30
0.0
 10
-10.0282
 20
-2.7686
 30
0.0
 10
-10.0282
 20
-2.7686
 30
0.0
 10
-8.3627
 20
-1.3866
 30
0.0
 10
-8.3627
 20
-1.3866
 30
0.0
 10
-8.3627
 20
-1.3866
 30
0.0
 10
-8.3627
 20
-1.3866
 30
0.0
 10
-7.3739
 20
-2.7164
 30
0.0
 10
-7.3739
 20
-2.7164
 30
0.0
 10
-7.3739
 20
-2.7164
 30
0.0
 10
-7.3739
 20
-2.7164
 30
0.0
 10
-7.1397
 20
-2.6644
 30
0.0
 10
-7.1397
 20
-2.6644
 30
0.0
 10
-7.1397
 20
-2.6644
 30
0.0
 10
-7.1397
 20
-2.6644
 30
0.0
 10
-5.5522
 20
-1.2823
 30
0.0
 10
-5.5522
 20
-1.2823
 30
0.0
 10
-5.5522
 20
-1.2823
 30
0.0
 10
-5.5522
 20
-1.2823
 30
0.0
 10
-4.6414
 20
-2.6904
 30
0.0
 10
-4.6414
 20
-2.6904
 30
0.0
 10
-4.6414
 20
-2.6904
 30
0.0
 10
-4.6414
 20
-2.6904
 30
0.0
 10
-4.4072
 20
-2.7686
 30
0.0
 10
-4.4072
 20
-2.7686
 30
0.0
 10
-4.4072
 20
-2.7686
 30
0.0
 10
-4.4072
 20
-2.7686
 30
0.0
 10
-2.7157
 20
-1.3345
 30
0.0
 10
-2.7157
 20
-1.3345
 30
0.0
 10
-2.7157
 20
-1.3345
 30
0.0
 10
-2.7157
 20
-1.3345
 30
0.0
 10
-2.2214
 20
-2.4035
 30
0.0
 10
-2.2214
 20
-2.4035
 30
0.0
 10
-2.2214
 20
-2.4035
 30
0.0
 10
-2.2214
 20
-2.4035
 30
0.0
 10
-1.9351
 20
-2.3775
 30
0.0
 10
-1.9351
 20
-2.3775
 30
0.0
 10
-1.9351
 20
-2.3775
 30
0.0
 10
-1.9351
 20
-2.3775
 30
0.0
 10
-1.9871
 20
-0.2653
 30
0.0
 10
-1.9871
 20
-0.2653
 30
0.0
 10
-1.9871
 20
-0.2653
 30
0.0
 10
-1.9871
 20
-0.2653
 30
0.0
 10
-2.0132
 20
1.221
 30
0.0
 10
-2.0132
 20
1.221
 30
0.0
 10
-2.0132
 20
1.221
 30
0.0
 10
-2.0132
 20
1.221
 30
0.0
 10
-2.2633
 20
3.1596
 30
0.0
 10
-2.2633
 20
3.1596
 30
0.0
 10
-2.2633
 20
3.1596
 30
0.0
 10
-2.2633
 20
3.1596
 30
0.0
 10
-2.6829
 20
4.3241
 30
0.0
 10
-2.6829
 20
4.3241
 30
0.0
 10
-2.6829
 20
4.3241
 30
0.0
 10
-2.6829
 20
4.3241
 30
0.0
 10
-2.7314
 20
5.1489
 30
0.0
 10
-2.7314
 20
5.1489
 30
0.0
 10
-2.7314
 20
5.1489
 30
0.0
 10
-2.7314
 20
5.1489
 30
0.0
 10
-2.5214
 20
6.0546
 30
0.0
 10
-2.5214
 20
6.0546
 30
0.0
 10
-2.5214
 20
6.0546
 30
0.0
 10
-2.5214
 20
6.0546
 30
0.0
 10
-1.5046
 20
9.0467
 30
0.0
 10
-1.5046
 20
9.0467
 30
0.0
 10
-1.5046
 20
9.0467
 30
0.0
 10
-1.5046
 20
9.0467
 30
0.0
 10
-1.6822
 20
9.0953
 30
0.0
 10
-1.6822
 20
9.0953
 30
0.0
 10
-1.6822
 20
9.0953
 30
0.0
 10
-1.6822
 20
9.0953
 30
0.0
 10
-2.7079
 20
7.6925
 30
0.0
 10
-2.7079
 20
7.6925
 30
0.0
 10
-2.7079
 20
7.6925
 30
0.0
 10
-2.7079
 20
7.6925
 30
0.0
 10
-4.3487
 20
9.0693
 30
0.0
 10
-4.3487
 20
9.0693
 30
0.0
 10
-4.3487
 20
9.0693
 30
0.0
 10
-4.3487
 20
9.0693
 30
0.0
 10
-4.5041
 20
9.0735
 30
0.0
 10
-4.5041
 20
9.0735
 30
0.0
 10
-4.5041
 20
9.0735
 30
0.0
 10
-4.5041
 20
9.0735
 30
0.0
 10
-5.5422
 20
7.7167
 30
0.0
 10
-5.5422
 20
7.7167
 30
0.0
 10
-5.5422
 20
7.7167
 30
0.0
 10
-5.5422
 20
7.7167
 30
0.0
 10
-7.1446
 20
9.0282
 30
0.0
 10
-7.1446
 20
9.0282
 30
0.0
 10
-7.1446
 20
9.0282
 30
0.0
 10
-7.1446
 20
9.0282
 30
0.0
 10
-7.3251
 20
9.0509
 30
0.0
 10
-7.3251
 20
9.0509
 30
0.0
 10
-7.3251
 20
9.0509
 30
0.0
 10
-7.3251
 20
9.0509
 30
0.0
 10
-8.2955
 20
7.7167
 30
0.0
 10
-8.2955
 20
7.7167
 30
0.0
 10
-8.2955
 20
7.7167
 30
0.0
 10
-8.2955
 20
7.7167
 30
0.0
 10
-10.0108
 20
9.1187
 30
0.0
 10
-10.0108
 20
9.1187
 30
0.0
 10
-10.0108
 20
9.1187
 30
0.0
 10
-10.0108
 20
9.1187
 30
0.0
 10
-10.1687
 20
9.1187
 30
0.0
 10
-10.1687
 20
9.1187
 30
0.0
 10
-10.1687
 20
9.1187
 30
0.0
 10
-10.1687
 20
9.1187
 30
0.0
 10
-11.1843
 20
7.7619
 30
0.0
 10
-11.1843
 20
7.7619
 30
0.0
 10
-11.1843
 20
7.7619
 30
0.0
 10
-11.1843
 20
7.7619
 30
0.0
 10
-12.7867
 20
9.0509
 30
0.0
 10
-12.7867
 20
9.0509
 30
0.0
 10
-12.7867
 20
9.0509
 30
0.0
 10
-12.7867
 20
9.0509
 30
0.0
 10
-12.9447
 20
9.0509
 30
0.0
 10
-12.9447
 20
9.0509
 30
0.0
 10
-12.9447
 20
9.0509
 30
0.0
 10
-12.9447
 20
9.0509
 30
0.0
 10
-14.6373
 20
7.3774
 30
0.0
 10
-14.6373
 20
7.3774
 30
0.0
 10
-14.6373
 20
7.3774
 30
0.0
 10
-14.6373
 20
7.3774
 30
0.0
 10
-19.5108
 20
7.3497
 30
0.0
 10
-19.5108
 20
7.3497
 30
0.0
  0
SPLINE
  5
67
330
1F
100
AcDbEntity
  8
VRSTVA_1
 62
   250
100
AcDbSpline
210
0.0
220
0.0
230
1.0
 70
    24
 71
     3
 72
     8
 73
     4
 74
     0
 42
0.0000000001
 43
0.0000000001
 40
0.0
 40
0.0
 40
0.0
 40
0.0
 40
1.0
 40
1.0
 40
1.0
 40
1.0
 10
-14.6233
 20
-0.9724
 30
0.0
 10
-14.6233
 20
-0.9724
 30
0.0
 10
-14.6233
 20
7.3587
 30
0.0
 10
-14.6233
 20
7.3587
 30
0.0
  0
SPLINE
  5
68
330
1F
100
AcDbEntity
  8
VRSTVA_1
 62
   250
100
AcDbSpline
210
0.0
220
0.0
230
1.0
 70
    24
 71
     3
 72
     8
 73
     4
 74
     0
 42
0.0000000001
 43
0.0000000001
 40
0.0
 40
0.0
 40
0.0
 40
0.0
 40
1.0
 40
1.0
 40
1.0
 40
1.0
 10
-12.8738
 20
-2.7219
 30
0.0
 10
-12.8738
 20
-2.7219
 30
0.0
 10
-12.8738
 20
9.1082
 30
0.0
 10
-12.8738
 20
9.1082
 30
0.0
  0
SPLINE
  5
69
330
1F
100
AcDbEntity
  8
VRSTVA_1
 62
   250
100
AcDbSpline
210
0.0
220
0.0
230
1.0
 70
    24
 71
     3
 72
     8
 73
     4
 74
     0
 42
0.0000000001
 43
0.0000000001
 40
0.0
 40
0.0
 40
0.0
 40
0.0
 40
1.0
 40
1.0
 40
1.0
 40
1.0
 10
-11.186
 20
-1.3056
 30
0.0
 10
-11.186
 20
-1.3056
 30
0.0
 10
-11.186
 20
7.6919
 30
0.0
 10
-11.186
 20
7.6919
 30
0.0
  0
SPLINE
  5
6A
330
1F
100
AcDbEntity
  8
VRSTVA_1
 62
   250
100
AcDbSpline
210
0.0
220
0.0
230
1.0
 70
    24
 71
     3
 72
     8
 73
     4
 74
     0
 42
0.0000000001
 43
0.0000000001
 40
0.0
 40
0.0
 40
0.0
 40
0.0
 40
1.0
 40
1.0
 40
1.0
 40
1.0
 10
-8.3597
 20
-1.3061
 30
0.0
 10
-8.3597
 20
-1.3061
 30
0.0
 10
-8.3597
 20
7.6925
 30
0.0
 10
-8.3597
 20
7.6925
 30
0.0
  0
SPLINE
  5
6B
330
1F
100
AcDbEntity
  8
VRSTVA_1
 62
   250
100
AcDbSpline
210
0.0
220
0.0
230
1.0
 70
    24
 71
     3
 72
     8
 73
     4
 74
     0
 42
0.0000000001
 43
0.0000000001
 40
0.0
 40
0.0
 40
0.0
 40
0.0
 40
1.0
 40
1.0
 40
1.0
 40
1.0
 10
-5.5338
 20
-1.3061
 30
0.0
 10
-5.5338
 20
-1.3061
 30
0.0
 10
-5.5338
 20
7.6925
 30
0.0
 10
-5.5338
 20
7.6925
 30
0.0
  0
SPLINE
  5
6C
330
1F
100
AcDbEntity
  8
VRSTVA_1
 62
   250
100
AcDbSpline
210
0.0
220
0.0
230
1.0
 70
    24
 71
     3
 72
     8
 73
     4
 74
     0
 42
0.0000000001
 43
0.0000000001
 40
0.0
 40
0.0
 40
0.0
 40
0.0
 40
1.0
 40
1.0
 40
1.0
 40
1.0
 10
-2.708
 20
-1.3061
 30
0.0
 10
-2.708
 20
-1.3061
 30
0.0
 10
-2.708
 20
7.6925
 30
0.0
 10
-2.708
 20
7.6925
 30
0.0
  0
SPLINE
  5
6D
330
1F
100
AcDbEntity
  8
VRSTVA_1
  6
NEW_LINE1
 62
   250
100
AcDbSpline
210
0.0
220
0.0
230
1.0
 70
    24
 71
     3
 72
     8
 73
     4
 74
     0
 42
0.0000000001
 43
0.0000000001
 40
0.0
 40
0.0
 40
0.0
 40
0.0
 40
1.0
 40
1.0
 40
1.0
 40
1.0
 10
-46.117
 20
3.1932
 30
0.0
 10
-46.117
 20
3.1932
 30
0.0
 10
51.8536
 20
3.1932
 30
0.0
 10
51.8536
 20
3.1932
 30
0.0
  0
SPLINE
  5
6F
330
1F
100
AcDbEntity
  8
VRSTVA_1
 62
   250
100
AcDbSpline
210
0.0
220
0.0
230
1.0
 70
     8
 71
     3
 72
    92
 73
    88
 74
     0
 42
0.0000000001
 43
0.0000000001
 40
0.0
 40
0.0
 40
0.0
 40
0.0
 40
0.0434782608695652
 40
0.0434782608695652
 40
0.0434782608695652
 40
0.0434782608695652
 40
0.0869565217391304
 40
0.0869565217391304
 40
0.0869565217391304
 40
0.0869565217391304
 40
0.1304347826086956
 40
0.1304347826086956
 40
0.1304347826086956
 40
0.1304347826086956
 40
0.1739130434782609
 40
0.1739130434782609
 40
0.1739130434782609
 40
0.1739130434782609
 40
0.2173913043478261
 40
0.2173913043478261
 40
0.2173913043478261
 40
0.2173913043478261
 40
0.2608695652173913
 40
0.2608695652173913
 40
0.2608695652173913
 40
0.2608695652173913
 40
0.3043478260869565
 40
0.3043478260869565
 40
0.3043478260869565
 40
0.3043478260869565
 40
0.3478260869565217
 40
0.3478260869565217
 40
0.3478260869565217
 40
0.3478260869565217
 40
0.391304347826087
 40
0.391304347826087
 40
0.391304347826087
 40
0.391304347826087
 40
0.4347826086956522
 40
0.4347826086956522
 40
0.4347826086956522
 40
0.4347826086956522
 40
0.4782608695652174
 40
0.4782608695652174
 40
0.4782608695652174
 40
0.4782608695652174
 40
0.5217391304347826
 40
0.5217391304347826
 40
0.5217391304347826
 40
0.5217391304347826
 40
0.5652173913043478
 40
0.5652173913043478
 40
0.5652173913043478
 40
0.5652173913043478
 40
0.6086956521739131
 40
0.6086956521739131
 40
0.6086956521739131
 40
0.6086956521739131
 40
0.6521739130434783
 40
0.6521739130434783
 40
0.6521739130434783
 40
0.6521739130434783
 40
0.6956521739130435
 40
0.6956521739130435
 40
0.6956521739130435
 40
0.6956521739130435
 40
0.7391304347826086
 40
0.7391304347826086
 40
0.7391304347826086
 40
0.7391304347826086
 40
0.782608695652174
 40
0.782608695652174
 40
0.782608695652174
 40
0.782608695652174
 40
0.8260869565217391
 40
0.8260869565217391
 40
0.8260869565217391
 40
0.8260869565217391
 40
0.8695652173913043
 40
0.8695652173913043
 40
0.8695652173913043
 40
0.8695652173913043
 40
0.9130434782608695
 40
0.9130434782608695
 40
0.9130434782608695
 40
0.9130434782608695
 40
1.0
 40
1.0
 40
1.0
 40
1.0
 10
23.7863
 20
8.0251
 30
0.0
 10
23.7863
 20
8.0251
 30
0.0
 10
23.9544
 20
8.3123
 30
0.0
 10
23.9544
 20
8.3123
 30
0.0
 10
23.9544
 20
8.3123
 30
0.0
 10
23.9544
 20
8.3123
 30
0.0
 10
24.2272
 20
8.453
 30
0.0
 10
24.2272
 20
8.453
 30
0.0
 10
24.2272
 20
8.453
 30
0.0
 10
24.2272
 20
8.453
 30
0.0
 10
24.461
 20
8.4742
 30
0.0
 10
24.461
 20
8.4742
 30
0.0
 10
24.461
 20
8.4742
 30
0.0
 10
24.461
 20
8.4742
 30
0.0
 10
33.727
 20
8.5169
 30
0.0
 10
33.727
 20
8.5169
 30
0.0
 10
33.727
 20
8.5169
 30
0.0
 10
33.727
 20
8.5169
 30
0.0
 10
33.7057
 20
9.0493
 30
0.0
 10
33.7057
 20
9.0493
 30
0.0
 10
33.7057
 20
9.0493
 30
0.0
 10
33.7057
 20
9.0493
 30
0.0
 10
24.376
 20
9.0066
 30
0.0
 10
24.376
 20
9.0066
 30
0.0
 10
24.376
 20
9.0066
 30
0.0
 10
24.376
 20
9.0066
 30
0.0
 10
24.0572
 20
8.9214
 30
0.0
 10
24.0572
 20
8.9214
 30
0.0
 10
24.0572
 20
8.9214
 30
0.0
 10
24.0572
 20
8.9214
 30
0.0
 10
23.8659
 20
8.7085
 30
0.0
 10
23.8659
 20
8.7085
 30
0.0
 10
23.8659
 20
8.7085
 30
0.0
 10
23.8659
 20
8.7085
 30
0.0
 10
23.7809
 20
8.4103
 30
0.0
 10
23.7809
 20
8.4103
 30
0.0
 10
23.7809
 20
8.4103
 30
0.0
 10
23.7809
 20
8.4103
 30
0.0
 10
23.7797
 20
-1.9604
 30
0.0
 10
23.7797
 20
-1.9604
 30
0.0
 10
23.7797
 20
-1.9604
 30
0.0
 10
23.7797
 20
-1.9604
 30
0.0
 10
23.8017
 20
-2.1296
 30
0.0
 10
23.8017
 20
-2.1296
 30
0.0
 10
23.8017
 20
-2.1296
 30
0.0
 10
23.8017
 20
-2.1296
 30
0.0
 10
23.8699
 20
-2.29
 30
0.0
 10
23.8699
 20
-2.29
 30
0.0
 10
23.8699
 20
-2.29
 30
0.0
 10
23.8699
 20
-2.29
 30
0.0
 10
23.9766
 20
-2.4255
 30
0.0
 10
23.9766
 20
-2.4255
 30
0.0
 10
23.9766
 20
-2.4255
 30
0.0
 10
23.9766
 20
-2.4255
 30
0.0
 10
24.1138
 20
-2.5289
 30
0.0
 10
24.1138
 20
-2.5289
 30
0.0
 10
24.1138
 20
-2.5289
 30
0.0
 10
24.1138
 20
-2.5289
 30
0.0
 10
24.2767
 20
-2.5943
 30
0.0
 10
24.2767
 20
-2.5943
 30
0.0
 10
24.2767
 20
-2.5943
 30
0.0
 10
24.2767
 20
-2.5943
 30
0.0
 10
24.4459
 20
-2.6147
 30
0.0
 10
24.4459
 20
-2.6147
 30
0.0
 10
24.4459
 20
-2.6147
 30
0.0
 10
24.4459
 20
-2.6147
 30
0.0
 10
33.657
 20
-2.6384
 30
0.0
 10
33.657
 20
-2.6384
 30
0.0
 10
33.657
 20
-2.6384
 30
0.0
 10
33.657
 20
-2.6384
 30
0.0
 10
33.6845
 20
-2.0457
 30
0.0
 10
33.6845
 20
-2.0457
 30
0.0
 10
33.6845
 20
-2.0457
 30
0.0
 10
33.6845
 20
-2.0457
 30
0.0
 10
24.5035
 20
-2.1096
 30
0.0
 10
24.5035
 20
-2.1096
 30
0.0
 10
24.5035
 20
-2.1096
 30
0.0
 10
24.5035
 20
-2.1096
 30
0.0
 10
24.2429
 20
-2.1042
 30
0.0
 10
24.2429
 20
-2.1042
 30
0.0
 10
24.2429
 20
-2.1042
 30
0.0
 10
24.2429
 20
-2.1042
 30
0.0
 10
24.0066
 20
-1.9587
 30
0.0
 10
24.0066
 20
-1.9587
 30
0.0
 10
24.0066
 20
-1.9587
 30
0.0
 10
24.0066
 20
-1.9587
 30
0.0
 10
23.8
 20
-1.6123
 30
0.0
 10
23.8
 20
-1.6123
 30
0.0
  0
SPLINE
  5
70
330
1F
100
AcDbEntity
  8
VRSTVA_1
 62
   250
100
AcDbSpline
210
0.0
220
0.0
230
1.0
 70
     8
 71
     3
 72
    48
 73
    44
 74
     0
 42
0.0000000001
 43
0.0000000001
 40
0.0
 40
0.0
 40
0.0
 40
0.0
 40
0.0833333333333333
 40
0.0833333333333333
 40
0.0833333333333333
 40
0.0833333333333333
 40
0.1666666666666667
 40
0.1666666666666667
 40
0.1666666666666667
 40
0.1666666666666667
 40
0.25
 40
0.25
 40
0.25
 40
0.25
 40
0.3333333333333333
 40
0.3333333333333333
 40
0.3333333333333333
 40
0.3333333333333333
 40
0.4166666666666667
 40
0.4166666666666667
 40
0.4166666666666667
 40
0.4166666666666667
 40
0.5
 40
0.5
 40
0.5
 40
0.5
 40
0.5833333333333334
 40
0.5833333333333334
 40
0.5833333333333334
 40
0.5833333333333334
 40
0.6666666666666666
 40
0.6666666666666666
 40
0.6666666666666666
 40
0.6666666666666666
 40
0.75
 40
0.75
 40
0.75
 40
0.75
 40
0.8333333333333334
 40
0.8333333333333334
 40
0.8333333333333334
 40
0.8333333333333334
 40
1.0
 40
1.0
 40
1.0
 40
1.0
 10
23.7797
 20
1.1363
 30
0.0
 10
23.7797
 20
1.1363
 30
0.0
 10
23.8017
 20
1.091
 30
0.0
 10
23.8017
 20
1.091
 30
0.0
 10
23.8017
 20
1.091
 30
0.0
 10
23.8017
 20
1.091
 30
0.0
 10
23.8707
 20
1.0472
 30
0.0
 10
23.8707
 20
1.0472
 30
0.0
 10
23.8707
 20
1.0472
 30
0.0
 10
23.8707
 20
1.0472
 30
0.0
 10
23.9766
 20
1.0106
 30
0.0
 10
23.9766
 20
1.0106
 30
0.0
 10
23.9766
 20
1.0106
 30
0.0
 10
23.9766
 20
1.0106
 30
0.0
 10
24.1145
 20
0.983
 30
0.0
 10
24.1145
 20
0.983
 30
0.0
 10
24.1145
 20
0.983
 30
0.0
 10
24.1145
 20
0.983
 30
0.0
 10
24.2767
 20
0.9657
 30
0.0
 10
24.2767
 20
0.9657
 30
0.0
 10
24.2767
 20
0.9657
 30
0.0
 10
24.2767
 20
0.9657
 30
0.0
 10
24.4459
 20
0.96
 30
0.0
 10
24.4459
 20
0.96
 30
0.0
 10
24.4459
 20
0.96
 30
0.0
 10
24.4459
 20
0.96
 30
0.0
 10
33.6461
 20
0.9143
 30
0.0
 10
33.6461
 20
0.9143
 30
0.0
 10
33.6461
 20
0.9143
 30
0.0
 10
33.6461
 20
0.9143
 30
0.0
 10
33.6677
 20
2.7319
 30
0.0
 10
33.6677
 20
2.7319
 30
0.0
 10
33.6677
 20
2.7319
 30
0.0
 10
33.6677
 20
2.7319
 30
0.0
 10
24.2959
 20
2.6888
 30
0.0
 10
24.2959
 20
2.6888
 30
0.0
 10
24.2959
 20
2.6888
 30
0.0
 10
24.2959
 20
2.6888
 30
0.0
 10
24.0799
 20
2.6888
 30
0.0
 10
24.0799
 20
2.6888
 30
0.0
 10
24.0799
 20
2.6888
 30
0.0
 10
24.0799
 20
2.6888
 30
0.0
 10
23.7992
 20
2.8185
 30
0.0
 10
23.7992
 20
2.8185
 30
0.0
  0
SPLINE
  5
71
330
1F
100
AcDbEntity
  8
VRSTVA_1
 62
   250
100
AcDbSpline
210
0.0
220
0.0
230
1.0
 70
     8
 71
     3
 72
    56
 73
    52
 74
     0
 42
0.0000000001
 43
0.0000000001
 40
0.0
 40
0.0
 40
0.0
 40
0.0
 40
0.0714285714285714
 40
0.0714285714285714
 40
0.0714285714285714
 40
0.0714285714285714
 40
0.1428571428571428
 40
0.1428571428571428
 40
0.1428571428571428
 40
0.1428571428571428
 40
0.2142857142857143
 40
0.2142857142857143
 40
0.2142857142857143
 40
0.2142857142857143
 40
0.2857142857142857
 40
0.2857142857142857
 40
0.2857142857142857
 40
0.2857142857142857
 40
0.3571428571428572
 40
0.3571428571428572
 40
0.3571428571428572
 40
0.3571428571428572
 40
0.4285714285714285
 40
0.4285714285714285
 40
0.4285714285714285
 40
0.4285714285714285
 40
0.5
 40
0.5
 40
0.5
 40
0.5
 40
0.5714285714285714
 40
0.5714285714285714
 40
0.5714285714285714
 40
0.5714285714285714
 40
0.6428571428571429
 40
0.6428571428571429
 40
0.6428571428571429
 40
0.6428571428571429
 40
0.7142857142857143
 40
0.7142857142857143
 40
0.7142857142857143
 40
0.7142857142857143
 40
0.7857142857142857
 40
0.7857142857142857
 40
0.7857142857142857
 40
0.7857142857142857
 40
0.8571428571428571
 40
0.8571428571428571
 40
0.8571428571428571
 40
0.8571428571428571
 40
1.0
 40
1.0
 40
1.0
 40
1.0
 10
23.7797
 20
6.8807
 30
0.0
 10
23.7797
 20
6.8807
 30
0.0
 10
23.8017
 20
7.0059
 30
0.0
 10
23.8017
 20
7.0059
 30
0.0
 10
23.8017
 20
7.0059
 30
0.0
 10
23.8017
 20
7.0059
 30
0.0
 10
23.8707
 20
7.1242
 30
0.0
 10
23.8707
 20
7.1242
 30
0.0
 10
23.8707
 20
7.1242
 30
0.0
 10
23.8707
 20
7.1242
 30
0.0
 10
23.9766
 20
7.2238
 30
0.0
 10
23.9766
 20
7.2238
 30
0.0
 10
23.9766
 20
7.2238
 30
0.0
 10
23.9766
 20
7.2238
 30
0.0
 10
24.1145
 20
7.2994
 30
0.0
 10
24.1145
 20
7.2994
 30
0.0
 10
24.1145
 20
7.2994
 30
0.0
 10
24.1145
 20
7.2994
 30
0.0
 10
24.2767
 20
7.3471
 30
0.0
 10
24.2767
 20
7.3471
 30
0.0
 10
24.2767
 20
7.3471
 30
0.0
 10
24.2767
 20
7.3471
 30
0.0
 10
24.4459
 20
7.363
 30
0.0
 10
24.4459
 20
7.363
 30
0.0
 10
24.4459
 20
7.363
 30
0.0
 10
24.4459
 20
7.363
 30
0.0
 10
33.6927
 20
7.3517
 30
0.0
 10
33.6927
 20
7.3517
 30
0.0
 10
33.6927
 20
7.3517
 30
0.0
 10
33.6927
 20
7.3517
 30
0.0
 10
33.6927
 20
6.5926
 30
0.0
 10
33.6927
 20
6.5926
 30
0.0
 10
33.6927
 20
6.5926
 30
0.0
 10
33.6927
 20
6.5926
 30
0.0
 10
24.4286
 20
6.558
 30
0.0
 10
24.4286
 20
6.558
 30
0.0
 10
24.4286
 20
6.558
 30
0.0
 10
24.4286
 20
6.558
 30
0.0
 10
24.1359
 20
6.5063
 30
0.0
 10
24.1359
 20
6.5063
 30
0.0
 10
24.1359
 20
6.5063
 30
0.0
 10
24.1359
 20
6.5063
 30
0.0
 10
23.9636
 20
6.42
 30
0.0
 10
23.9636
 20
6.42
 30
0.0
 10
23.9636
 20
6.42
 30
0.0
 10
23.9636
 20
6.42
 30
0.0
 10
23.8602
 20
6.2819
 30
0.0
 10
23.8602
 20
6.2819
 30
0.0
 10
23.8602
 20
6.2819
 30
0.0
 10
23.8602
 20
6.2819
 30
0.0
 10
23.7914
 20
6.0577
 30
0.0
 10
23.7914
 20
6.0577
 30
0.0
  0
SPLINE
  5
72
330
1F
100
AcDbEntity
  8
VRSTVA_1
 62
   250
100
AcDbSpline
210
0.0
220
0.0
230
1.0
 70
     8
 71
     3
 72
    52
 73
    48
 74
     0
 42
0.0000000001
 43
0.0000000001
 40
0.0
 40
0.0
 40
0.0
 40
0.0
 40
0.0769230769230769
 40
0.0769230769230769
 40
0.0769230769230769
 40
0.0769230769230769
 40
0.1538461538461539
 40
0.1538461538461539
 40
0.1538461538461539
 40
0.1538461538461539
 40
0.2307692307692308
 40
0.2307692307692308
 40
0.2307692307692308
 40
0.2307692307692308
 40
0.3076923076923077
 40
0.3076923076923077
 40
0.3076923076923077
 40
0.3076923076923077
 40
0.3846153846153846
 40
0.3846153846153846
 40
0.3846153846153846
 40
0.3846153846153846
 40
0.4615384615384616
 40
0.4615384615384616
 40
0.4615384615384616
 40
0.4615384615384616
 40
0.5384615384615384
 40
0.5384615384615384
 40
0.5384615384615384
 40
0.5384615384615384
 40
0.6153846153846154
 40
0.6153846153846154
 40
0.6153846153846154
 40
0.6153846153846154
 40
0.6923076923076923
 40
0.6923076923076923
 40
0.6923076923076923
 40
0.6923076923076923
 40
0.7692307692307693
 40
0.7692307692307693
 40
0.7692307692307693
 40
0.7692307692307693
 40
0.8461538461538461
 40
0.8461538461538461
 40
0.8461538461538461
 40
0.8461538461538461
 40
1.0
 40
1.0
 40
1.0
 40
1.0
 10
23.7797
 20
-0.4946
 30
0.0
 10
23.7797
 20
-0.4946
 30
0.0
 10
23.8017
 20
-0.6194
 30
0.0
 10
23.8017
 20
-0.6194
 30
0.0
 10
23.8017
 20
-0.6194
 30
0.0
 10
23.8017
 20
-0.6194
 30
0.0
 10
23.8707
 20
-0.7382
 30
0.0
 10
23.8707
 20
-0.7382
 30
0.0
 10
23.8707
 20
-0.7382
 30
0.0
 10
23.8707
 20
-0.7382
 30
0.0
 10
23.9766
 20
-0.8371
 30
0.0
 10
23.9766
 20
-0.8371
 30
0.0
 10
23.9766
 20
-0.8371
 30
0.0
 10
23.9766
 20
-0.8371
 30
0.0
 10
24.1145
 20
-0.9137
 30
0.0
 10
24.1145
 20
-0.9137
 30
0.0
 10
24.1145
 20
-0.9137
 30
0.0
 10
24.1145
 20
-0.9137
 30
0.0
 10
24.2767
 20
-0.9613
 30
0.0
 10
24.2767
 20
-0.9613
 30
0.0
 10
24.2767
 20
-0.9613
 30
0.0
 10
24.2767
 20
-0.9613
 30
0.0
 10
24.4459
 20
-0.9765
 30
0.0
 10
24.4459
 20
-0.9765
 30
0.0
 10
24.4459
 20
-0.9765
 30
0.0
 10
24.4459
 20
-0.9765
 30
0.0
 10
33.6997
 20
-0.9754
 30
0.0
 10
33.6997
 20
-0.9754
 30
0.0
 10
33.6997
 20
-0.9754
 30
0.0
 10
33.6997
 20
-0.9754
 30
0.0
 10
33.6807
 20
0.4519
 30
0.0
 10
33.6807
 20
0.4519
 30
0.0
 10
33.6807
 20
0.4519
 30
0.0
 10
33.6807
 20
0.4519
 30
0.0
 10
24.2986
 20
0.4138
 30
0.0
 10
24.2986
 20
0.4138
 30
0.0
 10
24.2986
 20
0.4138
 30
0.0
 10
24.2986
 20
0.4138
 30
0.0
 10
24.0892
 20
0.4899
 30
0.0
 10
24.0892
 20
0.4899
 30
0.0
 10
24.0892
 20
0.4899
 30
0.0
 10
24.0892
 20
0.4899
 30
0.0
 10
23.8799
 20
0.6612
 30
0.0
 10
23.8799
 20
0.6612
 30
0.0
 10
23.8799
 20
0.6612
 30
0.0
 10
23.8799
 20
0.6612
 30
0.0
 10
23.7467
 20
0.9276
 30
0.0
 10
23.7467
 20
0.9276
 30
0.0
  0
SPLINE
  5
73
330
1F
100
AcDbEntity
  8
VRSTVA_1
 62
   250
100
AcDbSpline
210
0.0
220
0.0
230
1.0
 70
     8
 71
     3
 72
    48
 73
    44
 74
     0
 42
0.0000000001
 43
0.0000000001
 40
0.0
 40
0.0
 40
0.0
 40
0.0
 40
0.0833333333333333
 40
0.0833333333333333
 40
0.0833333333333333
 40
0.0833333333333333
 40
0.1666666666666667
 40
0.1666666666666667
 40
0.1666666666666667
 40
0.1666666666666667
 40
0.25
 40
0.25
 40
0.25
 40
0.25
 40
0.3333333333333333
 40
0.3333333333333333
 40
0.3333333333333333
 40
0.3333333333333333
 40
0.4166666666666667
 40
0.4166666666666667
 40
0.4166666666666667
 40
0.4166666666666667
 40
0.5
 40
0.5
 40
0.5
 40
0.5
 40
0.5833333333333334
 40
0.5833333333333334
 40
0.5833333333333334
 40
0.5833333333333334
 40
0.6666666666666666
 40
0.6666666666666666
 40
0.6666666666666666
 40
0.6666666666666666
 40
0.75
 40
0.75
 40
0.75
 40
0.75
 40
0.8333333333333334
 40
0.8333333333333334
 40
0.8333333333333334
 40
0.8333333333333334
 40
1.0
 40
1.0
 40
1.0
 40
1.0
 10
23.7797
 20
5.25
 30
0.0
 10
23.7797
 20
5.25
 30
0.0
 10
23.8017
 20
5.2952
 30
0.0
 10
23.8017
 20
5.2952
 30
0.0
 10
23.8017
 20
5.2952
 30
0.0
 10
23.8017
 20
5.2952
 30
0.0
 10
23.8707
 20
5.3386
 30
0.0
 10
23.8707
 20
5.3386
 30
0.0
 10
23.8707
 20
5.3386
 30
0.0
 10
23.8707
 20
5.3386
 30
0.0
 10
23.9766
 20
5.3754
 30
0.0
 10
23.9766
 20
5.3754
 30
0.0
 10
23.9766
 20
5.3754
 30
0.0
 10
23.9766
 20
5.3754
 30
0.0
 10
24.1145
 20
5.4033
 30
0.0
 10
24.1145
 20
5.4033
 30
0.0
 10
24.1145
 20
5.4033
 30
0.0
 10
24.1145
 20
5.4033
 30
0.0
 10
24.2767
 20
5.4205
 30
0.0
 10
24.2767
 20
5.4205
 30
0.0
 10
24.2767
 20
5.4205
 30
0.0
 10
24.2767
 20
5.4205
 30
0.0
 10
24.4459
 20
5.4263
 30
0.0
 10
24.4459
 20
5.4263
 30
0.0
 10
24.4459
 20
5.4263
 30
0.0
 10
24.4459
 20
5.4263
 30
0.0
 10
33.6997
 20
5.3998
 30
0.0
 10
33.6997
 20
5.3998
 30
0.0
 10
33.6997
 20
5.3998
 30
0.0
 10
33.6997
 20
5.3998
 30
0.0
 10
33.6807
 20
3.6871
 30
0.0
 10
33.6807
 20
3.6871
 30
0.0
 10
33.6807
 20
3.6871
 30
0.0
 10
33.6807
 20
3.6871
 30
0.0
 10
24.2225
 20
3.7061
 30
0.0
 10
24.2225
 20
3.7061
 30
0.0
 10
24.2225
 20
3.7061
 30
0.0
 10
24.2225
 20
3.7061
 30
0.0
 10
23.956
 20
3.6871
 30
0.0
 10
23.956
 20
3.6871
 30
0.0
 10
23.956
 20
3.6871
 30
0.0
 10
23.956
 20
3.6871
 30
0.0
 10
23.7657
 20
3.5539
 30
0.0
 10
23.7657
 20
3.5539
 30
0.0
  0
SPLINE
  5
74
330
1F
100
AcDbEntity
  8
VRSTVA_1
 62
   250
100
AcDbSpline
210
0.0
220
0.0
230
1.0
 70
     8
 71
     3
 72
    32
 73
    28
 74
     0
 42
0.0000000001
 43
0.0000000001
 40
0.0
 40
0.0
 40
0.0
 40
0.0
 40
0.125
 40
0.125
 40
0.125
 40
0.125
 40
0.25
 40
0.25
 40
0.25
 40
0.25
 40
0.375
 40
0.375
 40
0.375
 40
0.375
 40
0.5
 40
0.5
 40
0.5
 40
0.5
 40
0.625
 40
0.625
 40
0.625
 40
0.625
 40
0.75
 40
0.75
 40
0.75
 40
0.75
 40
1.0
 40
1.0
 40
1.0
 40
1.0
 10
34.2828
 20
9.6811
 30
0.0
 10
34.2828
 20
9.6811
 30
0.0
 10
34.3345
 20
-3.5114
 30
0.0
 10
34.3345
 20
-3.5114
 30
0.0
 10
34.3345
 20
-3.5114
 30
0.0
 10
34.3345
 20
-3.5114
 30
0.0
 10
33.7171
 20
-2.9303
 30
0.0
 10
33.7171
 20
-2.9303
 30
0.0
 10
33.7171
 20
-2.9303
 30
0.0
 10
33.7171
 20
-2.9303
 30
0.0
 10
33.7171
 20
9.3084
 30
0.0
 10
33.7171
 20
9.3084
 30
0.0
 10
33.7171
 20
9.3084
 30
0.0
 10
33.7171
 20
9.3084
 30
0.0
 10
34.2982
 20
9.8532
 30
0.0
 10
34.2982
 20
9.8532
 30
0.0
 10
34.2982
 20
9.8532
 30
0.0
 10
34.2982
 20
9.8532
 30
0.0
 10
52.105
 20
9.8581
 30
0.0
 10
52.105
 20
9.8581
 30
0.0
 10
52.105
 20
9.8581
 30
0.0
 10
52.105
 20
9.8581
 30
0.0
 10
52.105
 20
-3.4716
 30
0.0
 10
52.105
 20
-3.4716
 30
0.0
 10
52.105
 20
-3.4716
 30
0.0
 10
52.105
 20
-3.4716
 30
0.0
 10
34.3502
 20
-3.5146
 30
0.0
 10
34.3502
 20
-3.5146
 30
0.0
  0
SPLINE
  5
75
330
1F
100
AcDbEntity
  8
VRSTVA_1
 62
   250
100
AcDbSpline
210
0.0
220
0.0
230
1.0
 70
    24
 71
     3
 72
     8
 73
     4
 74
     0
 42
0.0000000001
 43
0.0000000001
 40
0.0
 40
0.0
 40
0.0
 40
0.0
 40
1.0
 40
1.0
 40
1.0
 40
1.0
 10
45.0812
 20
-11.1036
 30
0.0
 10
45.0812
 20
-11.1036
 30
0.0
 10
45.0812
 20
14.2914
 30
0.0
 10
45.0812
 20
14.2914
 30
0.0
  0
SPLINE
  5
76
330
1F
100
AcDbEntity
  8
VRSTVA_1
 62
   250
100
AcDbSpline
210
0.0
220
0.0
230
1.0
 70
    11
 71
     3
 72
    20
 73
    16
 74
     0
 42
0.0000000001
 43
0.0000000001
 40
0.0
 40
0.0
 40
0.0
 40
0.0
 40
0.2
 40
0.2
 40
0.2
 40
0.2
 40
0.4
 40
0.4
 40
0.4
 40
0.4
 40
0.6
 40
0.6
 40
0.6
 40
0.6
 40
1.0
 40
1.0
 40
1.0
 40
1.0
 10
44.6145
 20
-6.5341
 30
0.0
 10
44.6145
 20
-6.5341
 30
0.0
 10
45.0378
 20
-3.5341
 30
0.0
 10
45.0378
 20
-3.5341
 30
0.0
 10
45.0378
 20
-3.5341
 30
0.0
 10
45.0378
 20
-3.5341
 30
0.0
 10
45.1318
 20
-3.5341
 30
0.0
 10
45.1318
 20
-3.5341
 30
0.0
 10
45.1318
 20
-3.5341
 30
0.0
 10
45.1318
 20
-3.5341
 30
0.0
 10
45.5832
 20
-6.5341
 30
0.0
 10
45.5832
 20
-6.5341
 30
0.0
 10
45.5832
 20
-6.5341
 30
0.0
 10
45.5832
 20
-6.5341
 30
0.0
 10
44.6145
 20
-6.5341
 30
0.0
 10
44.6145
 20
-6.5341
 30
0.0
  0
SPLINE
  5
77
330
1F
100
AcDbEntity
  8
VRSTVA_1
 62
   250
100
AcDbSpline
210
0.0
220
0.0
230
1.0
 70
    11
 71
     3
 72
    84
 73
    80
 74
     0
 42
0.0000000001
 43
0.0000000001
 40
0.0
 40
0.0
 40
0.0
 40
0.0
 40
0.0476190476190476
 40
0.0476190476190476
 40
0.0476190476190476
 40
0.0476190476190476
 40
0.0952380952380952
 40
0.0952380952380952
 40
0.0952380952380952
 40
0.0952380952380952
 40
0.1428571428571428
 40
0.1428571428571428
 40
0.1428571428571428
 40
0.1428571428571428
 40
0.1904761904761905
 40
0.1904761904761905
 40
0.1904761904761905
 40
0.1904761904761905
 40
0.2380952380952381
 40
0.2380952380952381
 40
0.2380952380952381
 40
0.2380952380952381
 40
0.2857142857142857
 40
0.2857142857142857
 40
0.2857142857142857
 40
0.2857142857142857
 40
0.3333333333333333
 40
0.3333333333333333
 40
0.3333333333333333
 40
0.3333333333333333
 40
0.3809523809523809
 40
0.3809523809523809
 40
0.3809523809523809
 40
0.3809523809523809
 40
0.4285714285714285
 40
0.4285714285714285
 40
0.4285714285714285
 40
0.4285714285714285
 40
0.4761904761904762
 40
0.4761904761904762
 40
0.4761904761904762
 40
0.4761904761904762
 40
0.5238095238095238
 40
0.5238095238095238
 40
0.5238095238095238
 40
0.5238095238095238
 40
0.5714285714285714
 40
0.5714285714285714
 40
0.5714285714285714
 40
0.5714285714285714
 40
0.6190476190476191
 40
0.6190476190476191
 40
0.6190476190476191
 40
0.6190476190476191
 40
0.6666666666666666
 40
0.6666666666666666
 40
0.6666666666666666
 40
0.6666666666666666
 40
0.7142857142857143
 40
0.7142857142857143
 40
0.7142857142857143
 40
0.7142857142857143
 40
0.7619047619047619
 40
0.7619047619047619
 40
0.7619047619047619
 40
0.7619047619047619
 40
0.8095238095238095
 40
0.8095238095238095
 40
0.8095238095238095
 40
0.8095238095238095
 40
0.8571428571428571
 40
0.8571428571428571
 40
0.8571428571428571
 40
0.8571428571428571
 40
0.9047619047619048
 40
0.9047619047619048
 40
0.9047619047619048
 40
0.9047619047619048
 40
1.0
 40
1.0
 40
1.0
 40
1.0
 10
42.4276
 20
-9.2469
 30
0.0
 10
42.4276
 20
-9.2469
 30
0.0
 10
42.1692
 20
-9.0147
 30
0.0
 10
42.1692
 20
-9.0147
 30
0.0
 10
42.1692
 20
-9.0147
 30
0.0
 10
42.1692
 20
-9.0147
 30
0.0
 10
42.2853
 20
-8.8787
 30
0.0
 10
42.2853
 20
-8.8787
 30
0.0
 10
42.2853
 20
-8.8787
 30
0.0
 10
42.2853
 20
-8.8787
 30
0.0
 10
42.5574
 20
-9.1217
 30
0.0
 10
42.5574
 20
-9.1217
 30
0.0
 10
42.5574
 20
-9.1217
 30
0.0
 10
42.6752
 20
-9.043
 30
0.0
 10
42.7784
 20
-8.9902
 30
0.0
 10
42.8663
 20
-8.9627
 30
0.0
 10
42.8663
 20
-8.9627
 30
0.0
 10
42.9823
 20
-8.9264
 30
0.0
 10
43.1121
 20
-8.9084
 30
0.0
 10
43.2551
 20
-8.9089
 30
0.0
 10
43.2551
 20
-8.9089
 30
0.0
 10
43.462
 20
-8.9095
 30
0.0
 10
43.6463
 20
-8.9519
 30
0.0
 10
43.8073
 20
-9.0361
 30
0.0
 10
43.8073
 20
-9.0361
 30
0.0
 10
43.969
 20
-9.1203
 30
0.0
 10
44.0908
 20
-9.2378
 30
0.0
 10
44.1732
 20
-9.389
 30
0.0
 10
44.1732
 20
-9.389
 30
0.0
 10
44.255
 20
-9.5408
 30
0.0
 10
44.2959
 20
-9.7012
 30
0.0
 10
44.2954
 20
-9.871
 30
0.0
 10
44.2954
 20
-9.871
 30
0.0
 10
44.295
 20
-9.998
 30
0.0
 10
44.2769
 20
-10.1128
 30
0.0
 10
44.2408
 20
-10.2156
 30
0.0
 10
44.2408
 20
-10.2156
 30
0.0
 10
44.2128
 20
-10.2946
 30
0.0
 10
44.1599
 20
-10.3866
 30
0.0
 10
44.0815
 20
-10.4923
 30
0.0
 10
44.0815
 20
-10.4923
 30
0.0
 10
44.0815
 20
-10.4923
 30
0.0
 10
44.34
 20
-10.7244
 30
0.0
 10
44.34
 20
-10.7244
 30
0.0
 10
44.34
 20
-10.7244
 30
0.0
 10
44.34
 20
-10.7244
 30
0.0
 10
44.2238
 20
-10.8605
 30
0.0
 10
44.2238
 20
-10.8605
 30
0.0
 10
44.2238
 20
-10.8605
 30
0.0
 10
44.2238
 20
-10.8605
 30
0.0
 10
43.9532
 20
-10.617
 30
0.0
 10
43.9532
 20
-10.617
 30
0.0
 10
43.9532
 20
-10.617
 30
0.0
 10
43.816
 20
-10.7069
 30
0.0
 10
43.6987
 20
-10.7667
 30
0.0
 10
43.6017
 20
-10.7965
 30
0.0
 10
43.6017
 20
-10.7965
 30
0.0
 10
43.5047
 20
-10.8263
 30
0.0
 10
43.388
 20
-10.8415
 30
0.0
 10
43.2521
 20
-10.8411
 30
0.0
 10
43.2521
 20
-10.8411
 30
0.0
 10
43.0447
 20
-10.8405
 30
0.0
 10
42.8599
 20
-10.7985
 30
0.0
 10
42.6979
 20
-10.7153
 30
0.0
 10
42.6979
 20
-10.7153
 30
0.0
 10
42.5358
 20
-10.632
 30
0.0
 10
42.4135
 20
-10.516
 30
0.0
 10
42.3302
 20
-10.3661
 30
0.0
 10
42.3302
 20
-10.3661
 30
0.0
 10
42.2474
 20
-10.2168
 30
0.0
 10
42.206
 20
-10.0505
 30
0.0
 10
42.2065
 20
-9.8676
 30
0.0
 10
42.2065
 20
-9.8676
 30
0.0
 10
42.2069
 20
-9.7443
 30
0.0
 10
42.2232
 20
-9.6367
 30
0.0
 10
42.2565
 20
-9.5446
 30
0.0
 10
42.2565
 20
-9.5446
 30
0.0
 10
42.2892
 20
-9.4525
 30
0.0
 10
42.3464
 20
-9.3529
 30
0.0
 10
42.4276
 20
-9.2469
 30
0.0
  0
SPLINE
  5
78
330
1F
100
AcDbEntity
  8
VRSTVA_1
 62
   250
100
AcDbSpline
210
0.0
220
0.0
230
1.0
 70
    11
 71
     3
 72
    32
 73
    28
 74
     0
 42
0.0000000001
 43
0.0000000001
 40
0.0
 40
0.0
 40
0.0
 40
0.0
 40
0.125
 40
0.125
 40
0.125
 40
0.125
 40
0.25
 40
0.25
 40
0.25
 40
0.25
 40
0.375
 40
0.375
 40
0.375
 40
0.375
 40
0.5
 40
0.5
 40
0.5
 40
0.5
 40
0.625
 40
0.625
 40
0.625
 40
0.625
 40
0.75
 40
0.75
 40
0.75
 40
0.75
 40
1.0
 40
1.0
 40
1.0
 40
1.0
 10
42.6129
 20
-9.4125
 30
0.0
 10
42.5449
 20
-9.4989
 30
0.0
 10
42.4981
 20
-9.5745
 30
0.0
 10
42.473
 20
-9.6388
 30
0.0
 10
42.473
 20
-9.6388
 30
0.0
 10
42.4483
 20
-9.7037
 30
0.0
 10
42.4354
 20
-9.7798
 30
0.0
 10
42.4351
 20
-9.8669
 30
0.0
 10
42.4351
 20
-9.8669
 30
0.0
 10
42.4345
 20
-10.0682
 30
0.0
 10
42.5022
 20
-10.2344
 30
0.0
 10
42.6382
 20
-10.3665
 30
0.0
 10
42.6382
 20
-10.3665
 30
0.0
 10
42.7743
 20
-10.4982
 30
0.0
 10
42.9777
 20
-10.5646
 30
0.0
 10
43.2491
 20
-10.5655
 30
0.0
 10
43.2491
 20
-10.5655
 30
0.0
 10
43.3554
 20
-10.5658
 30
0.0
 10
43.4501
 20
-10.5558
 30
0.0
 10
43.5329
 20
-10.5357
 30
0.0
 10
43.5329
 20
-10.5357
 30
0.0
 10
43.5946
 20
-10.5213
 30
0.0
 10
43.6704
 20
-10.491
 30
0.0
 10
43.7603
 20
-10.4442
 30
0.0
 10
43.7603
 20
-10.4442
 30
0.0
 10
43.7603
 20
-10.4442
 30
0.0
 10
42.6129
 20
-9.4125
 30
0.0
 10
42.6129
 20
-9.4125
 30
0.0
  0
SPLINE
  5
79
330
1F
100
AcDbEntity
  8
VRSTVA_1
 62
   250
100
AcDbSpline
210
0.0
220
0.0
230
1.0
 70
    11
 71
     3
 72
    28
 73
    24
 74
     0
 42
0.0000000001
 43
0.0000000001
 40
0.0
 40
0.0
 40
0.0
 40
0.0
 40
0.1428571428571428
 40
0.1428571428571428
 40
0.1428571428571428
 40
0.1428571428571428
 40
0.2857142857142857
 40
0.2857142857142857
 40
0.2857142857142857
 40
0.2857142857142857
 40
0.4285714285714285
 40
0.4285714285714285
 40
0.4285714285714285
 40
0.4285714285714285
 40
0.5714285714285714
 40
0.5714285714285714
 40
0.5714285714285714
 40
0.5714285714285714
 40
0.7142857142857143
 40
0.7142857142857143
 40
0.7142857142857143
 40
0.7142857142857143
 40
1.0
 40
1.0
 40
1.0
 40
1.0
 10
42.7553
 20
-9.3001
 30
0.0
 10
42.7553
 20
-9.3001
 30
0.0
 10
43.8985
 20
-10.3275
 30
0.0
 10
43.8985
 20
-10.3275
 30
0.0
 10
43.8985
 20
-10.3275
 30
0.0
 10
43.9566
 20
-10.2572
 30
0.0
 10
43.9973
 20
-10.1919
 30
0.0
 10
44.0204
 20
-10.1322
 30
0.0
 10
44.0204
 20
-10.1322
 30
0.0
 10
44.0513
 20
-10.0543
 30
0.0
 10
44.0665
 20
-9.9696
 30
0.0
 10
44.0668
 20
-9.8788
 30
0.0
 10
44.0668
 20
-9.8788
 30
0.0
 10
44.0674
 20
-9.6784
 30
0.0
 10
43.9974
 20
-9.5131
 30
0.0
 10
43.8562
 20
-9.382
 30
0.0
 10
43.8562
 20
-9.382
 30
0.0
 10
43.715
 20
-9.2513
 30
0.0
 10
43.5167
 20
-9.1853
 30
0.0
 10
43.2613
 20
-9.1845
 30
0.0
 10
43.2613
 20
-9.1845
 30
0.0
 10
43.0704
 20
-9.1839
 30
0.0
 10
42.9014
 20
-9.2224
 30
0.0
 10
42.7553
 20
-9.3001
 30
0.0
  0
SPLINE
  5
7A
330
1F
100
AcDbEntity
  8
VRSTVA_1
 62
   250
100
AcDbSpline
210
0.0
220
0.0
230
1.0
 70
    11
 71
     3
 72
    48
 73
    44
 74
     0
 42
0.0000000001
 43
0.0000000001
 40
0.0
 40
0.0
 40
0.0
 40
0.0
 40
0.0833333333333333
 40
0.0833333333333333
 40
0.0833333333333333
 40
0.0833333333333333
 40
0.1666666666666667
 40
0.1666666666666667
 40
0.1666666666666667
 40
0.1666666666666667
 40
0.25
 40
0.25
 40
0.25
 40
0.25
 40
0.3333333333333333
 40
0.3333333333333333
 40
0.3333333333333333
 40
0.3333333333333333
 40
0.4166666666666667
 40
0.4166666666666667
 40
0.4166666666666667
 40
0.4166666666666667
 40
0.5
 40
0.5
 40
0.5
 40
0.5
 40
0.5833333333333334
 40
0.5833333333333334
 40
0.5833333333333334
 40
0.5833333333333334
 40
0.6666666666666666
 40
0.6666666666666666
 40
0.6666666666666666
 40
0.6666666666666666
 40
0.75
 40
0.75
 40
0.75
 40
0.75
 40
0.8333333333333334
 40
0.8333333333333334
 40
0.8333333333333334
 40
0.8333333333333334
 40
1.0
 40
1.0
 40
1.0
 40
1.0
 10
44.2671
 20
-7.8677
 30
0.0
 10
44.2671
 20
-7.8677
 30
0.0
 10
43.7836
 20
-7.8663
 30
0.0
 10
43.7836
 20
-7.8663
 30
0.0
 10
43.7836
 20
-7.8663
 30
0.0
 10
43.7836
 20
-7.8663
 30
0.0
 10
43.781
 20
-8.7426
 30
0.0
 10
43.781
 20
-8.7426
 30
0.0
 10
43.781
 20
-8.7426
 30
0.0
 10
43.781
 20
-8.7426
 30
0.0
 10
43.5533
 20
-8.7419
 30
0.0
 10
43.5533
 20
-8.7419
 30
0.0
 10
43.5533
 20
-8.7419
 30
0.0
 10
43.5533
 20
-8.7419
 30
0.0
 10
42.2471
 20
-7.8159
 30
0.0
 10
42.2471
 20
-7.8159
 30
0.0
 10
42.2471
 20
-7.8159
 30
0.0
 10
42.2471
 20
-7.8159
 30
0.0
 10
42.2477
 20
-7.6132
 30
0.0
 10
42.2477
 20
-7.6132
 30
0.0
 10
42.2477
 20
-7.6132
 30
0.0
 10
42.2477
 20
-7.6132
 30
0.0
 10
43.5567
 20
-7.6172
 30
0.0
 10
43.5567
 20
-7.6172
 30
0.0
 10
43.5567
 20
-7.6172
 30
0.0
 10
43.5567
 20
-7.6172
 30
0.0
 10
43.5575
 20
-7.3444
 30
0.0
 10
43.5575
 20
-7.3444
 30
0.0
 10
43.5575
 20
-7.3444
 30
0.0
 10
43.5575
 20
-7.3444
 30
0.0
 10
43.7852
 20
-7.3451
 30
0.0
 10
43.7852
 20
-7.3451
 30
0.0
 10
43.7852
 20
-7.3451
 30
0.0
 10
43.7852
 20
-7.3451
 30
0.0
 10
43.7844
 20
-7.6179
 30
0.0
 10
43.7844
 20
-7.6179
 30
0.0
 10
43.7844
 20
-7.6179
 30
0.0
 10
43.7844
 20
-7.6179
 30
0.0
 10
44.2679
 20
-7.6193
 30
0.0
 10
44.2679
 20
-7.6193
 30
0.0
 10
44.2679
 20
-7.6193
 30
0.0
 10
44.2679
 20
-7.6193
 30
0.0
 10
44.2671
 20
-7.8677
 30
0.0
 10
44.2671
 20
-7.8677
 30
0.0
  0
SPLINE
  5
7B
330
1F
100
AcDbEntity
  8
VRSTVA_1
 62
   250
100
AcDbSpline
210
0.0
220
0.0
230
1.0
 70
    11
 71
     3
 72
    16
 73
    12
 74
     0
 42
0.0000000001
 43
0.0000000001
 40
0.0
 40
0.0
 40
0.0
 40
0.0
 40
0.25
 40
0.25
 40
0.25
 40
0.25
 40
0.5
 40
0.5
 40
0.5
 40
0.5
 40
1.0
 40
1.0
 40
1.0
 40
1.0
 10
43.5559
 20
-7.8656
 30
0.0
 10
43.5559
 20
-7.8656
 30
0.0
 10
42.6453
 20
-7.8628
 30
0.0
 10
42.6453
 20
-7.8628
 30
0.0
 10
42.6453
 20
-7.8628
 30
0.0
 10
42.6453
 20
-7.8628
 30
0.0
 10
43.554
 20
-8.4977
 30
0.0
 10
43.554
 20
-8.4977
 30
0.0
 10
43.554
 20
-8.4977
 30
0.0
 10
43.554
 20
-8.4977
 30
0.0
 10
43.5559
 20
-7.8656
 30
0.0
 10
43.5559
 20
-7.8656
 30
0.0
  0
SPLINE
  5
7C
330
1F
100
AcDbEntity
  8
VRSTVA_1
 62
   250
100
AcDbSpline
210
0.0
220
0.0
230
1.0
 70
    11
 71
     3
 72
    52
 73
    48
 74
     0
 42
0.0000000001
 43
0.0000000001
 40
0.0
 40
0.0
 40
0.0
 40
0.0
 40
0.0769230769230769
 40
0.0769230769230769
 40
0.0769230769230769
 40
0.0769230769230769
 40
0.1538461538461539
 40
0.1538461538461539
 40
0.1538461538461539
 40
0.1538461538461539
 40
0.2307692307692308
 40
0.2307692307692308
 40
0.2307692307692308
 40
0.2307692307692308
 40
0.3076923076923077
 40
0.3076923076923077
 40
0.3076923076923077
 40
0.3076923076923077
 40
0.3846153846153846
 40
0.3846153846153846
 40
0.3846153846153846
 40
0.3846153846153846
 40
0.4615384615384616
 40
0.4615384615384616
 40
0.4615384615384616
 40
0.4615384615384616
 40
0.5384615384615384
 40
0.5384615384615384
 40
0.5384615384615384
 40
0.5384615384615384
 40
0.6153846153846154
 40
0.6153846153846154
 40
0.6153846153846154
 40
0.6153846153846154
 40
0.6923076923076923
 40
0.6923076923076923
 40
0.6923076923076923
 40
0.6923076923076923
 40
0.7692307692307693
 40
0.7692307692307693
 40
0.7692307692307693
 40
0.7692307692307693
 40
0.8461538461538461
 40
0.8461538461538461
 40
0.8461538461538461
 40
0.8461538461538461
 40
1.0
 40
1.0
 40
1.0
 40
1.0
 10
43.2733
 20
-7.09
 30
0.0
 10
43.0343
 20
-7.0893
 30
0.0
 10
42.842
 20
-7.0642
 30
0.0
 10
42.6968
 20
-7.0144
 30
0.0
 10
42.6968
 20
-7.0144
 30
0.0
 10
42.5511
 20
-6.9651
 30
0.0
 10
42.439
 20
-6.8913
 30
0.0
 10
42.3602
 20
-6.7942
 30
0.0
 10
42.3602
 20
-6.7942
 30
0.0
 10
42.2815
 20
-6.697
 30
0.0
 10
42.2423
 20
-6.5751
 30
0.0
 10
42.2428
 20
-6.4284
 30
0.0
 10
42.2428
 20
-6.4284
 30
0.0
 10
42.2431
 20
-6.3197
 30
0.0
 10
42.2655
 20
-6.2248
 30
0.0
 10
42.3095
 20
-6.1431
 30
0.0
 10
42.3095
 20
-6.1431
 30
0.0
 10
42.353
 20
-6.0614
 30
0.0
 10
42.4163
 20
-5.9942
 30
0.0
 10
42.4987
 20
-5.9409
 30
0.0
 10
42.4987
 20
-5.9409
 30
0.0
 10
42.5812
 20
-5.888
 30
0.0
 10
42.6815
 20
-5.8464
 30
0.0
 10
42.7996
 20
-5.8167
 30
0.0
 10
42.7996
 20
-5.8167
 30
0.0
 10
42.9178
 20
-5.7864
 30
0.0
 10
43.0768
 20
-5.7719
 30
0.0
 10
43.2772
 20
-5.7725
 30
0.0
 10
43.2772
 20
-5.7725
 30
0.0
 10
43.5142
 20
-5.7732
 30
0.0
 10
43.7052
 20
-5.7982
 30
0.0
 10
43.8508
 20
-5.8472
 30
0.0
 10
43.8508
 20
-5.8472
 30
0.0
 10
43.9965
 20
-5.8965
 30
0.0
 10
44.1086
 20
-5.9697
 30
0.0
 10
44.1879
 20
-6.0669
 30
0.0
 10
44.1879
 20
-6.0669
 30
0.0
 10
44.2671
 20
-6.164
 30
0.0
 10
44.3062
 20
-6.2864
 30
0.0
 10
44.3058
 20
-6.4346
 30
0.0
 10
44.3058
 20
-6.4346
 30
0.0
 10
44.3052
 20
-6.6293
 30
0.0
 10
44.2351
 20
-6.782
 30
0.0
 10
44.0951
 20
-6.8926
 30
0.0
 10
44.0951
 20
-6.8926
 30
0.0
 10
43.9268
 20
-7.0252
 30
0.0
 10
43.6524
 20
-7.0912
 30
0.0
 10
43.2733
 20
-7.09
 30
0.0
  0
SPLINE
  5
7D
330
1F
100
AcDbEntity
  8
VRSTVA_1
 62
   250
100
AcDbSpline
210
0.0
220
0.0
230
1.0
 70
    11
 71
     3
 72
    36
 73
    32
 74
     0
 42
0.0000000001
 43
0.0000000001
 40
0.0
 40
0.0
 40
0.0
 40
0.0
 40
0.1111111111111111
 40
0.1111111111111111
 40
0.1111111111111111
 40
0.1111111111111111
 40
0.2222222222222222
 40
0.2222222222222222
 40
0.2222222222222222
 40
0.2222222222222222
 40
0.3333333333333333
 40
0.3333333333333333
 40
0.3333333333333333
 40
0.3333333333333333
 40
0.4444444444444444
 40
0.4444444444444444
 40
0.4444444444444444
 40
0.4444444444444444
 40
0.5555555555555556
 40
0.5555555555555556
 40
0.5555555555555556
 40
0.5555555555555556
 40
0.6666666666666666
 40
0.6666666666666666
 40
0.6666666666666666
 40
0.6666666666666666
 40
0.7777777777777778
 40
0.7777777777777778
 40
0.7777777777777778
 40
0.7777777777777778
 40
1.0
 40
1.0
 40
1.0
 40
1.0
 10
43.274
 20
-6.835
 30
0.0
 10
43.6056
 20
-6.836
 30
0.0
 10
43.8264
 20
-6.7977
 30
0.0
 10
43.9366
 20
-6.7204
 30
0.0
 10
43.9366
 20
-6.7204
 30
0.0
 10
44.0464
 20
-6.6431
 30
0.0
 10
44.1018
 20
-6.5478
 30
0.0
 10
44.1022
 20
-6.434
 30
0.0
 10
44.1022
 20
-6.434
 30
0.0
 10
44.1025
 20
-6.3197
 30
0.0
 10
44.0473
 20
-6.224
 30
0.0
 10
43.9374
 20
-6.1461
 30
0.0
 10
43.9374
 20
-6.1461
 30
0.0
 10
43.8276
 20
-6.0682
 30
0.0
 10
43.6071
 20
-6.0284
 30
0.0
 10
43.2765
 20
-6.0274
 30
0.0
 10
43.2765
 20
-6.0274
 30
0.0
 10
42.9439
 20
-6.0264
 30
0.0
 10
42.7227
 20
-6.0649
 30
0.0
 10
42.6133
 20
-6.1421
 30
0.0
 10
42.6133
 20
-6.1421
 30
0.0
 10
42.5035
 20
-6.2194
 30
0.0
 10
42.4487
 20
-6.3156
 30
0.0
 10
42.4484
 20
-6.4313
 30
0.0
 10
42.4484
 20
-6.4313
 30
0.0
 10
42.448
 20
-6.5456
 30
0.0
 10
42.4961
 20
-6.6366
 30
0.0
 10
42.5923
 20
-6.7051
 30
0.0
 10
42.5923
 20
-6.7051
 30
0.0
 10
42.7149
 20
-6.7905
 30
0.0
 10
42.9424
 20
-6.834
 30
0.0
 10
43.274
 20
-6.835
 30
0.0
  0
SPLINE
  5
7E
330
1F
100
AcDbEntity
  8
VRSTVA_1
 62
   250
100
AcDbSpline
210
0.0
220
0.0
230
1.0
 70
    11
 71
     3
 72
    20
 73
    16
 74
     0
 42
0.0000000001
 43
0.0000000001
 40
0.0
 40
0.0
 40
0.0
 40
0.0
 40
0.2
 40
0.2
 40
0.2
 40
0.2
 40
0.4
 40
0.4
 40
0.4
 40
0.4
 40
0.6
 40
0.6
 40
0.6
 40
0.6
 40
1.0
 40
1.0
 40
1.0
 40
1.0
 10
45.5576
 20
13.0143
 30
0.0
 10
45.5576
 20
13.0143
 30
0.0
 10
45.1343
 20
10.0143
 30
0.0
 10
45.1343
 20
10.0143
 30
0.0
 10
45.1343
 20
10.0143
 30
0.0
 10
45.1343
 20
10.0143
 30
0.0
 10
45.0402
 20
10.0143
 30
0.0
 10
45.0402
 20
10.0143
 30
0.0
 10
45.0402
 20
10.0143
 30
0.0
 10
45.0402
 20
10.0143
 30
0.0
 10
44.5888
 20
13.0143
 30
0.0
 10
44.5888
 20
13.0143
 30
0.0
 10
44.5888
 20
13.0143
 30
0.0
 10
44.5888
 20
13.0143
 30
0.0
 10
45.5576
 20
13.0143
 30
0.0
 10
45.5576
 20
13.0143
 30
0.0
  0
SPLINE
  5
7F
330
1F
100
AcDbEntity
  8
VRSTVA_1
 62
   250
100
AcDbSpline
210
0.0
220
0.0
230
1.0
 70
    11
 71
     3
 72
    20
 73
    16
 74
     0
 42
0.0000000001
 43
0.0000000001
 40
0.0
 40
0.0
 40
0.0
 40
0.0
 40
0.2
 40
0.2
 40
0.2
 40
0.2
 40
0.4
 40
0.4
 40
0.4
 40
0.4
 40
0.6
 40
0.6
 40
0.6
 40
0.6
 40
1.0
 40
1.0
 40
1.0
 40
1.0
 10
-36.1113
 20
10.7226
 30
0.0
 10
-36.1113
 20
10.7226
 30
0.0
 10
-35.1853
 20
10.7226
 30
0.0
 10
-35.1853
 20
10.7226
 30
0.0
 10
-35.1853
 20
10.7226
 30
0.0
 10
-35.1853
 20
10.7226
 30
0.0
 10
-35.1853
 20
-4.588
 30
0.0
 10
-35.1853
 20
-4.588
 30
0.0
 10
-35.1853
 20
-4.588
 30
0.0
 10
-35.1853
 20
-4.588
 30
0.0
 10
-36.1113
 20
-4.588
 30
0.0
 10
-36.1113
 20
-4.588
 30
0.0
 10
-36.1113
 20
-4.588
 30
0.0
 10
-36.1113
 20
-4.588
 30
0.0
 10
-36.1113
 20
10.7226
 30
0.0
 10
-36.1113
 20
10.7226
 30
0.0
  0
SPLINE
  5
80
330
1F
100
AcDbEntity
  8
VRSTVA_1
100
AcDbSpline
210
0.0
220
0.0
230
1.0
 70
     8
 71
     3
 72
    12
 73
     8
 74
     0
 42
0.0000000001
 43
0.0000000001
 40
0.0
 40
0.0
 40
0.0
 40
0.0
 40
0.3333333333333333
 40
0.3333333333333333
 40
0.3333333333333333
 40
0.3333333333333333
 40
1.0
 40
1.0
 40
1.0
 40
1.0
 10
-23.7043
 20
6.8895
 30
0.0
 10
-23.7043
 20
7.1175
 30
0.0
 10
-23.8891
 20
7.3017
 30
0.0
 10
-24.116
 20
7.3017
 30
0.0
 10
-24.116
 20
7.3017
 30
0.0
 10
-24.3428
 20
7.3017
 30
0.0
 10
-35.1237
 20
7.2893
 30
0.0
 10
-35.1237
 20
7.2893
 30
0.0
  0
SPLINE
  5
81
330
1F
100
AcDbEntity
  8
VRSTVA_1
100
AcDbSpline
210
0.0
220
0.0
230
1.0
 70
     8
 71
     3
 72
    32
 73
    28
 74
     0
 42
0.0000000001
 43
0.0000000001
 40
0.0
 40
0.0
 40
0.0
 40
0.0
 40
0.125
 40
0.125
 40
0.125
 40
0.125
 40
0.25
 40
0.25
 40
0.25
 40
0.25
 40
0.375
 40
0.375
 40
0.375
 40
0.375
 40
0.5
 40
0.5
 40
0.5
 40
0.5
 40
0.625
 40
0.625
 40
0.625
 40
0.625
 40
0.75
 40
0.75
 40
0.75
 40
0.75
 40
1.0
 40
1.0
 40
1.0
 40
1.0
 10
-23.6733
 20
1.87
 30
0.0
 10
-23.6733
 20
1.87
 30
0.0
 10
-23.6867
 20
1.8433
 30
0.0
 10
-23.6867
 20
1.8433
 30
0.0
 10
-23.6867
 20
1.8433
 30
0.0
 10
-23.6867
 20
1.8433
 30
0.0
 10
-23.7295
 20
1.819
 30
0.0
 10
-23.7295
 20
1.819
 30
0.0
 10
-23.7295
 20
1.819
 30
0.0
 10
-23.7295
 20
1.819
 30
0.0
 10
-23.7928
 20
1.7962
 30
0.0
 10
-23.7928
 20
1.7962
 30
0.0
 10
-23.7928
 20
1.7962
 30
0.0
 10
-23.7928
 20
1.7962
 30
0.0
 10
-23.8794
 20
1.7803
 30
0.0
 10
-23.8794
 20
1.7803
 30
0.0
 10
-23.8794
 20
1.7803
 30
0.0
 10
-23.8794
 20
1.7803
 30
0.0
 10
-23.9815
 20
1.7688
 30
0.0
 10
-23.9815
 20
1.7688
 30
0.0
 10
-23.9815
 20
1.7688
 30
0.0
 10
-23.9815
 20
1.7688
 30
0.0
 10
-24.0851
 20
1.7659
 30
0.0
 10
-24.0851
 20
1.7659
 30
0.0
 10
-24.0851
 20
1.7659
 30
0.0
 10
-24.0851
 20
1.7659
 30
0.0
 10
-35.0927
 20
1.7219
 30
0.0
 10
-35.0927
 20
1.7219
 30
0.0
  0
SPLINE
  5
82
330
1F
100
AcDbEntity
  8
VRSTVA_1
100
AcDbSpline
210
0.0
220
0.0
230
1.0
 70
    24
 71
     3
 72
     8
 73
     4
 74
     0
 42
0.0000000001
 43
0.0000000001
 40
0.0
 40
0.0
 40
0.0
 40
0.0
 40
1.0
 40
1.0
 40
1.0
 40
1.0
 10
-38.3864
 20
-3.2755
 30
0.0
 10
-38.3864
 20
-3.2755
 30
0.0
 10
-36.0339
 20
-3.2755
 30
0.0
 10
-36.0339
 20
-3.2755
 30
0.0
  0
SPLINE
  5
83
330
1F
100
AcDbEntity
  8
VRSTVA_1
100
AcDbSpline
210
0.0
220
0.0
230
1.0
 70
     8
 71
     3
 72
    16
 73
    12
 74
     0
 42
0.0000000001
 43
0.0000000001
 40
0.0
 40
0.0
 40
0.0
 40
0.0
 40
0.25
 40
0.25
 40
0.25
 40
0.25
 40
0.5
 40
0.5
 40
0.5
 40
0.5
 40
1.0
 40
1.0
 40
1.0
 40
1.0
 10
-23.6733
 20
-2.4514
 30
0.0
 10
-23.6733
 20
-2.4514
 30
0.0
 10
-19.5528
 20
-2.4514
 30
0.0
 10
-19.5528
 20
-2.4514
 30
0.0
 10
-19.5528
 20
-2.4514
 30
0.0
 10
-19.5528
 20
-2.4514
 30
0.0
 10
-19.5355
 20
8.7121
 30
0.0
 10
-19.5355
 20
8.7121
 30
0.0
 10
-19.5355
 20
8.7121
 30
0.0
 10
-19.5355
 20
8.7121
 30
0.0
 10
-23.6101
 20
8.6811
 30
0.0
 10
-23.6101
 20
8.6811
 30
0.0
  0
SPLINE
  5
84
330
1F
100
AcDbEntity
  8
VRSTVA_1
100
AcDbSpline
210
0.0
220
0.0
230
1.0
 70
    24
 71
     3
 72
     8
 73
     4
 74
     0
 42
0.0000000001
 43
0.0000000001
 40
0.0
 40
0.0
 40
0.0
 40
0.0
 40
1.0
 40
1.0
 40
1.0
 40
1.0
 10
-38.5854
 20
9.4981
 30
0.0
 10
-38.5854
 20
9.4981
 30
0.0
 10
-36.0339
 20
9.4981
 30
0.0
 10
-36.0339
 20
9.4981
 30
0.0
  0
SPLINE
  5
85
330
1F
100
AcDbEntity
  8
VRSTVA_1
100
AcDbSpline
210
0.0
220
0.0
230
1.0
 70
    24
 71
     3
 72
     8
 73
     4
 74
     0
 42
0.0000000001
 43
0.0000000001
 40
0.0
 40
0.0
 40
0.0
 40
0.0
 40
1.0
 40
1.0
 40
1.0
 40
1.0
 10
-24.0854
 20
9.9925
 30
0.0
 10
-24.0854
 20
9.9925
 30
0.0
 10
-35.2109
 20
9.9925
 30
0.0
 10
-35.2109
 20
9.9925
 30
0.0
  0
SPLINE
  5
86
330
1F
100
AcDbEntity
  8
VRSTVA_1
100
AcDbSpline
210
0.0
220
0.0
230
1.0
 70
     8
 71
     3
 72
    12
 73
     8
 74
     0
 42
0.0000000001
 43
0.0000000001
 40
0.0
 40
0.0
 40
0.0
 40
0.0
 40
0.3333333333333333
 40
0.3333333333333333
 40
0.3333333333333333
 40
0.3333333333333333
 40
1.0
 40
1.0
 40
1.0
 40
1.0
 10
-23.6733
 20
9.0857
 30
0.0
 10
-23.6733
 20
9.3136
 30
0.0
 10
-23.8582
 20
9.4979
 30
0.0
 10
-24.0851
 20
9.4979
 30
0.0
 10
-24.0851
 20
9.4979
 30
0.0
 10
-24.3119
 20
9.4979
 30
0.0
 10
-35.0927
 20
9.4854
 30
0.0
 10
-35.0927
 20
9.4854
 30
0.0
  0
SPLINE
  5
87
330
1F
100
AcDbEntity
  8
VRSTVA_1
100
AcDbSpline
210
0.0
220
0.0
230
1.0
 70
     8
 71
     3
 72
    52
 73
    48
 74
     0
 42
0.0000000001
 43
0.0000000001
 40
0.0
 40
0.0
 40
0.0
 40
0.0
 40
0.0769230769230769
 40
0.0769230769230769
 40
0.0769230769230769
 40
0.0769230769230769
 40
0.1538461538461539
 40
0.1538461538461539
 40
0.1538461538461539
 40
0.1538461538461539
 40
0.2307692307692308
 40
0.2307692307692308
 40
0.2307692307692308
 40
0.2307692307692308
 40
0.3076923076923077
 40
0.3076923076923077
 40
0.3076923076923077
 40
0.3076923076923077
 40
0.3846153846153846
 40
0.3846153846153846
 40
0.3846153846153846
 40
0.3846153846153846
 40
0.4615384615384616
 40
0.4615384615384616
 40
0.4615384615384616
 40
0.4615384615384616
 40
0.5384615384615384
 40
0.5384615384615384
 40
0.5384615384615384
 40
0.5384615384615384
 40
0.6153846153846154
 40
0.6153846153846154
 40
0.6153846153846154
 40
0.6153846153846154
 40
0.6923076923076923
 40
0.6923076923076923
 40
0.6923076923076923
 40
0.6923076923076923
 40
0.7692307692307693
 40
0.7692307692307693
 40
0.7692307692307693
 40
0.7692307692307693
 40
0.8461538461538461
 40
0.8461538461538461
 40
0.8461538461538461
 40
0.8461538461538461
 40
1.0
 40
1.0
 40
1.0
 40
1.0
 10
-35.0618
 20
9.9185
 30
0.0
 10
-35.0618
 20
9.9185
 30
0.0
 10
-24.0851
 20
9.992
 30
0.0
 10
-24.0851
 20
9.992
 30
0.0
 10
-24.0851
 20
9.992
 30
0.0
 10
-24.0851
 20
9.992
 30
0.0
 10
-23.9815
 20
9.98
 30
0.0
 10
-23.9815
 20
9.98
 30
0.0
 10
-23.9815
 20
9.98
 30
0.0
 10
-23.9815
 20
9.98
 30
0.0
 10
-23.8794
 20
9.9399
 30
0.0
 10
-23.8794
 20
9.9399
 30
0.0
 10
-23.8794
 20
9.9399
 30
0.0
 10
-23.8794
 20
9.9399
 30
0.0
 10
-23.7928
 20
9.8755
 30
0.0
 10
-23.7928
 20
9.8755
 30
0.0
 10
-23.7928
 20
9.8755
 30
0.0
 10
-23.7928
 20
9.8755
 30
0.0
 10
-23.7295
 20
9.7928
 30
0.0
 10
-23.7295
 20
9.7928
 30
0.0
 10
-23.7295
 20
9.7928
 30
0.0
 10
-23.7295
 20
9.7928
 30
0.0
 10
-23.6867
 20
9.6969
 30
0.0
 10
-23.6867
 20
9.6969
 30
0.0
 10
-23.6867
 20
9.6969
 30
0.0
 10
-23.6867
 20
9.6969
 30
0.0
 10
-23.6733
 20
9.5921
 30
0.0
 10
-23.6733
 20
9.5921
 30
0.0
 10
-23.6733
 20
9.5921
 30
0.0
 10
-23.6733
 20
9.5921
 30
0.0
 10
-23.6718
 20
-3.4126
 30
0.0
 10
-23.6718
 20
-3.4126
 30
0.0
 10
-23.6718
 20
-3.4126
 30
0.0
 10
-23.6718
 20
-3.4126
 30
0.0
 10
-23.7643
 20
-3.5982
 30
0.0
 10
-23.7643
 20
-3.5982
 30
0.0
 10
-23.7643
 20
-3.5982
 30
0.0
 10
-23.7643
 20
-3.5982
 30
0.0
 10
-23.9804
 20
-3.691
 30
0.0
 10
-23.9804
 20
-3.691
 30
0.0
 10
-23.9804
 20
-3.691
 30
0.0
 10
-23.9804
 20
-3.691
 30
0.0
 10
-24.2583
 20
-3.7839
 30
0.0
 10
-24.2583
 20
-3.7839
 30
0.0
 10
-24.2583
 20
-3.7839
 30
0.0
 10
-24.2583
 20
-3.7839
 30
0.0
 10
-35.1853
 20
-3.8148
 30
0.0
 10
-35.1853
 20
-3.8148
 30
0.0
  0
SPLINE
  5
88
330
1F
100
AcDbEntity
  8
VRSTVA_1
100
AcDbSpline
210
0.0
220
0.0
230
1.0
 70
     8
 71
     3
 72
    32
 73
    28
 74
     0
 42
0.0000000001
 43
0.0000000001
 40
0.0
 40
0.0
 40
0.0
 40
0.0
 40
0.125
 40
0.125
 40
0.125
 40
0.125
 40
0.25
 40
0.25
 40
0.25
 40
0.25
 40
0.375
 40
0.375
 40
0.375
 40
0.375
 40
0.5
 40
0.5
 40
0.5
 40
0.5
 40
0.625
 40
0.625
 40
0.625
 40
0.625
 40
0.75
 40
0.75
 40
0.75
 40
0.75
 40
1.0
 40
1.0
 40
1.0
 40
1.0
 10
-23.6733
 20
0.9112
 30
0.0
 10
-23.6733
 20
0.9112
 30
0.0
 10
-23.6867
 20
0.8844
 30
0.0
 10
-23.6867
 20
0.8844
 30
0.0
 10
-23.6867
 20
0.8844
 30
0.0
 10
-23.6867
 20
0.8844
 30
0.0
 10
-23.7295
 20
0.8602
 30
0.0
 10
-23.7295
 20
0.8602
 30
0.0
 10
-23.7295
 20
0.8602
 30
0.0
 10
-23.7295
 20
0.8602
 30
0.0
 10
-23.7928
 20
0.8373
 30
0.0
 10
-23.7928
 20
0.8373
 30
0.0
 10
-23.7928
 20
0.8373
 30
0.0
 10
-23.7928
 20
0.8373
 30
0.0
 10
-23.8794
 20
0.8215
 30
0.0
 10
-23.8794
 20
0.8215
 30
0.0
 10
-23.8794
 20
0.8215
 30
0.0
 10
-23.8794
 20
0.8215
 30
0.0
 10
-23.9815
 20
0.81
 30
0.0
 10
-23.9815
 20
0.81
 30
0.0
 10
-23.9815
 20
0.81
 30
0.0
 10
-23.9815
 20
0.81
 30
0.0
 10
-24.0851
 20
0.807
 30
0.0
 10
-24.0851
 20
0.807
 30
0.0
 10
-24.0851
 20
0.807
 30
0.0
 10
-24.0851
 20
0.807
 30
0.0
 10
-35.0927
 20
0.763
 30
0.0
 10
-35.0927
 20
0.763
 30
0.0
  0
SPLINE
  5
89
330
1F
100
AcDbEntity
  8
VRSTVA_1
100
AcDbSpline
210
0.0
220
0.0
230
1.0
 70
     8
 71
     3
 72
    32
 73
    28
 74
     0
 42
0.0000000001
 43
0.0000000001
 40
0.0
 40
0.0
 40
0.0
 40
0.0
 40
0.125
 40
0.125
 40
0.125
 40
0.125
 40
0.25
 40
0.25
 40
0.25
 40
0.25
 40
0.375
 40
0.375
 40
0.375
 40
0.375
 40
0.5
 40
0.5
 40
0.5
 40
0.5
 40
0.625
 40
0.625
 40
0.625
 40
0.625
 40
0.75
 40
0.75
 40
0.75
 40
0.75
 40
1.0
 40
1.0
 40
1.0
 40
1.0
 10
-23.6733
 20
-2.5039
 30
0.0
 10
-23.6733
 20
-2.5039
 30
0.0
 10
-23.6867
 20
-2.6083
 30
0.0
 10
-23.6867
 20
-2.6083
 30
0.0
 10
-23.6867
 20
-2.6083
 30
0.0
 10
-23.6867
 20
-2.6083
 30
0.0
 10
-23.7295
 20
-2.7048
 30
0.0
 10
-23.7295
 20
-2.7048
 30
0.0
 10
-23.7295
 20
-2.7048
 30
0.0
 10
-23.7295
 20
-2.7048
 30
0.0
 10
-23.7928
 20
-2.7872
 30
0.0
 10
-23.7928
 20
-2.7872
 30
0.0
 10
-23.7928
 20
-2.7872
 30
0.0
 10
-23.7928
 20
-2.7872
 30
0.0
 10
-23.8794
 20
-2.8519
 30
0.0
 10
-23.8794
 20
-2.8519
 30
0.0
 10
-23.8794
 20
-2.8519
 30
0.0
 10
-23.8794
 20
-2.8519
 30
0.0
 10
-23.9815
 20
-2.892
 30
0.0
 10
-23.9815
 20
-2.892
 30
0.0
 10
-23.9815
 20
-2.892
 30
0.0
 10
-23.9815
 20
-2.892
 30
0.0
 10
-24.0851
 20
-2.904
 30
0.0
 10
-24.0851
 20
-2.904
 30
0.0
 10
-24.0851
 20
-2.904
 30
0.0
 10
-24.0851
 20
-2.904
 30
0.0
 10
-35.0618
 20
-2.9177
 30
0.0
 10
-35.0618
 20
-2.9177
 30
0.0
  0
SPLINE
  5
8A
330
1F
100
AcDbEntity
  8
VRSTVA_1
 62
   250
100
AcDbSpline
210
0.0
220
0.0
230
1.0
 70
    24
 71
     3
 72
     8
 73
     4
 74
     0
 42
0.0000000001
 43
0.0000000001
 40
0.0
 40
0.0
 40
0.0
 40
0.0
 40
1.0
 40
1.0
 40
1.0
 40
1.0
 10
-45.1075
 20
-5.9218
 30
0.0
 10
-45.1075
 20
-5.9218
 30
0.0
 10
-44.3155
 20
-5.9218
 30
0.0
 10
-44.3155
 20
-5.9218
 30
0.0
  0
SPLINE
  5
8B
330
1F
100
AcDbEntity
  8
VRSTVA_1
 62
   250
100
AcDbSpline
210
0.0
220
0.0
230
1.0
 70
    24
 71
     3
 72
     8
 73
     4
 74
     0
 42
0.0000000001
 43
0.0000000001
 40
0.0
 40
0.0
 40
0.0
 40
0.0
 40
1.0
 40
1.0
 40
1.0
 40
1.0
 10
-39.9594
 20
-5.9218
 30
0.0
 10
-39.9594
 20
-5.9218
 30
0.0
 10
-39.3654
 20
-5.9218
 30
0.0
 10
-39.3654
 20
-5.9218
 30
0.0
  0
SPLINE
  5
8C
330
1F
100
AcDbEntity
  8
VRSTVA_1
 62
   250
100
AcDbSpline
210
0.0
220
0.0
230
1.0
 70
    24
 71
     3
 72
     8
 73
     4
 74
     0
 42
0.0000000001
 43
0.0000000001
 40
0.0
 40
0.0
 40
0.0
 40
0.0
 40
1.0
 40
1.0
 40
1.0
 40
1.0
 10
-44.3155
 20
-5.921
 30
0.0
 10
-44.3155
 20
-5.921
 30
0.0
 10
-39.9594
 20
-5.921
 30
0.0
 10
-39.9594
 20
-5.921
 30
0.0
  0
SPLINE
  5
8D
330
1F
100
AcDbEntity
  8
VRSTVA_1
 62
   250
100
AcDbSpline
210
0.0
220
0.0
230
1.0
 70
    24
 71
     3
 72
     8
 73
     4
 74
     0
 42
0.0000000001
 43
0.0000000001
 40
0.0
 40
0.0
 40
0.0
 40
0.0
 40
1.0
 40
1.0
 40
1.0
 40
1.0
 10
-44.3155
 20
-5.8589
 30
0.0
 10
-44.3155
 20
-5.8589
 30
0.0
 10
-39.9594
 20
-5.8589
 30
0.0
 10
-39.9594
 20
-5.8589
 30
0.0
  0
SPLINE
  5
8E
330
1F
100
AcDbEntity
  8
VRSTVA_1
 62
   250
100
AcDbSpline
210
0.0
220
0.0
230
1.0
 70
    24
 71
     3
 72
     8
 73
     4
 74
     0
 42
0.0000000001
 43
0.0000000001
 40
0.0
 40
0.0
 40
0.0
 40
0.0
 40
1.0
 40
1.0
 40
1.0
 40
1.0
 10
-44.3155
 20
-5.1815
 30
0.0
 10
-44.3155
 20
-5.1815
 30
0.0
 10
-39.9594
 20
-5.1815
 30
0.0
 10
-39.9594
 20
-5.1815
 30
0.0
  0
SPLINE
  5
8F
330
1F
100
AcDbEntity
  8
VRSTVA_1
 62
   250
100
AcDbSpline
210
0.0
220
0.0
230
1.0
 70
    24
 71
     3
 72
     8
 73
     4
 74
     0
 42
0.0000000001
 43
0.0000000001
 40
0.0
 40
0.0
 40
0.0
 40
0.0
 40
1.0
 40
1.0
 40
1.0
 40
1.0
 10
-44.3155
 20
-4.6421
 30
0.0
 10
-44.3155
 20
-4.6421
 30
0.0
 10
-39.9594
 20
-4.6421
 30
0.0
 10
-39.9594
 20
-4.6421
 30
0.0
  0
SPLINE
  5
90
330
1F
100
AcDbEntity
  8
VRSTVA_1
 62
   250
100
AcDbSpline
210
0.0
220
0.0
230
1.0
 70
    24
 71
     3
 72
     8
 73
     4
 74
     0
 42
0.0000000001
 43
0.0000000001
 40
0.0
 40
0.0
 40
0.0
 40
0.0
 40
1.0
 40
1.0
 40
1.0
 40
1.0
 10
-44.3155
 20
-2.995
 30
0.0
 10
-44.3155
 20
-2.995
 30
0.0
 10
-39.9594
 20
-2.995
 30
0.0
 10
-39.9594
 20
-2.995
 30
0.0
  0
SPLINE
  5
91
330
1F
100
AcDbEntity
  8
VRSTVA_1
 62
   250
100
AcDbSpline
210
0.0
220
0.0
230
1.0
 70
    24
 71
     3
 72
     8
 73
     4
 74
     0
 42
0.0000000001
 43
0.0000000001
 40
0.0
 40
0.0
 40
0.0
 40
0.0
 40
1.0
 40
1.0
 40
1.0
 40
1.0
 10
-44.3155
 20
-2.0718
 30
0.0
 10
-44.3155
 20
-2.0718
 30
0.0
 10
-39.9594
 20
-2.0718
 30
0.0
 10
-39.9594
 20
-2.0718
 30
0.0
  0
SPLINE
  5
92
330
1F
100
AcDbEntity
  8
VRSTVA_1
 62
   250
100
AcDbSpline
210
0.0
220
0.0
230
1.0
 70
    24
 71
     3
 72
     8
 73
     4
 74
     0
 42
0.0000000001
 43
0.0000000001
 40
0.0
 40
0.0
 40
0.0
 40
0.0
 40
1.0
 40
1.0
 40
1.0
 40
1.0
 10
-44.3155
 20
0.2603
 30
0.0
 10
-44.3155
 20
0.2603
 30
0.0
 10
-39.9594
 20
0.2603
 30
0.0
 10
-39.9594
 20
0.2603
 30
0.0
  0
SPLINE
  5
93
330
1F
100
AcDbEntity
  8
VRSTVA_1
 62
   250
100
AcDbSpline
210
0.0
220
0.0
230
1.0
 70
    24
 71
     3
 72
     8
 73
     4
 74
     0
 42
0.0000000001
 43
0.0000000001
 40
0.0
 40
0.0
 40
0.0
 40
0.0
 40
1.0
 40
1.0
 40
1.0
 40
1.0
 10
-44.3155
 20
0.3577
 30
0.0
 10
-44.3155
 20
0.3577
 30
0.0
 10
-39.9594
 20
0.3577
 30
0.0
 10
-39.9594
 20
0.3577
 30
0.0
  0
SPLINE
  5
94
330
1F
100
AcDbEntity
  8
VRSTVA_1
 62
   250
100
AcDbSpline
210
0.0
220
0.0
230
1.0
 70
    24
 71
     3
 72
     8
 73
     4
 74
     0
 42
0.0000000001
 43
0.0000000001
 40
0.0
 40
0.0
 40
0.0
 40
0.0
 40
1.0
 40
1.0
 40
1.0
 40
1.0
 10
-44.3155
 20
1.4078
 30
0.0
 10
-44.3155
 20
1.4078
 30
0.0
 10
-39.9594
 20
1.4078
 30
0.0
 10
-39.9594
 20
1.4078
 30
0.0
  0
SPLINE
  5
95
330
1F
100
AcDbEntity
  8
VRSTVA_1
 62
   250
100
AcDbSpline
210
0.0
220
0.0
230
1.0
 70
    24
 71
     3
 72
     8
 73
     4
 74
     0
 42
0.0000000001
 43
0.0000000001
 40
0.0
 40
0.0
 40
0.0
 40
0.0
 40
1.0
 40
1.0
 40
1.0
 40
1.0
 10
-44.3155
 20
4.0215
 30
0.0
 10
-44.3155
 20
4.0215
 30
0.0
 10
-39.9594
 20
4.0215
 30
0.0
 10
-39.9594
 20
4.0215
 30
0.0
  0
SPLINE
  5
96
330
1F
100
AcDbEntity
  8
VRSTVA_1
 62
   250
100
AcDbSpline
210
0.0
220
0.0
230
1.0
 70
    24
 71
     3
 72
     8
 73
     4
 74
     0
 42
0.0000000001
 43
0.0000000001
 40
0.0
 40
0.0
 40
0.0
 40
0.0
 40
1.0
 40
1.0
 40
1.0
 40
1.0
 10
-39.9594
 20
5.1359
 30
0.0
 10
-39.9594
 20
5.1359
 30
0.0
 10
-44.3155
 20
5.1359
 30
0.0
 10
-44.3155
 20
5.1359
 30
0.0
  0
SPLINE
  5
97
330
1F
100
AcDbEntity
  8
VRSTVA_1
 62
   250
100
AcDbSpline
210
0.0
220
0.0
230
1.0
 70
    24
 71
     3
 72
     8
 73
     4
 74
     0
 42
0.0000000001
 43
0.0000000001
 40
0.0
 40
0.0
 40
0.0
 40
0.0
 40
1.0
 40
1.0
 40
1.0
 40
1.0
 10
-44.3155
 20
5.1948
 30
0.0
 10
-44.3155
 20
5.1948
 30
0.0
 10
-39.9594
 20
5.1948
 30
0.0
 10
-39.9594
 20
5.1948
 30
0.0
  0
SPLINE
  5
98
330
1F
100
AcDbEntity
  8
VRSTVA_1
 62
   250
100
AcDbSpline
210
0.0
220
0.0
230
1.0
 70
    24
 71
     3
 72
     8
 73
     4
 74
     0
 42
0.0000000001
 43
0.0000000001
 40
0.0
 40
0.0
 40
0.0
 40
0.0
 40
1.0
 40
1.0
 40
1.0
 40
1.0
 10
-44.3155
 20
7.6382
 30
0.0
 10
-44.3155
 20
7.6382
 30
0.0
 10
-39.9594
 20
7.6382
 30
0.0
 10
-39.9594
 20
7.6382
 30
0.0
  0
SPLINE
  5
99
330
1F
100
AcDbEntity
  8
VRSTVA_1
 62
   250
100
AcDbSpline
210
0.0
220
0.0
230
1.0
 70
    24
 71
     3
 72
     8
 73
     4
 74
     0
 42
0.0000000001
 43
0.0000000001
 40
0.0
 40
0.0
 40
0.0
 40
0.0
 40
1.0
 40
1.0
 40
1.0
 40
1.0
 10
-44.3155
 20
8.6346
 30
0.0
 10
-44.3155
 20
8.6346
 30
0.0
 10
-39.9594
 20
8.6346
 30
0.0
 10
-39.9594
 20
8.6346
 30
0.0
  0
SPLINE
  5
9A
330
1F
100
AcDbEntity
  8
VRSTVA_1
 62
   250
100
AcDbSpline
210
0.0
220
0.0
230
1.0
 70
    24
 71
     3
 72
     8
 73
     4
 74
     0
 42
0.0000000001
 43
0.0000000001
 40
0.0
 40
0.0
 40
0.0
 40
0.0
 40
1.0
 40
1.0
 40
1.0
 40
1.0
 10
-44.3155
 20
10.4853
 30
0.0
 10
-44.3155
 20
10.4853
 30
0.0
 10
-39.9594
 20
10.4853
 30
0.0
 10
-39.9594
 20
10.4853
 30
0.0
  0
SPLINE
  5
9B
330
1F
100
AcDbEntity
  8
VRSTVA_1
 62
   250
100
AcDbSpline
210
0.0
220
0.0
230
1.0
 70
    24
 71
     3
 72
     8
 73
     4
 74
     0
 42
0.0000000001
 43
0.0000000001
 40
0.0
 40
0.0
 40
0.0
 40
0.0
 40
1.0
 40
1.0
 40
1.0
 40
1.0
 10
-44.3155
 20
11.1323
 30
0.0
 10
-44.3155
 20
11.1323
 30
0.0
 10
-39.9594
 20
11.1323
 30
0.0
 10
-39.9594
 20
11.1323
 30
0.0
  0
SPLINE
  5
9C
330
1F
100
AcDbEntity
  8
VRSTVA_1
 62
   250
100
AcDbSpline
210
0.0
220
0.0
230
1.0
 70
    24
 71
     3
 72
     8
 73
     4
 74
     0
 42
0.0000000001
 43
0.0000000001
 40
0.0
 40
0.0
 40
0.0
 40
0.0
 40
1.0
 40
1.0
 40
1.0
 40
1.0
 10
-44.3155
 20
12.0702
 30
0.0
 10
-44.3155
 20
12.0702
 30
0.0
 10
-39.9594
 20
12.0702
 30
0.0
 10
-39.9594
 20
12.0702
 30
0.0
  0
SPLINE
  5
9D
330
1F
100
AcDbEntity
  8
VRSTVA_1
 62
   250
100
AcDbSpline
210
0.0
220
0.0
230
1.0
 70
    24
 71
     3
 72
     8
 73
     4
 74
     0
 42
0.0000000001
 43
0.0000000001
 40
0.0
 40
0.0
 40
0.0
 40
0.0
 40
1.0
 40
1.0
 40
1.0
 40
1.0
 10
-44.3155
 20
12.256
 30
0.0
 10
-44.3155
 20
12.256
 30
0.0
 10
-39.9594
 20
12.256
 30
0.0
 10
-39.9594
 20
12.256
 30
0.0
  0
SPLINE
  5
9E
330
1F
100
AcDbEntity
  8
VRSTVA_1
 62
   250
100
AcDbSpline
210
0.0
220
0.0
230
1.0
 70
    24
 71
     3
 72
     8
 73
     4
 74
     0
 42
0.0000000001
 43
0.0000000001
 40
0.0
 40
0.0
 40
0.0
 40
0.0
 40
1.0
 40
1.0
 40
1.0
 40
1.0
 10
-45.1075
 20
12.2944
 30
0.0
 10
-45.1075
 20
12.2944
 30
0.0
 10
-39.3654
 20
12.2944
 30
0.0
 10
-39.3654
 20
12.2944
 30
0.0
  0
SPLINE
  5
9F
330
1F
100
AcDbEntity
  8
VRSTVA_1
 62
   250
100
AcDbSpline
210
0.0
220
0.0
230
1.0
 70
    24
 71
     3
 72
     8
 73
     4
 74
     0
 42
0.0000000001
 43
0.0000000001
 40
0.0
 40
0.0
 40
0.0
 40
0.0
 40
1.0
 40
1.0
 40
1.0
 40
1.0
 10
-38.3754
 20
11.3044
 30
0.0
 10
-38.3754
 20
11.3044
 30
0.0
 10
-38.3754
 20
-4.9317
 30
0.0
 10
-38.3754
 20
-4.9317
 30
0.0
  0
SPLINE
  5
A0
330
1F
100
AcDbEntity
  8
VRSTVA_1
 62
   250
100
AcDbSpline
210
0.0
220
0.0
230
1.0
 70
    24
 71
     3
 72
     8
 73
     4
 74
     0
 42
0.0000000001
 43
0.0000000001
 40
0.0
 40
0.0
 40
0.0
 40
0.0
 40
1.0
 40
1.0
 40
1.0
 40
1.0
 10
-39.3654
 20
-5.9218
 30
0.0
 10
-39.3654
 20
-5.9218
 30
0.0
 10
-39.3654
 20
12.2944
 30
0.0
 10
-39.3654
 20
12.2944
 30
0.0
  0
SPLINE
  5
A1
330
1F
100
AcDbEntity
  8
VRSTVA_1
 62
   250
100
AcDbSpline
210
0.0
220
0.0
230
1.0
 70
    24
 71
     3
 72
     8
 73
     4
 74
     0
 42
0.0000000001
 43
0.0000000001
 40
0.0
 40
0.0
 40
0.0
 40
0.0
 40
1.0
 40
1.0
 40
1.0
 40
1.0
 10
-39.9594
 20
-5.9218
 30
0.0
 10
-39.9594
 20
-5.9218
 30
0.0
 10
-39.9594
 20
-5.8589
 30
0.0
 10
-39.9594
 20
-5.8589
 30
0.0
  0
SPLINE
  5
A2
330
1F
100
AcDbEntity
  8
VRSTVA_1
 62
   250
100
AcDbSpline
210
0.0
220
0.0
230
1.0
 70
    24
 71
     3
 72
     8
 73
     4
 74
     0
 42
0.0000000001
 43
0.0000000001
 40
0.0
 40
0.0
 40
0.0
 40
0.0
 40
1.0
 40
1.0
 40
1.0
 40
1.0
 10
-39.9594
 20
-5.1815
 30
0.0
 10
-39.9594
 20
-5.1815
 30
0.0
 10
-39.9594
 20
-4.6421
 30
0.0
 10
-39.9594
 20
-4.6421
 30
0.0
  0
SPLINE
  5
A3
330
1F
100
AcDbEntity
  8
VRSTVA_1
 62
   250
100
AcDbSpline
210
0.0
220
0.0
230
1.0
 70
    24
 71
     3
 72
     8
 73
     4
 74
     0
 42
0.0000000001
 43
0.0000000001
 40
0.0
 40
0.0
 40
0.0
 40
0.0
 40
1.0
 40
1.0
 40
1.0
 40
1.0
 10
-39.9594
 20
-2.995
 30
0.0
 10
-39.9594
 20
-2.995
 30
0.0
 10
-39.9594
 20
-2.0718
 30
0.0
 10
-39.9594
 20
-2.0718
 30
0.0
  0
SPLINE
  5
A4
330
1F
100
AcDbEntity
  8
VRSTVA_1
 62
   250
100
AcDbSpline
210
0.0
220
0.0
230
1.0
 70
    24
 71
     3
 72
     8
 73
     4
 74
     0
 42
0.0000000001
 43
0.0000000001
 40
0.0
 40
0.0
 40
0.0
 40
0.0
 40
1.0
 40
1.0
 40
1.0
 40
1.0
 10
-39.9594
 20
0.2603
 30
0.0
 10
-39.9594
 20
0.2603
 30
0.0
 10
-39.9594
 20
1.4078
 30
0.0
 10
-39.9594
 20
1.4078
 30
0.0
  0
SPLINE
  5
A5
330
1F
100
AcDbEntity
  8
VRSTVA_1
 62
   250
100
AcDbSpline
210
0.0
220
0.0
230
1.0
 70
    24
 71
     3
 72
     8
 73
     4
 74
     0
 42
0.0000000001
 43
0.0000000001
 40
0.0
 40
0.0
 40
0.0
 40
0.0
 40
1.0
 40
1.0
 40
1.0
 40
1.0
 10
-39.9594
 20
4.0215
 30
0.0
 10
-39.9594
 20
4.0215
 30
0.0
 10
-39.9594
 20
5.1948
 30
0.0
 10
-39.9594
 20
5.1948
 30
0.0
  0
SPLINE
  5
A6
330
1F
100
AcDbEntity
  8
VRSTVA_1
 62
   250
100
AcDbSpline
210
0.0
220
0.0
230
1.0
 70
    24
 71
     3
 72
     8
 73
     4
 74
     0
 42
0.0000000001
 43
0.0000000001
 40
0.0
 40
0.0
 40
0.0
 40
0.0
 40
1.0
 40
1.0
 40
1.0
 40
1.0
 10
-39.9594
 20
7.6382
 30
0.0
 10
-39.9594
 20
7.6382
 30
0.0
 10
-39.9594
 20
8.6346
 30
0.0
 10
-39.9594
 20
8.6346
 30
0.0
  0
SPLINE
  5
A7
330
1F
100
AcDbEntity
  8
VRSTVA_1
 62
   250
100
AcDbSpline
210
0.0
220
0.0
230
1.0
 70
    24
 71
     3
 72
     8
 73
     4
 74
     0
 42
0.0000000001
 43
0.0000000001
 40
0.0
 40
0.0
 40
0.0
 40
0.0
 40
1.0
 40
1.0
 40
1.0
 40
1.0
 10
-39.9594
 20
10.4853
 30
0.0
 10
-39.9594
 20
10.4853
 30
0.0
 10
-39.9594
 20
11.1323
 30
0.0
 10
-39.9594
 20
11.1323
 30
0.0
  0
SPLINE
  5
A8
330
1F
100
AcDbEntity
  8
VRSTVA_1
 62
   250
100
AcDbSpline
210
0.0
220
0.0
230
1.0
 70
    24
 71
     3
 72
     8
 73
     4
 74
     0
 42
0.0000000001
 43
0.0000000001
 40
0.0
 40
0.0
 40
0.0
 40
0.0
 40
1.0
 40
1.0
 40
1.0
 40
1.0
 10
-39.9594
 20
12.0702
 30
0.0
 10
-39.9594
 20
12.0702
 30
0.0
 10
-39.9594
 20
12.256
 30
0.0
 10
-39.9594
 20
12.256
 30
0.0
  0
SPLINE
  5
A9
330
1F
100
AcDbEntity
  8
VRSTVA_1
 62
   250
100
AcDbSpline
210
0.0
220
0.0
230
1.0
 70
    24
 71
     3
 72
     8
 73
     4
 74
     0
 42
0.0000000001
 43
0.0000000001
 40
0.0
 40
0.0
 40
0.0
 40
0.0
 40
1.0
 40
1.0
 40
1.0
 40
1.0
 10
-44.3155
 20
12.256
 30
0.0
 10
-44.3155
 20
12.256
 30
0.0
 10
-44.3155
 20
12.0702
 30
0.0
 10
-44.3155
 20
12.0702
 30
0.0
  0
SPLINE
  5
AA
330
1F
100
AcDbEntity
  8
VRSTVA_1
 62
   250
100
AcDbSpline
210
0.0
220
0.0
230
1.0
 70
    24
 71
     3
 72
     8
 73
     4
 74
     0
 42
0.0000000001
 43
0.0000000001
 40
0.0
 40
0.0
 40
0.0
 40
0.0
 40
1.0
 40
1.0
 40
1.0
 40
1.0
 10
-44.3155
 20
11.1323
 30
0.0
 10
-44.3155
 20
11.1323
 30
0.0
 10
-44.3155
 20
10.4853
 30
0.0
 10
-44.3155
 20
10.4853
 30
0.0
  0
SPLINE
  5
AB
330
1F
100
AcDbEntity
  8
VRSTVA_1
 62
   250
100
AcDbSpline
210
0.0
220
0.0
230
1.0
 70
    24
 71
     3
 72
     8
 73
     4
 74
     0
 42
0.0000000001
 43
0.0000000001
 40
0.0
 40
0.0
 40
0.0
 40
0.0
 40
1.0
 40
1.0
 40
1.0
 40
1.0
 10
-44.3155
 20
8.6346
 30
0.0
 10
-44.3155
 20
8.6346
 30
0.0
 10
-44.3155
 20
7.6382
 30
0.0
 10
-44.3155
 20
7.6382
 30
0.0
  0
SPLINE
  5
AC
330
1F
100
AcDbEntity
  8
VRSTVA_1
 62
   250
100
AcDbSpline
210
0.0
220
0.0
230
1.0
 70
    24
 71
     3
 72
     8
 73
     4
 74
     0
 42
0.0000000001
 43
0.0000000001
 40
0.0
 40
0.0
 40
0.0
 40
0.0
 40
1.0
 40
1.0
 40
1.0
 40
1.0
 10
-44.3155
 20
5.1948
 30
0.0
 10
-44.3155
 20
5.1948
 30
0.0
 10
-44.3155
 20
4.0215
 30
0.0
 10
-44.3155
 20
4.0215
 30
0.0
  0
SPLINE
  5
AD
330
1F
100
AcDbEntity
  8
VRSTVA_1
 62
   250
100
AcDbSpline
210
0.0
220
0.0
230
1.0
 70
    24
 71
     3
 72
     8
 73
     4
 74
     0
 42
0.0000000001
 43
0.0000000001
 40
0.0
 40
0.0
 40
0.0
 40
0.0
 40
1.0
 40
1.0
 40
1.0
 40
1.0
 10
-44.3155
 20
1.4078
 30
0.0
 10
-44.3155
 20
1.4078
 30
0.0
 10
-44.3155
 20
0.2603
 30
0.0
 10
-44.3155
 20
0.2603
 30
0.0
  0
SPLINE
  5
AE
330
1F
100
AcDbEntity
  8
VRSTVA_1
 62
   250
100
AcDbSpline
210
0.0
220
0.0
230
1.0
 70
    24
 71
     3
 72
     8
 73
     4
 74
     0
 42
0.0000000001
 43
0.0000000001
 40
0.0
 40
0.0
 40
0.0
 40
0.0
 40
1.0
 40
1.0
 40
1.0
 40
1.0
 10
-44.3155
 20
-2.0718
 30
0.0
 10
-44.3155
 20
-2.0718
 30
0.0
 10
-44.3155
 20
-2.995
 30
0.0
 10
-44.3155
 20
-2.995
 30
0.0
  0
SPLINE
  5
AF
330
1F
100
AcDbEntity
  8
VRSTVA_1
 62
   250
100
AcDbSpline
210
0.0
220
0.0
230
1.0
 70
    24
 71
     3
 72
     8
 73
     4
 74
     0
 42
0.0000000001
 43
0.0000000001
 40
0.0
 40
0.0
 40
0.0
 40
0.0
 40
1.0
 40
1.0
 40
1.0
 40
1.0
 10
-44.3155
 20
-4.6421
 30
0.0
 10
-44.3155
 20
-4.6421
 30
0.0
 10
-44.3155
 20
-5.1815
 30
0.0
 10
-44.3155
 20
-5.1815
 30
0.0
  0
SPLINE
  5
B0
330
1F
100
AcDbEntity
  8
VRSTVA_1
 62
   250
100
AcDbSpline
210
0.0
220
0.0
230
1.0
 70
    24
 71
     3
 72
     8
 73
     4
 74
     0
 42
0.0000000001
 43
0.0000000001
 40
0.0
 40
0.0
 40
0.0
 40
0.0
 40
1.0
 40
1.0
 40
1.0
 40
1.0
 10
-44.3155
 20
-5.8589
 30
0.0
 10
-44.3155
 20
-5.8589
 30
0.0
 10
-44.3155
 20
-5.9218
 30
0.0
 10
-44.3155
 20
-5.9218
 30
0.0
  0
SPLINE
  5
B1
330
1F
100
AcDbEntity
  8
VRSTVA_1
 62
   250
100
AcDbSpline
210
0.0
220
0.0
230
1.0
 70
    24
 71
     3
 72
     8
 73
     4
 74
     0
 42
0.0000000001
 43
0.0000000001
 40
0.0
 40
0.0
 40
0.0
 40
0.0
 40
1.0
 40
1.0
 40
1.0
 40
1.0
 10
-45.1075
 20
-5.9218
 30
0.0
 10
-45.1075
 20
-5.9218
 30
0.0
 10
-45.1075
 20
12.2944
 30
0.0
 10
-45.1075
 20
12.2944
 30
0.0
  0
SPLINE
  5
B2
330
1F
100
AcDbEntity
  8
VRSTVA_1
 62
   250
100
AcDbSpline
210
0.0
220
0.0
230
1.0
 70
     8
 71
     3
 72
     8
 73
     4
 74
     0
 42
0.0000000001
 43
0.0000000001
 40
0.0
 40
0.0
 40
0.0
 40
0.0
 40
1.0
 40
1.0
 40
1.0
 40
1.0
 10
-38.3754
 20
11.3044
 30
0.0
 10
-38.3754
 20
11.8512
 30
0.0
 10
-38.8187
 20
12.2944
 30
0.0
 10
-39.3654
 20
12.2944
 30
0.0
  0
SPLINE
  5
B3
330
1F
100
AcDbEntity
  8
VRSTVA_1
 62
   250
100
AcDbSpline
210
0.0
220
0.0
230
1.0
 70
     8
 71
     3
 72
     8
 73
     4
 74
     0
 42
0.0000000001
 43
0.0000000001
 40
0.0
 40
0.0
 40
0.0
 40
0.0
 40
1.0
 40
1.0
 40
1.0
 40
1.0
 10
-39.3654
 20
-5.9218
 30
0.0
 10
-38.8187
 20
-5.9218
 30
0.0
 10
-38.3754
 20
-5.4785
 30
0.0
 10
-38.3754
 20
-4.9318
 30
0.0
  0
SPLINE
  5
B4
330
1F
100
AcDbEntity
  8
VRSTVA_1
 62
   250
100
AcDbSpline
210
0.0
220
0.0
230
1.0
 70
    27
 71
     3
 72
    12
 73
     8
 74
     0
 42
0.0000000001
 43
0.0000000001
 40
0.0
 40
0.0
 40
0.0
 40
0.0
 40
0.3333333333333333
 40
0.3333333333333333
 40
0.3333333333333333
 40
0.3333333333333333
 40
1.0
 40
1.0
 40
1.0
 40
1.0
 10
-45.4134
 20
10.9675
 30
0.0
 10
-45.4134
 20
10.9675
 30
0.0
 10
-50.0012
 20
10.9675
 30
0.0
 10
-50.0012
 20
10.9675
 30
0.0
 10
-50.0012
 20
10.9675
 30
0.0
 10
-50.0012
 20
10.9675
 30
0.0
 10
-45.4134
 20
10.9675
 30
0.0
 10
-45.4134
 20
10.9675
 30
0.0
  0
SPLINE
  5
B5
330
1F
100
AcDbEntity
  8
VRSTVA_1
 62
   250
100
AcDbSpline
210
0.0
220
0.0
230
1.0
 70
    27
 71
     3
 72
    12
 73
     8
 74
     0
 42
0.0000000001
 43
0.0000000001
 40
0.0
 40
0.0
 40
0.0
 40
0.0
 40
0.3333333333333333
 40
0.3333333333333333
 40
0.3333333333333333
 40
0.3333333333333333
 40
1.0
 40
1.0
 40
1.0
 40
1.0
 10
-45.4134
 20
-4.6154
 30
0.0
 10
-45.4134
 20
-4.6154
 30
0.0
 10
-50.1766
 20
-4.6154
 30
0.0
 10
-50.1766
 20
-4.6154
 30
0.0
 10
-50.1766
 20
-4.6154
 30
0.0
 10
-50.1766
 20
-4.6154
 30
0.0
 10
-45.4134
 20
-4.6154
 30
0.0
 10
-45.4134
 20
-4.6154
 30
0.0
  0
ENDSEC
  0
SECTION
  2
OBJECTS
  0
DICTIONARY
  5
C
330
0
100
AcDbDictionary
  3
ACAD_GROUP
350
D
  3
ACAD_LAYOUT
350
1A
  3
ACAD_MATERIAL
350
3B
  3
ACAD_MLEADERSTYLE
350
D8
  3
ACAD_MLINESTYLE
350
17
  3
ACAD_PLOTSETTINGS
350
19
  3
ACAD_VISUALSTYLE
350
2A
  3
ACDBHEADERROUNDTRIPXREC
350
B6
  3
ACDBVARIABLEDICTIONARY
350
D6
  0
DICTIONARY
  5
D
102
{ACAD_REACTORS
330
C
102
}
330
C
100
AcDbDictionary
  0
DICTIONARY
  5
1A
102
{ACAD_REACTORS
330
C
102
}
330
C
100
AcDbDictionary
  0
DICTIONARY
  5
3B
102
{ACAD_REACTORS
330
C
102
}
330
C
100
AcDbDictionary
  3
BYBLOCK
350
3D
  3
BYLAYER
350
3C
  3
GLOBAL
350
3E
  0
DICTIONARY
  5
D8
102
{ACAD_REACTORS
330
C
102
}
330
C
100
AcDbDictionary
  0
DICTIONARY
  5
17
102
{ACAD_REACTORS
330
C
102
}
330
C
100
AcDbDictionary
  3
STANDARD
350
18
  0
DICTIONARY
  5
19
102
{ACAD_REACTORS
330
C
102
}
330
C
100
AcDbDictionary
  0
DICTIONARY
  5
2A
102
{ACAD_REACTORS
330
C
102
}
330
C
100
AcDbDictionary
  3
2DWIREFRAME
350
2F
  3
3D_HIDDEN
350
31
  3
3DWIREFRAME
350
30
  3
BASIC
350
32
  3
BRIGHTEN
350
36
  3
COLORCHANGE
350
3A
  3
CONCEPTUAL
350
34
  3
DIM
350
35
  3
FACEPATTERN
350
39
  3
FLAT
350
2B
  3
FLATWITHEDGES
350
2C
  3
GOURAUD
350
2D
  3
GOURAUDWITHEDGES
350
2E
  3
LINEPATTERN
350
38
  3
REALISTIC
350
33
  3
THICKEN
350
37
  0
DICTIONARY
  5
B6
102
{ACAD_REACTORS
330
C
102
}
330
C
100
AcDbDictionary
  3
CEPSNTYPE
350
BF
  3
DIMSTYLEDATA
350
D5
  3
FINGERPRINTGUID
350
C0
  3
HYPERLINKBASE
350
B9
  3
INSUNITS
350
BE
  3
LAYOUTDICT
350
BB
  3
LWETCUNION
350
BD
  3
PLOTSETDICT
350
BC
  3
PSVPSCALE
350
C2
  3
PUCSBASE
350
C5
  3
PUCSORGBACK
350
CB
  3
PUCSORGBOTTOM
350
C7
  3
PUCSORGFRONT
350
CA
  3
PUCSORGLEFT
350
C8
  3
PUCSORGRIGHT
350
C9
  3
PUCSORGTOP
350
C6
  3
PUCSORTHOREF
350
C3
  3
PUCSORTHOVIEW
350
C4
  3
STYLESHEET
350
BA
  3
TSTACKALIGN
350
B7
  3
TSTACKSIZE
350
B8
  3
UCSBASE
350
CE
  3
UCSORGBACK
350
D4
  3
UCSORGBOTTOM
350
D0
  3
UCSORGFRONT
350
D3
  3
UCSORGLEFT
350
D1
  3
UCSORGRIGHT
350
D2
  3
UCSORGTOP
350
CF
  3
UCSORTHOREF
350
CC
  3
UCSORTHOVIEW
350
CD
  3
VERSIONGUID
350
C1
  0
DICTIONARY
  5
D6
102
{ACAD_REACTORS
330
C
102
}
330
C
100
AcDbDictionary
  3
DIMASSOC
350
D9
  3
HIDETEXT
350
DA
  0
MATERIAL
  5
3D
102
{ACAD_REACTORS
330
3B
102
}
102
{ACAD_XDICTIONARY
360
DD
102
}
330
3B
100
AcDbMaterial
  1
ByBlock
  0
MATERIAL
  5
3C
102
{ACAD_REACTORS
330
3B
102
}
102
{ACAD_XDICTIONARY
360
DB
102
}
330
3B
100
AcDbMaterial
  1
ByLayer
  0
MATERIAL
  5
3E
102
{ACAD_REACTORS
330
3B
102
}
102
{ACAD_XDICTIONARY
360
DF
102
}
330
3B
100
AcDbMaterial
  1
Global
  0
MLINESTYLE
  5
18
102
{ACAD_REACTORS
330
17
102
}
330
17
100
AcDbMlineStyle
  2
Standard
 70
     0
  3

 62
   256
 51
90.0
 52
90.0
 71
     2
 49
0.5
 62
   256
  6
BYLAYER
 49
-0.5
 62
   256
  6
BYLAYER
  0
ACAD_PROXY_OBJECT
  5
2F
102
{ACAD_REACTORS
330
2A
102
}
330
2A
100
AcDbProxyObject
 90
      499
 91
      501
 93
      436
310
42CC9915DA5C99599C985B595049028333333333333E3BF0000000000000FB0107901411070040501600405405064090741402480A0340
1001
ACAD
1000
AcDbSavedByObjectVersion
1070
     0
  0
ACAD_PROXY_OBJECT
  5
31
102
{ACAD_REACTORS
330
2A
102
}
330
2A
100
AcDbProxyObject
 90
      499
 91
      501
 93
      500
310
424CD108121A5919195B90640502408333333333333E3BF0000000000000FB01079024090700405020000000000001110200405405064090740C02480A0340
1001
ACAD
1000
AcDbSavedByObjectVersion
1070
     0
  0
ACAD_PROXY_OBJECT
  5
30
102
{ACAD_REACTORS
330
2A
102
}
330
2A
100
AcDbProxyObject
 90
      499
 91
      501
 93
      436
310
42CCD915DA5C99599C985B595059028333333333333E3BF0000000000000FB0107901411070040501600405405064090741402480A0340
1001
ACAD
1000
AcDbSavedByObjectVersion
1070
     0
  0
ACAD_PROXY_OBJECT
  5
32
102
{ACAD_REACTORS
330
2A
102
}
330
2A
100
AcDbProxyObject
 90
      499
 91
      501
 93
      388
310
4150985CDA58D07406404333333333333E3BF0000000000000FB0107A41107004050150841D405064090741402480A0350
1001
ACAD
1000
AcDbSavedByObjectVersion
1070
     0
  0
ACAD_PROXY_OBJECT
  5
36
102
{ACAD_REACTORS
330
2A
102
}
330
2A
100
AcDbProxyObject
 90
      499
 91
      501
 93
      428
310
42109C9A59DA1D195B90C409028333333333333E3BF0000000000000FB010790141107004050150841D405064090741402480A029950
1001
ACAD
1000
AcDbSavedByObjectVersion
1070
     0
  0
ACAD_PROXY_OBJECT
  5
3A
102
{ACAD_REACTORS
330
2A
102
}
330
2A
100
AcDbProxyObject
 90
      499
 91
      501
 93
      452
310
42D0DBDB1BDC90DA185B99D95104090240C333333333333E3BF0000000000000FB0108901411070040501508421405064090741402480A0350
1001
ACAD
1000
AcDbSavedByObjectVersion
1070
     0
  0
ACAD_PROXY_OBJECT
  5
34
102
{ACAD_REACTORS
330
2A
102
}
330
2A
100
AcDbProxyObject
 90
      499
 91
      501
 93
      500
310
4290DBDB98D95C1D1D585B10940D028333333333333E3BF0000000000000FB0107902409070040501000000000000111010841D405064090740C02480A0340
1001
ACAD
1000
AcDbSavedByObjectVersion
1070
     0
  0
ACAD_PROXY_OBJECT
  5
35
102
{ACAD_REACTORS
330
2A
102
}
330
2A
100
AcDbProxyObject
 90
      499
 91
      501
 93
      412
310
40D11A5B50B409028333333333333E3BF0000000000000FB010790141107004050150841D405064090741402480A02677FFFFFD0
1001
ACAD
1000
AcDbSavedByObjectVersion
1070
     0
  0
ACAD_PROXY_OBJECT
  5
39
102
{ACAD_REACTORS
330
2A
102
}
330
2A
100
AcDbProxyObject
 90
      499
 91
      501
 93
      444
310
42D19858D95C185D1D195C9B90F409028333333333333E3BF0000000000000FB010790141107004050150841D405064090741402480A0350
1001
ACAD
1000
AcDbSavedByObjectVersion
1070
     0
  0
ACAD_PROXY_OBJECT
  5
2B
102
{ACAD_REACTORS
330
2A
102
}
330
2A
100
AcDbProxyObject
 90
      499
 91
      501
 93
      388
310
41119B185D240901404333333333333E3BF0000000000000F9010740A41107004050150841D405064090741402480A1B50
1001
ACAD
1000
AcDbSavedByObjectVersion
1070
     0
  0
ACAD_PROXY_OBJECT
  5
2C
102
{ACAD_REACTORS
330
2A
102
}
330
2A
100
AcDbProxyObject
 90
      499
 91
      501
 93
      476
310
43519B185D15DA5D1A115919D95CD0140901404333333333333E3BF0000000000000F9010740901411070040501600405405064090741402480A1B50
1001
ACAD
1000
AcDbSavedByObjectVersion
1070
     0
  0
ACAD_PROXY_OBJECT
  5
2D
102
{ACAD_REACTORS
330
2A
102
}
330
2A
100
AcDbProxyObject
 90
      499
 91
      501
 93
      412
310
41D1DBDD5C985D5910240902404333333333333E3BF0000000000000F9010740A411070040501641D405064090741402480A1B50
1001
ACAD
1000
AcDbSavedByObjectVersion
1070
     0
  0
ACAD_PROXY_OBJECT
  5
2E
102
{ACAD_REACTORS
330
2A
102
}
330
2A
100
AcDbProxyObject
 90
      499
 91
      501
 93
      500
310
4411DBDD5C985D5915DA5D1A115919D95CD0340902404333333333333E3BF0000000000000F9010740901411070040501600405405064090741402480A1B50
1001
ACAD
1000
AcDbSavedByObjectVersion
1070
     0
  0
ACAD_PROXY_OBJECT
  5
38
102
{ACAD_REACTORS
330
2A
102
}
330
2A
100
AcDbProxyObject
 90
      499
 91
      501
 93
      444
310
42D31A5B995C185D1D195C9B90E409028333333333333E3BF0000000000000FB010790141107004050750841D405064090741402483A0350
1001
ACAD
1000
AcDbSavedByObjectVersion
1070
     0
  0
ACAD_PROXY_OBJECT
  5
33
102
{ACAD_REACTORS
330
2A
102
}
330
2A
100
AcDbProxyObject
 90
      499
 91
      501
 93
      420
310
425499585B1A5CDD1A58D08409028333333333333E3BF0000000000000FB01079019070040501508421405064090741402480A1B40
1001
ACAD
1000
AcDbSavedByObjectVersion
1070
     0
  0
ACAD_PROXY_OBJECT
  5
37
102
{ACAD_REACTORS
330
2A
102
}
330
2A
100
AcDbProxyObject
 90
      499
 91
      501
 93
      412
310
41D51A1A58DAD95B90D409028333333333333E3BF0000000000000FB010790141107004050150C41D405064090741402480A0350
1001
ACAD
1000
AcDbSavedByObjectVersion
1070
     0
  0
XRECORD
  5
BF
102
{ACAD_REACTORS
330
B6
102
}
330
B6
100
AcDbXrecord
 90
        0
  0
XRECORD
  5
D5
102
{ACAD_REACTORS
330
B6
102
}
330
B6
100
AcDbXrecord
1000
DSTYLE
1002
{
1070
   340
340
11
1002
}
  0
XRECORD
  5
C0
102
{ACAD_REACTORS
330
B6
102
}
330
B6
100
AcDbXrecord
  1
{4E26BB92-5C93-4CA4-AA27-908EA538E902}
  0
XRECORD
  5
B9
102
{ACAD_REACTORS
330
B6
102
}
330
B6
100
AcDbXrecord
  1

  0
XRECORD
  5
BE
102
{ACAD_REACTORS
330
B6
102
}
330
B6
100
AcDbXrecord
 90
        4
  0
XRECORD
  5
BB
102
{ACAD_REACTORS
330
B6
102
}
330
B6
100
AcDbXrecord
340
1A
  0
XRECORD
  5
BD
102
{ACAD_REACTORS
330
B6
102
}
330
B6
100
AcDbXrecord
 90
    10781
  0
XRECORD
  5
BC
102
{ACAD_REACTORS
330
B6
102
}
330
B6
100
AcDbXrecord
340
19
  0
XRECORD
  5
C2
102
{ACAD_REACTORS
330
B6
102
}
330
B6
100
AcDbXrecord
 40
0.0
  0
XRECORD
  5
C5
102
{ACAD_REACTORS
330
B6
102
}
330
B6
100
AcDbXrecord
340
0
  0
XRECORD
  5
CB
102
{ACAD_REACTORS
330
B6
102
}
330
B6
100
AcDbXrecord
 10
0.0
 20
0.0
 30
0.0
  0
XRECORD
  5
C7
102
{ACAD_REACTORS
330
B6
102
}
330
B6
100
AcDbXrecord
 10
0.0
 20
0.0
 30
0.0
  0
XRECORD
  5
CA
102
{ACAD_REACTORS
330
B6
102
}
330
B6
100
AcDbXrecord
 10
0.0
 20
0.0
 30
0.0
  0
XRECORD
  5
C8
102
{ACAD_REACTORS
330
B6
102
}
330
B6
100
AcDbXrecord
 10
0.0
 20
0.0
 30
0.0
  0
XRECORD
  5
C9
102
{ACAD_REACTORS
330
B6
102
}
330
B6
100
AcDbXrecord
 10
0.0
 20
0.0
 30
0.0
  0
XRECORD
  5
C6
102
{ACAD_REACTORS
330
B6
102
}
330
B6
100
AcDbXrecord
 10
0.0
 20
0.0
 30
0.0
  0
XRECORD
  5
C3
102
{ACAD_REACTORS
330
B6
102
}
330
B6
100
AcDbXrecord
340
0
  0
XRECORD
  5
C4
102
{ACAD_REACTORS
330
B6
102
}
330
B6
100
AcDbXrecord
 70
     0
  0
XRECORD
  5
BA
102
{ACAD_REACTORS
330
B6
102
}
330
B6
100
AcDbXrecord
  1

  0
XRECORD
  5
B7
102
{ACAD_REACTORS
330
B6
102
}
330
B6
100
AcDbXrecord
 90
        1
  0
XRECORD
  5
B8
102
{ACAD_REACTORS
330
B6
102
}
330
B6
100
AcDbXrecord
 90
       70
  0
XRECORD
  5
CE
102
{ACAD_REACTORS
330
B6
102
}
330
B6
100
AcDbXrecord
340
0
  0
XRECORD
  5
D4
102
{ACAD_REACTORS
330
B6
102
}
330
B6
100
AcDbXrecord
 10
0.0
 20
0.0
 30
0.0
  0
XRECORD
  5
D0
102
{ACAD_REACTORS
330
B6
102
}
330
B6
100
AcDbXrecord
 10
0.0
 20
0.0
 30
0.0
  0
XRECORD
  5
D3
102
{ACAD_REACTORS
330
B6
102
}
330
B6
100
AcDbXrecord
 10
0.0
 20
0.0
 30
0.0
  0
XRECORD
  5
D1
102
{ACAD_REACTORS
330
B6
102
}
330
B6
100
AcDbXrecord
 10
0.0
 20
0.0
 30
0.0
  0
XRECORD
  5
D2
102
{ACAD_REACTORS
330
B6
102
}
330
B6
100
AcDbXrecord
 10
0.0
 20
0.0
 30
0.0
  0
XRECORD
  5
CF
102
{ACAD_REACTORS
330
B6
102
}
330
B6
100
AcDbXrecord
 10
0.0
 20
0.0
 30
0.0
  0
XRECORD
  5
CC
102
{ACAD_REACTORS
330
B6
102
}
330
B6
100
AcDbXrecord
340
0
  0
XRECORD
  5
CD
102
{ACAD_REACTORS
330
B6
102
}
330
B6
100
AcDbXrecord
 70
     0
  0
XRECORD
  5
C1
102
{ACAD_REACTORS
330
B6
102
}
330
B6
100
AcDbXrecord
  1
{FAEB1C32-E019-11D5-929B-00C0DF256EC4}
  0
DICTIONARYVAR
  5
D9
102
{ACAD_REACTORS
330
D6
102
}
330
D6
100
DictionaryVariables
280
     0
  1
2
  0
DICTIONARYVAR
  5
DA
102
{ACAD_REACTORS
330
D6
102
}
330
D6
100
DictionaryVariables
280
     0
  1
1
  0
DICTIONARY
  5
DD
330
3D
100
AcDbDictionary
280
     1
  3
ACAD_XREC_ROUNDTRIP
360
DE
  0
DICTIONARY
  5
DB
330
3C
100
AcDbDictionary
280
     1
  3
ACAD_XREC_ROUNDTRIP
360
DC
  0
DICTIONARY
  5
DF
330
3E
100
AcDbDictionary
280
     1
  3
ACAD_XREC_ROUNDTRIP
360
E0
  0
XRECORD
  5
DE
102
{ACAD_REACTORS
330
DD
102
}
330
DD
100
AcDbXrecord
102
MATERIAL
148
0.0
149
0.0
149
0.0
 93
        0
 94
      127
282
     0
 72
     1
 77
     1
171
     1
175
     1
179
     1
273
     0
  0
XRECORD
  5
DC
102
{ACAD_REACTORS
330
DB
102
}
330
DB
100
AcDbXrecord
102
MATERIAL
148
0.0
149
0.0
149
0.0
 93
        0
 94
      127
282
     0
 72
     1
 77
     1
171
     1
175
     1
179
     1
273
     0
  0
XRECORD
  5
E0
102
{ACAD_REACTORS
330
DF
102
}
330
DF
100
AcDbXrecord
102
MATERIAL
148
0.0
149
0.0
149
0.0
 93
        0
 94
      127
282
     0
 72
     1
 77
     1
171
     1
175
     1
179
     1
273
     0
  0
ENDSEC
  0
EOF
