  0
SECTION
  2
HEADER
  9
$ACADVER
  1
AC1014
  9
$ACADMAINTVER
 70
     9
  9
$DWGCODEPAGE
  3
ANSI_1250
  9
$INSBASE
 10
0.0
 20
0.0
 30
0.0
  9
$EXTMIN
 10
-18.7993
 20
-33.5914
 30
0.0
  9
$EXTMAX
 10
18.6585
 20
33.5911
 30
0.0
  9
$LIMMIN
 10
0.0
 20
0.0
  9
$LIMMAX
 10
12.0
 20
9.0
  9
$ORTHOMODE
 70
     0
  9
$REGENMODE
 70
     1
  9
$FILLMODE
 70
     1
  9
$QTEXTMODE
 70
     0
  9
$MIRRTEXT
 70
     1
  9
$DRAGMODE
 70
     2
  9
$LTSCALE
 40
1.0
  9
$OSMODE
 70
    37
  9
$ATTMODE
 70
     1
  9
$TEXTSIZE
 40
0.2
  9
$TRACEWID
 40
0.05
  9
$TEXTSTYLE
  7
STANDARD
  9
$CLAYER
  8
0
  9
$CELTYPE
  6
BYLAYER
  9
$CECOLOR
 62
   256
  9
$CELTSCALE
 40
1.0
  9
$DELOBJ
 70
     1
  9
$DISPSILH
 70
     0
  9
$DIMSCALE
 40
1.0
  9
$DIMASZ
 40
0.18
  9
$DIMEXO
 40
0.0625
  9
$DIMDLI
 40
0.38
  9
$DIMRND
 40
0.0
  9
$DIMDLE
 40
0.0
  9
$DIMEXE
 40
0.18
  9
$DIMTP
 40
0.0
  9
$DIMTM
 40
0.0
  9
$DIMTXT
 40
0.18
  9
$DIMCEN
 40
0.09
  9
$DIMTSZ
 40
0.0
  9
$DIMTOL
 70
     0
  9
$DIMLIM
 70
     0
  9
$DIMTIH
 70
     1
  9
$DIMTOH
 70
     1
  9
$DIMSE1
 70
     0
  9
$DIMSE2
 70
     0
  9
$DIMTAD
 70
     0
  9
$DIMZIN
 70
     0
  9
$DIMBLK
  1

  9
$DIMASO
 70
     1
  9
$DIMSHO
 70
     1
  9
$DIMPOST
  1

  9
$DIMAPOST
  1

  9
$DIMALT
 70
     0
  9
$DIMALTD
 70
     2
  9
$DIMALTF
 40
25.4
  9
$DIMLFAC
 40
1.0
  9
$DIMTOFL
 70
     0
  9
$DIMTVP
 40
0.0
  9
$DIMTIX
 70
     0
  9
$DIMSOXD
 70
     0
  9
$DIMSAH
 70
     0
  9
$DIMBLK1
  1

  9
$DIMBLK2
  1

  9
$DIMSTYLE
  2
STANDARD
  9
$DIMCLRD
 70
     0
  9
$DIMCLRE
 70
     0
  9
$DIMCLRT
 70
     0
  9
$DIMTFAC
 40
1.0
  9
$DIMGAP
 40
0.09
  9
$DIMJUST
 70
     0
  9
$DIMSD1
 70
     0
  9
$DIMSD2
 70
     0
  9
$DIMTOLJ
 70
     1
  9
$DIMTZIN
 70
     0
  9
$DIMALTZ
 70
     0
  9
$DIMALTTZ
 70
     0
  9
$DIMFIT
 70
     3
  9
$DIMUPT
 70
     0
  9
$DIMUNIT
 70
     2
  9
$DIMDEC
 70
     4
  9
$DIMTDEC
 70
     4
  9
$DIMALTU
 70
     2
  9
$DIMALTTD
 70
     2
  9
$DIMTXSTY
  7
STANDARD
  9
$DIMAUNIT
 70
     0
  9
$LUNITS
 70
     2
  9
$LUPREC
 70
     4
  9
$SKETCHINC
 40
0.1
  9
$FILLETRAD
 40
0.5
  9
$AUNITS
 70
     0
  9
$AUPREC
 70
     0
  9
$MENU
  1
.
  9
$ELEVATION
 40
0.0
  9
$PELEVATION
 40
0.0
  9
$THICKNESS
 40
0.0
  9
$LIMCHECK
 70
     0
  9
$CHAMFERA
 40
0.5
  9
$CHAMFERB
 40
0.5
  9
$CHAMFERC
 40
1.0
  9
$CHAMFERD
 40
0.0
  9
$SKPOLY
 70
     0
  9
$TDCREATE
 40
2456266.382780648
  9
$TDUPDATE
 40
2456266.38278066
  9
$TDINDWG
 40
0.0000000116
  9
$TDUSRTIMER
 40
0.0000000116
  9
$USRTIMER
 70
     1
  9
$ANGBASE
 50
0.0
  9
$ANGDIR
 70
     0
  9
$PDMODE
 70
     0
  9
$PDSIZE
 40
0.0
  9
$PLINEWID
 40
0.0
  9
$COORDS
 70
     1
  9
$SPLFRAME
 70
     0
  9
$SPLINETYPE
 70
     6
  9
$SPLINESEGS
 70
     8
  9
$ATTDIA
 70
     0
  9
$ATTREQ
 70
     1
  9
$HANDLING
 70
     1
  9
$HANDSEED
  5
F8
  9
$SURFTAB1
 70
     6
  9
$SURFTAB2
 70
     6
  9
$SURFTYPE
 70
     6
  9
$SURFU
 70
     6
  9
$SURFV
 70
     6
  9
$UCSNAME
  2

  9
$UCSORG
 10
0.0
 20
0.0
 30
0.0
  9
$UCSXDIR
 10
1.0
 20
0.0
 30
0.0
  9
$UCSYDIR
 10
0.0
 20
1.0
 30
0.0
  9
$PUCSNAME
  2

  9
$PUCSORG
 10
0.0
 20
0.0
 30
0.0
  9
$PUCSXDIR
 10
1.0
 20
0.0
 30
0.0
  9
$PUCSYDIR
 10
0.0
 20
1.0
 30
0.0
  9
$USERI1
 70
     0
  9
$USERI2
 70
     0
  9
$USERI3
 70
     0
  9
$USERI4
 70
     0
  9
$USERI5
 70
     0
  9
$USERR1
 40
0.0
  9
$USERR2
 40
0.0
  9
$USERR3
 40
0.0
  9
$USERR4
 40
0.0
  9
$USERR5
 40
0.0
  9
$WORLDVIEW
 70
     1
  9
$SHADEDGE
 70
     3
  9
$SHADEDIF
 70
    70
  9
$TILEMODE
 70
     1
  9
$MAXACTVP
 70
    64
  9
$PINSBASE
 10
0.0
 20
0.0
 30
0.0
  9
$PLIMCHECK
 70
     0
  9
$PEXTMIN
 10
1.000000000000000E+20
 20
1.000000000000000E+20
 30
1.000000000000000E+20
  9
$PEXTMAX
 10
-1.000000000000000E+20
 20
-1.000000000000000E+20
 30
-1.000000000000000E+20
  9
$PLIMMIN
 10
0.0
 20
0.0
  9
$PLIMMAX
 10
12.0
 20
9.0
  9
$UNITMODE
 70
     0
  9
$VISRETAIN
 70
     1
  9
$PLINEGEN
 70
     0
  9
$PSLTSCALE
 70
     1
  9
$TREEDEPTH
 70
  3020
  9
$PICKSTYLE
 70
     1
  9
$CMLSTYLE
  2
STANDARD
  9
$CMLJUST
 70
     0
  9
$CMLSCALE
 40
1.0
  9
$PROXYGRAPHICS
 70
     1
  9
$MEASUREMENT
 70
     0
  0
ENDSEC
  0
SECTION
  2
CLASSES
  0
CLASS
  1
ACDBDICTIONARYWDFLT
  2
AcDbDictionaryWithDefault
  3
ObjectDBX Classes
 90
        0
280
     0
281
     0
  0
CLASS
  1
VISUALSTYLE
  2
AcDbVisualStyle
  3
ObjectDBX Classes
 90
     4095
280
     0
281
     0
  0
CLASS
  1
MATERIAL
  2
AcDbMaterial
  3
ObjectDBX Classes
 90
     1153
280
     0
281
     0
  0
CLASS
  1
DICTIONARYVAR
  2
AcDbDictionaryVar
  3
ObjectDBX Classes
 90
        0
280
     0
281
     0
  0
CLASS
  1
XRECORD
  2
AcDbXrecord
  3
AutoCAD 2000
 90
        0
280
     0
281
     0
  0
CLASS
  1
LWPOLYLINE
  2
AcDbPolyline
  3
AutoCAD 2000
 90
        0
280
     0
281
     1
  0
CLASS
  1
HATCH
  2
AcDbHatch
  3
AutoCAD 2000
 90
        0
280
     0
281
     1
  0
CLASS
  1
ACDBPLACEHOLDER
  2
AcDbPlaceHolder
  3
ObjectDBX Classes
 90
        0
280
     0
281
     0
  0
CLASS
  1
LAYOUT
  2
AcDbLayout
  3
ObjectDBX Classes
 90
        0
280
     0
281
     0
  0
ENDSEC
  0
SECTION
  2
TABLES
  0
TABLE
  2
VPORT
  5
8
330
0
100
AcDbSymbolTable
 70
     1
  0
VPORT
  5
29
330
8
100
AcDbSymbolTableRecord
100
AcDbViewportTableRecord
  2
*ACTIVE
 70
     0
 10
0.0
 20
0.0
 11
1.0
 21
1.0
 12
10.42990654205607
 22
4.5
 13
0.0
 23
0.0
 14
0.5
 24
0.5
 15
0.5
 25
0.5
 16
0.0
 26
0.0
 36
1.0
 17
0.0
 27
0.0
 37
0.0
 40
9.0
 41
1.972972972850329
 42
50.0
 43
0.0
 44
0.0
 50
0.0
 51
0.0
 71
     0
 72
   100
 73
     1
 74
     3
 75
     0
 76
     0
 77
     0
 78
     0
  0
ENDTAB
  0
TABLE
  2
LTYPE
  5
5
330
0
100
AcDbSymbolTable
 70
     2
  0
LTYPE
  5
14
330
5
100
AcDbSymbolTableRecord
100
AcDbLinetypeTableRecord
  2
BYBLOCK
 70
     0
  3

 72
    65
 73
     0
 40
0.0
  0
LTYPE
  5
15
330
5
100
AcDbSymbolTableRecord
100
AcDbLinetypeTableRecord
  2
BYLAYER
 70
     0
  3

 72
    65
 73
     0
 40
0.0
  0
LTYPE
  5
16
330
5
100
AcDbSymbolTableRecord
100
AcDbLinetypeTableRecord
  2
CONTINUOUS
 70
     0
  3
Solid line
 72
    65
 73
     0
 40
0.0
  0
LTYPE
  5
AC
330
5
100
AcDbSymbolTableRecord
100
AcDbLinetypeTableRecord
  2
NEW_LINE1
 70
     0
  3

 72
    65
 73
     4
 40
1.2
 49
0.5
 74
     4
 75
     0
340
0
 46
1.0
 50
0.0
 44
0.0
 45
0.0
 49
-0.3
 74
     4
 75
     0
340
0
 46
1.0
 50
0.0
 44
0.0
 45
0.0
 49
0.1
 74
     4
 75
     0
340
0
 46
1.0
 50
0.0
 44
0.0
 45
0.0
 49
-0.3
 74
     4
 75
     0
340
0
 46
1.0
 50
0.0
 44
0.0
 45
0.0
  0
ENDTAB
  0
TABLE
  2
LAYER
  5
2
330
0
100
AcDbSymbolTable
 70
     2
  0
LAYER
  5
10
330
2
100
AcDbSymbolTableRecord
100
AcDbLayerTableRecord
  2
0
 70
     0
 62
     7
  6
CONTINUOUS
  0
LAYER
  5
40
330
2
100
AcDbSymbolTableRecord
100
AcDbLayerTableRecord
  2
DEFAULT_3
 70
     0
 62
     7
  6
CONTINUOUS
  0
ENDTAB
  0
TABLE
  2
STYLE
  5
3
330
0
100
AcDbSymbolTable
 70
     1
  0
STYLE
  5
11
330
3
100
AcDbSymbolTableRecord
100
AcDbTextStyleTableRecord
  2
STANDARD
 70
     0
 40
0.0
 41
1.0
 50
0.0
 71
     0
 42
0.2
  3
txt
  4

  0
ENDTAB
  0
TABLE
  2
VIEW
  5
6
330
0
100
AcDbSymbolTable
 70
     0
  0
ENDTAB
  0
TABLE
  2
UCS
  5
7
330
0
100
AcDbSymbolTable
 70
     0
  0
ENDTAB
  0
TABLE
  2
APPID
  5
9
330
0
100
AcDbSymbolTable
 70
     2
  0
APPID
  5
12
330
9
100
AcDbSymbolTableRecord
100
AcDbRegAppTableRecord
  2
ACAD
 70
     0
  0
APPID
  5
3F
330
9
100
AcDbSymbolTableRecord
100
AcDbRegAppTableRecord
  2
ODA
 70
     0
  0
ENDTAB
  0
TABLE
  2
DIMSTYLE
  5
A
330
0
100
AcDbSymbolTable
 70
     1
  0
DIMSTYLE
105
27
330
A
100
AcDbSymbolTableRecord
100
AcDbDimStyleTableRecord
  2
STANDARD
 70
     0
  3

  4

  5

  6

  7

 40
1.0
 41
0.18
 42
0.0625
 43
0.38
 44
0.18
 45
0.0
 46
0.0
 47
0.0
 48
0.0
140
0.18
141
0.09
142
0.0
143
25.4
144
1.0
145
0.0
146
1.0
147
0.09
 71
     0
 72
     0
 73
     1
 74
     1
 75
     0
 76
     0
 77
     0
 78
     0
170
     0
171
     2
172
     0
173
     0
174
     0
175
     0
176
     0
177
     0
178
     0
270
     2
271
     4
272
     4
273
     2
274
     2
340
11
275
     0
280
     0
281
     0
282
     0
283
     1
284
     0
285
     0
286
     0
287
     3
288
     0
  0
ENDTAB
  0
TABLE
  2
BLOCK_RECORD
  5
1
330
0
100
AcDbSymbolTable
 70
     1
  0
BLOCK_RECORD
  5
1F
330
1
100
AcDbSymbolTableRecord
100
AcDbBlockTableRecord
  2
*MODEL_SPACE
  0
BLOCK_RECORD
  5
1B
330
1
100
AcDbSymbolTableRecord
100
AcDbBlockTableRecord
  2
*PAPER_SPACE
  0
ENDTAB
  0
ENDSEC
  0
SECTION
  2
BLOCKS
  0
BLOCK
  5
20
330
1F
100
AcDbEntity
  8
0
100
AcDbBlockBegin
  2
*MODEL_SPACE
 70
     0
 10
0.0
 20
0.0
 30
0.0
  3
*MODEL_SPACE
  1

  0
ENDBLK
  5
21
330
1F
100
AcDbEntity
  8
0
100
AcDbBlockEnd
  0
BLOCK
  5
1C
330
1B
100
AcDbEntity
 67
     1
  8
0
100
AcDbBlockBegin
  2
*PAPER_SPACE
 70
     0
 10
0.0
 20
0.0
 30
0.0
  3
*PAPER_SPACE
  1

  0
ENDBLK
  5
1D
330
1B
100
AcDbEntity
 67
     1
  8
0
100
AcDbBlockEnd
  0
ENDSEC
  0
SECTION
  2
ENTITIES
  0
SPLINE
  5
41
330
1F
100
AcDbEntity
  8
DEFAULT_3
 62
   250
100
AcDbSpline
210
0.0
220
0.0
230
1.0
 70
    11
 71
     3
 72
   120
 73
   116
 74
     0
 42
0.0000000001
 43
0.0000000001
 40
0.0
 40
0.0
 40
0.0
 40
0.0
 40
0.0333333333333333
 40
0.0333333333333333
 40
0.0333333333333333
 40
0.0333333333333333
 40
0.0666666666666667
 40
0.0666666666666667
 40
0.0666666666666667
 40
0.0666666666666667
 40
0.1
 40
0.1
 40
0.1
 40
0.1
 40
0.1333333333333333
 40
0.1333333333333333
 40
0.1333333333333333
 40
0.1333333333333333
 40
0.1666666666666667
 40
0.1666666666666667
 40
0.1666666666666667
 40
0.1666666666666667
 40
0.2
 40
0.2
 40
0.2
 40
0.2
 40
0.2333333333333333
 40
0.2333333333333333
 40
0.2333333333333333
 40
0.2333333333333333
 40
0.2666666666666667
 40
0.2666666666666667
 40
0.2666666666666667
 40
0.2666666666666667
 40
0.3
 40
0.3
 40
0.3
 40
0.3
 40
0.3333333333333333
 40
0.3333333333333333
 40
0.3333333333333333
 40
0.3333333333333333
 40
0.3666666666666666
 40
0.3666666666666666
 40
0.3666666666666666
 40
0.3666666666666666
 40
0.4
 40
0.4
 40
0.4
 40
0.4
 40
0.4333333333333333
 40
0.4333333333333333
 40
0.4333333333333333
 40
0.4333333333333333
 40
0.4666666666666667
 40
0.4666666666666667
 40
0.4666666666666667
 40
0.4666666666666667
 40
0.5
 40
0.5
 40
0.5
 40
0.5
 40
0.5333333333333333
 40
0.5333333333333333
 40
0.5333333333333333
 40
0.5333333333333333
 40
0.5666666666666667
 40
0.5666666666666667
 40
0.5666666666666667
 40
0.5666666666666667
 40
0.6
 40
0.6
 40
0.6
 40
0.6
 40
0.6333333333333333
 40
0.6333333333333333
 40
0.6333333333333333
 40
0.6333333333333333
 40
0.6666666666666666
 40
0.6666666666666666
 40
0.6666666666666666
 40
0.6666666666666666
 40
0.7
 40
0.7
 40
0.7
 40
0.7
 40
0.7333333333333333
 40
0.7333333333333333
 40
0.7333333333333333
 40
0.7333333333333333
 40
0.7666666666666667
 40
0.7666666666666667
 40
0.7666666666666667
 40
0.7666666666666667
 40
0.8
 40
0.8
 40
0.8
 40
0.8
 40
0.8333333333333334
 40
0.8333333333333334
 40
0.8333333333333334
 40
0.8333333333333334
 40
0.8666666666666667
 40
0.8666666666666667
 40
0.8666666666666667
 40
0.8666666666666667
 40
0.9
 40
0.9
 40
0.9
 40
0.9
 40
0.9333333333333333
 40
0.9333333333333333
 40
0.9333333333333333
 40
0.9333333333333333
 40
1.0
 40
1.0
 40
1.0
 40
1.0
 10
-6.7479
 20
-31.2064
 30
0.0
 10
-6.7479
 20
-31.2064
 30
0.0
 10
-6.7479
 20
-30.9698
 30
0.0
 10
-6.7479
 20
-30.9698
 30
0.0
 10
-6.7479
 20
-30.9698
 30
0.0
 10
-6.7479
 20
-30.9698
 30
0.0
 10
-5.8923
 20
-30.9684
 30
0.0
 10
-5.8923
 20
-30.9684
 30
0.0
 10
-5.8923
 20
-30.9684
 30
0.0
 10
-5.8923
 20
-30.9684
 30
0.0
 10
-5.8923
 20
-31.7177
 30
0.0
 10
-5.8923
 20
-31.7177
 30
0.0
 10
-5.8923
 20
-31.7177
 30
0.0
 10
-6.0235
 20
-31.8226
 30
0.0
 10
-6.159
 20
-31.9012
 30
0.0
 10
-6.2987
 20
-31.9543
 30
0.0
 10
-6.2987
 20
-31.9543
 30
0.0
 10
-6.4384
 20
-32.007
 30
0.0
 10
-6.5818
 20
-32.0333
 30
0.0
 10
-6.7286
 20
-32.0333
 30
0.0
 10
-6.7286
 20
-32.0333
 30
0.0
 10
-6.9271
 20
-32.0333
 30
0.0
 10
-7.1077
 20
-31.991
 30
0.0
 10
-7.2695
 20
-31.9059
 30
0.0
 10
-7.2695
 20
-31.9059
 30
0.0
 10
-7.4318
 20
-31.8212
 30
0.0
 10
-7.5541
 20
-31.698
 30
0.0
 10
-7.6369
 20
-31.5376
 30
0.0
 10
-7.6369
 20
-31.5376
 30
0.0
 10
-7.7197
 20
-31.3767
 30
0.0
 10
-7.7611
 20
-31.197
 30
0.0
 10
-7.7611
 20
-30.9985
 30
0.0
 10
-7.7611
 20
-30.9985
 30
0.0
 10
-7.7611
 20
-30.8019
 30
0.0
 10
-7.7197
 20
-30.6185
 30
0.0
 10
-7.6373
 20
-30.4482
 30
0.0
 10
-7.6373
 20
-30.4482
 30
0.0
 10
-7.5555
 20
-30.2775
 30
0.0
 10
-7.437
 20
-30.1509
 30
0.0
 10
-7.2827
 20
-30.0681
 30
0.0
 10
-7.2827
 20
-30.0681
 30
0.0
 10
-7.1284
 20
-29.9858
 30
0.0
 10
-6.9506
 20
-29.9444
 30
0.0
 10
-6.7493
 20
-29.9444
 30
0.0
 10
-6.7493
 20
-29.9444
 30
0.0
 10
-6.6035
 20
-29.9444
 30
0.0
 10
-6.4713
 20
-29.968
 30
0.0
 10
-6.3532
 20
-30.0155
 30
0.0
 10
-6.3532
 20
-30.0155
 30
0.0
 10
-6.2352
 20
-30.0625
 30
0.0
 10
-6.1425
 20
-30.1284
 30
0.0
 10
-6.0757
 20
-30.213
 30
0.0
 10
-6.0757
 20
-30.213
 30
0.0
 10
-6.0085
 20
-30.2977
 30
0.0
 10
-5.9577
 20
-30.4077
 30
0.0
 10
-5.9224
 20
-30.5437
 30
0.0
 10
-5.9224
 20
-30.5437
 30
0.0
 10
-5.9224
 20
-30.5437
 30
0.0
 10
-6.1637
 20
-30.61
 30
0.0
 10
-6.1637
 20
-30.61
 30
0.0
 10
-6.1637
 20
-30.61
 30
0.0
 10
-6.1943
 20
-30.507
 30
0.0
 10
-6.2319
 20
-30.4261
 30
0.0
 10
-6.2766
 20
-30.3673
 30
0.0
 10
-6.2766
 20
-30.3673
 30
0.0
 10
-6.3217
 20
-30.3085
 30
0.0
 10
-6.3862
 20
-30.2615
 30
0.0
 10
-6.4699
 20
-30.2262
 30
0.0
 10
-6.4699
 20
-30.2262
 30
0.0
 10
-6.5532
 20
-30.1909
 30
0.0
 10
-6.6463
 20
-30.173
 30
0.0
 10
-6.7479
 20
-30.173
 30
0.0
 10
-6.7479
 20
-30.173
 30
0.0
 10
-6.8702
 20
-30.173
 30
0.0
 10
-6.976
 20
-30.1919
 30
0.0
 10
-7.0649
 20
-30.229
 30
0.0
 10
-7.0649
 20
-30.229
 30
0.0
 10
-7.1543
 20
-30.2662
 30
0.0
 10
-7.2258
 20
-30.3151
 30
0.0
 10
-7.2808
 20
-30.3758
 30
0.0
 10
-7.2808
 20
-30.3758
 30
0.0
 10
-7.3354
 20
-30.4364
 30
0.0
 10
-7.3777
 20
-30.5028
 30
0.0
 10
-7.4083
 20
-30.5757
 30
0.0
 10
-7.4083
 20
-30.5757
 30
0.0
 10
-7.4595
 20
-30.7003
 30
0.0
 10
-7.4854
 20
-30.8358
 30
0.0
 10
-7.4854
 20
-30.9821
 30
0.0
 10
-7.4854
 20
-30.9821
 30
0.0
 10
-7.4854
 20
-31.1622
 30
0.0
 10
-7.4544
 20
-31.3127
 30
0.0
 10
-7.3923
 20
-31.4341
 30
0.0
 10
-7.3923
 20
-31.4341
 30
0.0
 10
-7.3302
 20
-31.5554
 30
0.0
 10
-7.2399
 20
-31.6453
 30
0.0
 10
-7.1214
 20
-31.7041
 30
0.0
 10
-7.1214
 20
-31.7041
 30
0.0
 10
-7.0028
 20
-31.7629
 30
0.0
 10
-6.8772
 20
-31.7925
 30
0.0
 10
-6.7441
 20
-31.7925
 30
0.0
 10
-6.7441
 20
-31.7925
 30
0.0
 10
-6.6279
 20
-31.7925
 30
0.0
 10
-6.5151
 20
-31.7699
 30
0.0
 10
-6.405
 20
-31.7252
 30
0.0
 10
-6.405
 20
-31.7252
 30
0.0
 10
-6.2944
 20
-31.681
 30
0.0
 10
-6.2112
 20
-31.6335
 30
0.0
 10
-6.1543
 20
-31.5827
 30
0.0
 10
-6.1543
 20
-31.5827
 30
0.0
 10
-6.1543
 20
-31.5827
 30
0.0
 10
-6.1543
 20
-31.2064
 30
0.0
 10
-6.1543
 20
-31.2064
 30
0.0
 10
-6.1543
 20
-31.2064
 30
0.0
 10
-6.1543
 20
-31.2064
 30
0.0
 10
-6.7479
 20
-31.2064
 30
0.0
 10
-6.7479
 20
-31.2064
 30
0.0
  0
SPLINE
  5
42
330
1F
100
AcDbEntity
  8
DEFAULT_3
 62
   250
100
AcDbSpline
210
0.0
220
0.0
230
1.0
 70
    11
 71
     3
 72
    80
 73
    76
 74
     0
 42
0.0000000001
 43
0.0000000001
 40
0.0
 40
0.0
 40
0.0
 40
0.0
 40
0.05
 40
0.05
 40
0.05
 40
0.05
 40
0.1
 40
0.1
 40
0.1
 40
0.1
 40
0.15
 40
0.15
 40
0.15
 40
0.15
 40
0.2
 40
0.2
 40
0.2
 40
0.2
 40
0.25
 40
0.25
 40
0.25
 40
0.25
 40
0.3
 40
0.3
 40
0.3
 40
0.3
 40
0.35
 40
0.35
 40
0.35
 40
0.35
 40
0.4
 40
0.4
 40
0.4
 40
0.4
 40
0.45
 40
0.45
 40
0.45
 40
0.45
 40
0.5
 40
0.5
 40
0.5
 40
0.5
 40
0.55
 40
0.55
 40
0.55
 40
0.55
 40
0.6
 40
0.6
 40
0.6
 40
0.6
 40
0.65
 40
0.65
 40
0.65
 40
0.65
 40
0.7
 40
0.7
 40
0.7
 40
0.7
 40
0.75
 40
0.75
 40
0.75
 40
0.75
 40
0.8
 40
0.8
 40
0.8
 40
0.8
 40
0.85
 40
0.85
 40
0.85
 40
0.85
 40
0.9
 40
0.9
 40
0.9
 40
0.9
 40
1.0
 40
1.0
 40
1.0
 40
1.0
 10
-3.5278
 20
-30.4736
 30
0.0
 10
-3.5278
 20
-30.4736
 30
0.0
 10
-3.7742
 20
-30.4929
 30
0.0
 10
-3.7742
 20
-30.4929
 30
0.0
 10
-3.7742
 20
-30.4929
 30
0.0
 10
-3.7963
 20
-30.3955
 30
0.0
 10
-3.8274
 20
-30.3245
 30
0.0
 10
-3.8678
 20
-30.2808
 30
0.0
 10
-3.8678
 20
-30.2808
 30
0.0
 10
-3.9351
 20
-30.2097
 30
0.0
 10
-4.0179
 20
-30.1744
 30
0.0
 10
-4.1162
 20
-30.1744
 30
0.0
 10
-4.1162
 20
-30.1744
 30
0.0
 10
-4.1952
 20
-30.1744
 30
0.0
 10
-4.2643
 20
-30.1966
 30
0.0
 10
-4.3241
 20
-30.2408
 30
0.0
 10
-4.3241
 20
-30.2408
 30
0.0
 10
-4.4022
 20
-30.2977
 30
0.0
 10
-4.4638
 20
-30.3809
 30
0.0
 10
-4.5089
 20
-30.4901
 30
0.0
 10
-4.5089
 20
-30.4901
 30
0.0
 10
-4.5536
 20
-30.5992
 30
0.0
 10
-4.5771
 20
-30.7549
 30
0.0
 10
-4.579
 20
-30.9571
 30
0.0
 10
-4.579
 20
-30.9571
 30
0.0
 10
-4.5193
 20
-30.8664
 30
0.0
 10
-4.4464
 20
-30.7986
 30
0.0
 10
-4.3598
 20
-30.7544
 30
0.0
 10
-4.3598
 20
-30.7544
 30
0.0
 10
-4.2738
 20
-30.7107
 30
0.0
 10
-4.183
 20
-30.6886
 30
0.0
 10
-4.0884
 20
-30.6886
 30
0.0
 10
-4.0884
 20
-30.6886
 30
0.0
 10
-3.9229
 20
-30.6886
 30
0.0
 10
-3.7822
 20
-30.7492
 30
0.0
 10
-3.666
 20
-30.8711
 30
0.0
 10
-3.666
 20
-30.8711
 30
0.0
 10
-3.5499
 20
-30.9929
 30
0.0
 10
-3.4915
 20
-31.15
 30
0.0
 10
-3.4915
 20
-31.3428
 30
0.0
 10
-3.4915
 20
-31.3428
 30
0.0
 10
-3.4915
 20
-31.4698
 30
0.0
 10
-3.5193
 20
-31.5874
 30
0.0
 10
-3.5739
 20
-31.6966
 30
0.0
 10
-3.5739
 20
-31.6966
 30
0.0
 10
-3.6284
 20
-31.8052
 30
0.0
 10
-3.7037
 20
-31.8889
 30
0.0
 10
-3.7992
 20
-31.9468
 30
0.0
 10
-3.7992
 20
-31.9468
 30
0.0
 10
-3.8946
 20
-32.0046
 30
0.0
 10
-4.0028
 20
-32.0333
 30
0.0
 10
-4.1242
 20
-32.0333
 30
0.0
 10
-4.1242
 20
-32.0333
 30
0.0
 10
-4.3311
 20
-32.0333
 30
0.0
 10
-4.4995
 20
-31.9576
 30
0.0
 10
-4.6298
 20
-31.8052
 30
0.0
 10
-4.6298
 20
-31.8052
 30
0.0
 10
-4.7606
 20
-31.6533
 30
0.0
 10
-4.8255
 20
-31.4026
 30
0.0
 10
-4.8255
 20
-31.0536
 30
0.0
 10
-4.8255
 20
-31.0536
 30
0.0
 10
-4.8255
 20
-30.6632
 30
0.0
 10
-4.7535
 20
-30.3795
 30
0.0
 10
-4.6091
 20
-30.2022
 30
0.0
 10
-4.6091
 20
-30.2022
 30
0.0
 10
-4.4835
 20
-30.0479
 30
0.0
 10
-4.3142
 20
-29.9703
 30
0.0
 10
-4.1007
 20
-29.9703
 30
0.0
 10
-4.1007
 20
-29.9703
 30
0.0
 10
-3.9421
 20
-29.9703
 30
0.0
 10
-3.8119
 20
-30.015
 30
0.0
 10
-3.7103
 20
-30.1044
 30
0.0
 10
-3.7103
 20
-30.1044
 30
0.0
 10
-3.6087
 20
-30.1933
 30
0.0
 10
-3.548
 20
-30.3165
 30
0.0
 10
-3.5278
 20
-30.4736
 30
0.0
  0
SPLINE
  5
43
330
1F
100
AcDbEntity
  8
DEFAULT_3
 62
   250
100
AcDbSpline
210
0.0
220
0.0
230
1.0
 70
    11
 71
     3
 72
    40
 73
    36
 74
     0
 42
0.0000000001
 43
0.0000000001
 40
0.0
 40
0.0
 40
0.0
 40
0.0
 40
0.1
 40
0.1
 40
0.1
 40
0.1
 40
0.2
 40
0.2
 40
0.2
 40
0.2
 40
0.3
 40
0.3
 40
0.3
 40
0.3
 40
0.4
 40
0.4
 40
0.4
 40
0.4
 40
0.5
 40
0.5
 40
0.5
 40
0.5
 40
0.6
 40
0.6
 40
0.6
 40
0.6
 40
0.7
 40
0.7
 40
0.7
 40
0.7
 40
0.8
 40
0.8
 40
0.8
 40
0.8
 40
1.0
 40
1.0
 40
1.0
 40
1.0
 10
-4.5405
 20
-31.3442
 30
0.0
 10
-4.5405
 20
-31.4299
 30
0.0
 10
-4.5221
 20
-31.5117
 30
0.0
 10
-4.4859
 20
-31.5898
 30
0.0
 10
-4.4859
 20
-31.5898
 30
0.0
 10
-4.4497
 20
-31.6679
 30
0.0
 10
-4.3989
 20
-31.7271
 30
0.0
 10
-4.334
 20
-31.768
 30
0.0
 10
-4.334
 20
-31.768
 30
0.0
 10
-4.2686
 20
-31.809
 30
0.0
 10
-4.1999
 20
-31.8297
 30
0.0
 10
-4.1284
 20
-31.8297
 30
0.0
 10
-4.1284
 20
-31.8297
 30
0.0
 10
-4.0235
 20
-31.8297
 30
0.0
 10
-3.9337
 20
-31.7873
 30
0.0
 10
-3.8584
 20
-31.7027
 30
0.0
 10
-3.8584
 20
-31.7027
 30
0.0
 10
-3.7832
 20
-31.618
 30
0.0
 10
-3.7455
 20
-31.5032
 30
0.0
 10
-3.7455
 20
-31.3584
 30
0.0
 10
-3.7455
 20
-31.3584
 30
0.0
 10
-3.7455
 20
-31.2187
 30
0.0
 10
-3.7827
 20
-31.1086
 30
0.0
 10
-3.857
 20
-31.0282
 30
0.0
 10
-3.857
 20
-31.0282
 30
0.0
 10
-3.9313
 20
-30.9477
 30
0.0
 10
-4.0249
 20
-30.9077
 30
0.0
 10
-4.1378
 20
-30.9077
 30
0.0
 10
-4.1378
 20
-30.9077
 30
0.0
 10
-4.2502
 20
-30.9077
 30
0.0
 10
-4.3453
 20
-30.9477
 30
0.0
 10
-4.4233
 20
-31.0282
 30
0.0
 10
-4.4233
 20
-31.0282
 30
0.0
 10
-4.5014
 20
-31.1086
 30
0.0
 10
-4.5405
 20
-31.214
 30
0.0
 10
-4.5405
 20
-31.3442
 30
0.0
  0
SPLINE
  5
44
330
1F
100
AcDbEntity
  8
DEFAULT_3
 62
   250
100
AcDbSpline
210
0.0
220
0.0
230
1.0
 70
    11
 71
     3
 72
    20
 73
    16
 74
     0
 42
0.0000000001
 43
0.0000000001
 40
0.0
 40
0.0
 40
0.0
 40
0.0
 40
0.2
 40
0.2
 40
0.2
 40
0.2
 40
0.4
 40
0.4
 40
0.4
 40
0.4
 40
0.6
 40
0.6
 40
0.6
 40
0.6
 40
1.0
 40
1.0
 40
1.0
 40
1.0
 10
-3.3622
 20
-32.0333
 30
0.0
 10
-3.3622
 20
-32.0333
 30
0.0
 10
-2.7766
 20
-29.9444
 30
0.0
 10
-2.7766
 20
-29.9444
 30
0.0
 10
-2.7766
 20
-29.9444
 30
0.0
 10
-2.7766
 20
-29.9444
 30
0.0
 10
-2.5781
 20
-29.9444
 30
0.0
 10
-2.5781
 20
-29.9444
 30
0.0
 10
-2.5781
 20
-29.9444
 30
0.0
 10
-2.5781
 20
-29.9444
 30
0.0
 10
-3.1623
 20
-32.0333
 30
0.0
 10
-3.1623
 20
-32.0333
 30
0.0
 10
-3.1623
 20
-32.0333
 30
0.0
 10
-3.1623
 20
-32.0333
 30
0.0
 10
-3.3622
 20
-32.0333
 30
0.0
 10
-3.3622
 20
-32.0333
 30
0.0
  0
SPLINE
  5
45
330
1F
100
AcDbEntity
  8
DEFAULT_3
 62
   250
100
AcDbSpline
210
0.0
220
0.0
230
1.0
 70
    11
 71
     3
 72
    48
 73
    44
 74
     0
 42
0.0000000001
 43
0.0000000001
 40
0.0
 40
0.0
 40
0.0
 40
0.0
 40
0.0833333333333333
 40
0.0833333333333333
 40
0.0833333333333333
 40
0.0833333333333333
 40
0.1666666666666667
 40
0.1666666666666667
 40
0.1666666666666667
 40
0.1666666666666667
 40
0.25
 40
0.25
 40
0.25
 40
0.25
 40
0.3333333333333333
 40
0.3333333333333333
 40
0.3333333333333333
 40
0.3333333333333333
 40
0.4166666666666667
 40
0.4166666666666667
 40
0.4166666666666667
 40
0.4166666666666667
 40
0.5
 40
0.5
 40
0.5
 40
0.5
 40
0.5833333333333334
 40
0.5833333333333334
 40
0.5833333333333334
 40
0.5833333333333334
 40
0.6666666666666666
 40
0.6666666666666666
 40
0.6666666666666666
 40
0.6666666666666666
 40
0.75
 40
0.75
 40
0.75
 40
0.75
 40
0.8333333333333334
 40
0.8333333333333334
 40
0.8333333333333334
 40
0.8333333333333334
 40
1.0
 40
1.0
 40
1.0
 40
1.0
 10
-1.6661
 20
-31.999
 30
0.0
 10
-1.6661
 20
-31.999
 30
0.0
 10
-1.6661
 20
-31.5155
 30
0.0
 10
-1.6661
 20
-31.5155
 30
0.0
 10
-1.6661
 20
-31.5155
 30
0.0
 10
-1.6661
 20
-31.5155
 30
0.0
 10
-2.5424
 20
-31.5155
 30
0.0
 10
-2.5424
 20
-31.5155
 30
0.0
 10
-2.5424
 20
-31.5155
 30
0.0
 10
-2.5424
 20
-31.5155
 30
0.0
 10
-2.5424
 20
-31.2878
 30
0.0
 10
-2.5424
 20
-31.2878
 30
0.0
 10
-2.5424
 20
-31.2878
 30
0.0
 10
-2.5424
 20
-31.2878
 30
0.0
 10
-1.6204
 20
-29.9788
 30
0.0
 10
-1.6204
 20
-29.9788
 30
0.0
 10
-1.6204
 20
-29.9788
 30
0.0
 10
-1.6204
 20
-29.9788
 30
0.0
 10
-1.4177
 20
-29.9788
 30
0.0
 10
-1.4177
 20
-29.9788
 30
0.0
 10
-1.4177
 20
-29.9788
 30
0.0
 10
-1.4177
 20
-29.9788
 30
0.0
 10
-1.4177
 20
-31.2878
 30
0.0
 10
-1.4177
 20
-31.2878
 30
0.0
 10
-1.4177
 20
-31.2878
 30
0.0
 10
-1.4177
 20
-31.2878
 30
0.0
 10
-1.1449
 20
-31.2878
 30
0.0
 10
-1.1449
 20
-31.2878
 30
0.0
 10
-1.1449
 20
-31.2878
 30
0.0
 10
-1.1449
 20
-31.2878
 30
0.0
 10
-1.1449
 20
-31.5155
 30
0.0
 10
-1.1449
 20
-31.5155
 30
0.0
 10
-1.1449
 20
-31.5155
 30
0.0
 10
-1.1449
 20
-31.5155
 30
0.0
 10
-1.4177
 20
-31.5155
 30
0.0
 10
-1.4177
 20
-31.5155
 30
0.0
 10
-1.4177
 20
-31.5155
 30
0.0
 10
-1.4177
 20
-31.5155
 30
0.0
 10
-1.4177
 20
-31.999
 30
0.0
 10
-1.4177
 20
-31.999
 30
0.0
 10
-1.4177
 20
-31.999
 30
0.0
 10
-1.4177
 20
-31.999
 30
0.0
 10
-1.6661
 20
-31.999
 30
0.0
 10
-1.6661
 20
-31.999
 30
0.0
  0
SPLINE
  5
46
330
1F
100
AcDbEntity
  8
DEFAULT_3
 62
   250
100
AcDbSpline
210
0.0
220
0.0
230
1.0
 70
    11
 71
     3
 72
    16
 73
    12
 74
     0
 42
0.0000000001
 43
0.0000000001
 40
0.0
 40
0.0
 40
0.0
 40
0.0
 40
0.25
 40
0.25
 40
0.25
 40
0.25
 40
0.5
 40
0.5
 40
0.5
 40
0.5
 40
1.0
 40
1.0
 40
1.0
 40
1.0
 10
-1.6661
 20
-31.2878
 30
0.0
 10
-1.6661
 20
-31.2878
 30
0.0
 10
-1.6661
 20
-30.3772
 30
0.0
 10
-1.6661
 20
-30.3772
 30
0.0
 10
-1.6661
 20
-30.3772
 30
0.0
 10
-1.6661
 20
-30.3772
 30
0.0
 10
-2.2982
 20
-31.2878
 30
0.0
 10
-2.2982
 20
-31.2878
 30
0.0
 10
-2.2982
 20
-31.2878
 30
0.0
 10
-2.2982
 20
-31.2878
 30
0.0
 10
-1.6661
 20
-31.2878
 30
0.0
 10
-1.6661
 20
-31.2878
 30
0.0
  0
SPLINE
  5
47
330
1F
100
AcDbEntity
  8
DEFAULT_3
 62
   250
100
AcDbSpline
210
0.0
220
0.0
230
1.0
 70
    11
 71
     3
 72
    28
 73
    24
 74
     0
 42
0.0000000001
 43
0.0000000001
 40
0.0
 40
0.0
 40
0.0
 40
0.0
 40
0.1428571428571428
 40
0.1428571428571428
 40
0.1428571428571428
 40
0.1428571428571428
 40
0.2857142857142857
 40
0.2857142857142857
 40
0.2857142857142857
 40
0.2857142857142857
 40
0.4285714285714285
 40
0.4285714285714285
 40
0.4285714285714285
 40
0.4285714285714285
 40
0.5714285714285714
 40
0.5714285714285714
 40
0.5714285714285714
 40
0.5714285714285714
 40
0.7142857142857143
 40
0.7142857142857143
 40
0.7142857142857143
 40
0.7142857142857143
 40
1.0
 40
1.0
 40
1.0
 40
1.0
 10
-0.81
 20
-30.6942
 30
0.0
 10
-0.81
 20
-30.6942
 30
0.0
 10
-0.8791
 20
-30.3094
 30
0.0
 10
-0.8791
 20
-30.3094
 30
0.0
 10
-0.8791
 20
-30.3094
 30
0.0
 10
-0.8791
 20
-30.3094
 30
0.0
 10
-0.8791
 20
-29.9788
 30
0.0
 10
-0.8791
 20
-29.9788
 30
0.0
 10
-0.8791
 20
-29.9788
 30
0.0
 10
-0.8791
 20
-29.9788
 30
0.0
 10
-0.5965
 20
-29.9788
 30
0.0
 10
-0.5965
 20
-29.9788
 30
0.0
 10
-0.5965
 20
-29.9788
 30
0.0
 10
-0.5965
 20
-29.9788
 30
0.0
 10
-0.5965
 20
-30.3094
 30
0.0
 10
-0.5965
 20
-30.3094
 30
0.0
 10
-0.5965
 20
-30.3094
 30
0.0
 10
-0.5965
 20
-30.3094
 30
0.0
 10
-0.6585
 20
-30.6942
 30
0.0
 10
-0.6585
 20
-30.6942
 30
0.0
 10
-0.6585
 20
-30.6942
 30
0.0
 10
-0.6585
 20
-30.6942
 30
0.0
 10
-0.81
 20
-30.6942
 30
0.0
 10
-0.81
 20
-30.6942
 30
0.0
  0
SPLINE
  5
48
330
1F
100
AcDbEntity
  8
DEFAULT_3
 62
   250
100
AcDbSpline
210
0.0
220
0.0
230
1.0
 70
    11
 71
     3
 72
    28
 73
    24
 74
     0
 42
0.0000000001
 43
0.0000000001
 40
0.0
 40
0.0
 40
0.0
 40
0.0
 40
0.1428571428571428
 40
0.1428571428571428
 40
0.1428571428571428
 40
0.1428571428571428
 40
0.2857142857142857
 40
0.2857142857142857
 40
0.2857142857142857
 40
0.2857142857142857
 40
0.4285714285714285
 40
0.4285714285714285
 40
0.4285714285714285
 40
0.4285714285714285
 40
0.5714285714285714
 40
0.5714285714285714
 40
0.5714285714285714
 40
0.5714285714285714
 40
0.7142857142857143
 40
0.7142857142857143
 40
0.7142857142857143
 40
0.7142857142857143
 40
1.0
 40
1.0
 40
1.0
 40
1.0
 10
-0.3537
 20
-30.6942
 30
0.0
 10
-0.3537
 20
-30.6942
 30
0.0
 10
-0.4215
 20
-30.3094
 30
0.0
 10
-0.4215
 20
-30.3094
 30
0.0
 10
-0.4215
 20
-30.3094
 30
0.0
 10
-0.4215
 20
-30.3094
 30
0.0
 10
-0.4215
 20
-29.9788
 30
0.0
 10
-0.4215
 20
-29.9788
 30
0.0
 10
-0.4215
 20
-29.9788
 30
0.0
 10
-0.4215
 20
-29.9788
 30
0.0
 10
-0.1388
 20
-29.9788
 30
0.0
 10
-0.1388
 20
-29.9788
 30
0.0
 10
-0.1388
 20
-29.9788
 30
0.0
 10
-0.1388
 20
-29.9788
 30
0.0
 10
-0.1388
 20
-30.3094
 30
0.0
 10
-0.1388
 20
-30.3094
 30
0.0
 10
-0.1388
 20
-30.3094
 30
0.0
 10
-0.1388
 20
-30.3094
 30
0.0
 10
-0.2051
 20
-30.6942
 30
0.0
 10
-0.2051
 20
-30.6942
 30
0.0
 10
-0.2051
 20
-30.6942
 30
0.0
 10
-0.2051
 20
-30.6942
 30
0.0
 10
-0.3537
 20
-30.6942
 30
0.0
 10
-0.3537
 20
-30.6942
 30
0.0
  0
SPLINE
  5
49
330
1F
100
AcDbEntity
  8
DEFAULT_3
 62
   250
100
AcDbSpline
210
0.0
220
0.0
230
1.0
 70
    24
 71
     3
 72
     8
 73
     4
 74
     0
 42
0.0000000001
 43
0.0000000001
 40
0.0
 40
0.0
 40
0.0
 40
0.0
 40
1.0
 40
1.0
 40
1.0
 40
1.0
 10
-13.3963
 20
-27.8439
 30
0.0
 10
-13.3963
 20
-27.8439
 30
0.0
 10
-13.3963
 20
-33.2484
 30
0.0
 10
-13.3963
 20
-33.2484
 30
0.0
  0
SPLINE
  5
4A
330
1F
100
AcDbEntity
  8
DEFAULT_3
 62
   250
100
AcDbSpline
210
0.0
220
0.0
230
1.0
 70
    24
 71
     3
 72
     8
 73
     4
 74
     0
 42
0.0000000001
 43
0.0000000001
 40
0.0
 40
0.0
 40
0.0
 40
0.0
 40
1.0
 40
1.0
 40
1.0
 40
1.0
 10
5.0889
 20
-28.0254
 30
0.0
 10
5.0889
 20
-28.0254
 30
0.0
 10
5.0889
 20
-33.5914
 30
0.0
 10
5.0889
 20
-33.5914
 30
0.0
  0
SPLINE
  5
4B
330
1F
100
AcDbEntity
  8
DEFAULT_3
 62
   250
100
AcDbSpline
210
0.0
220
0.0
230
1.0
 70
    24
 71
     3
 72
     8
 73
     4
 74
     0
 42
0.0000000001
 43
0.0000000001
 40
0.0
 40
0.0
 40
0.0
 40
0.0
 40
1.0
 40
1.0
 40
1.0
 40
1.0
 10
8.4876
 20
-32.7338
 30
0.0
 10
8.4876
 20
-32.7338
 30
0.0
 10
-17.0955
 20
-32.7338
 30
0.0
 10
-17.0955
 20
-32.7338
 30
0.0
  0
SPLINE
  5
4C
330
1F
100
AcDbEntity
  8
DEFAULT_3
 62
   250
100
AcDbSpline
210
0.0
220
0.0
230
1.0
 70
    11
 71
     3
 72
   124
 73
   120
 74
     0
 42
0.0000000001
 43
0.0000000001
 40
0.0
 40
0.0
 40
0.0
 40
0.0
 40
0.032258064516129
 40
0.032258064516129
 40
0.032258064516129
 40
0.032258064516129
 40
0.0645161290322581
 40
0.0645161290322581
 40
0.0645161290322581
 40
0.0645161290322581
 40
0.0967741935483871
 40
0.0967741935483871
 40
0.0967741935483871
 40
0.0967741935483871
 40
0.1290322580645161
 40
0.1290322580645161
 40
0.1290322580645161
 40
0.1290322580645161
 40
0.1612903225806452
 40
0.1612903225806452
 40
0.1612903225806452
 40
0.1612903225806452
 40
0.1935483870967742
 40
0.1935483870967742
 40
0.1935483870967742
 40
0.1935483870967742
 40
0.2258064516129032
 40
0.2258064516129032
 40
0.2258064516129032
 40
0.2258064516129032
 40
0.2580645161290323
 40
0.2580645161290323
 40
0.2580645161290323
 40
0.2580645161290323
 40
0.2903225806451613
 40
0.2903225806451613
 40
0.2903225806451613
 40
0.2903225806451613
 40
0.3225806451612903
 40
0.3225806451612903
 40
0.3225806451612903
 40
0.3225806451612903
 40
0.3548387096774194
 40
0.3548387096774194
 40
0.3548387096774194
 40
0.3548387096774194
 40
0.3870967741935484
 40
0.3870967741935484
 40
0.3870967741935484
 40
0.3870967741935484
 40
0.4193548387096774
 40
0.4193548387096774
 40
0.4193548387096774
 40
0.4193548387096774
 40
0.4516129032258064
 40
0.4516129032258064
 40
0.4516129032258064
 40
0.4516129032258064
 40
0.4838709677419355
 40
0.4838709677419355
 40
0.4838709677419355
 40
0.4838709677419355
 40
0.5161290322580645
 40
0.5161290322580645
 40
0.5161290322580645
 40
0.5161290322580645
 40
0.5483870967741935
 40
0.5483870967741935
 40
0.5483870967741935
 40
0.5483870967741935
 40
0.5806451612903226
 40
0.5806451612903226
 40
0.5806451612903226
 40
0.5806451612903226
 40
0.6129032258064516
 40
0.6129032258064516
 40
0.6129032258064516
 40
0.6129032258064516
 40
0.6451612903225806
 40
0.6451612903225806
 40
0.6451612903225806
 40
0.6451612903225806
 40
0.6774193548387096
 40
0.6774193548387096
 40
0.6774193548387096
 40
0.6774193548387096
 40
0.7096774193548387
 40
0.7096774193548387
 40
0.7096774193548387
 40
0.7096774193548387
 40
0.7419354838709677
 40
0.7419354838709677
 40
0.7419354838709677
 40
0.7419354838709677
 40
0.7741935483870968
 40
0.7741935483870968
 40
0.7741935483870968
 40
0.7741935483870968
 40
0.8064516129032258
 40
0.8064516129032258
 40
0.8064516129032258
 40
0.8064516129032258
 40
0.8387096774193549
 40
0.8387096774193549
 40
0.8387096774193549
 40
0.8387096774193549
 40
0.8709677419354839
 40
0.8709677419354839
 40
0.8709677419354839
 40
0.8709677419354839
 40
0.9032258064516129
 40
0.9032258064516129
 40
0.9032258064516129
 40
0.9032258064516129
 40
0.9354838709677419
 40
0.9354838709677419
 40
0.9354838709677419
 40
0.9354838709677419
 40
1.0
 40
1.0
 40
1.0
 40
1.0
 10
16.6256
 20
-21.3715
 30
0.0
 10
16.6256
 20
-21.3715
 30
0.0
 10
16.5927
 20
-21.1236
 30
0.0
 10
16.5927
 20
-21.1236
 30
0.0
 10
16.5927
 20
-21.1236
 30
0.0
 10
16.7333
 20
-21.0949
 30
0.0
 10
16.8344
 20
-21.0464
 30
0.0
 10
16.8965
 20
-20.9782
 30
0.0
 10
16.8965
 20
-20.9782
 30
0.0
 10
16.9586
 20
-20.9096
 30
0.0
 10
16.9897
 20
-20.8263
 30
0.0
 10
16.9897
 20
-20.728
 30
0.0
 10
16.9897
 20
-20.728
 30
0.0
 10
16.9897
 20
-20.6114
 30
0.0
 10
16.9492
 20
-20.5126
 30
0.0
 10
16.8683
 20
-20.4321
 30
0.0
 10
16.8683
 20
-20.4321
 30
0.0
 10
16.7874
 20
-20.3522
 30
0.0
 10
16.6872
 20
-20.3117
 30
0.0
 10
16.5677
 20
-20.3117
 30
0.0
 10
16.5677
 20
-20.3117
 30
0.0
 10
16.4539
 20
-20.3117
 30
0.0
 10
16.3598
 20
-20.3489
 30
0.0
 10
16.286
 20
-20.4232
 30
0.0
 10
16.286
 20
-20.4232
 30
0.0
 10
16.2122
 20
-20.498
 30
0.0
 10
16.175
 20
-20.5925
 30
0.0
 10
16.175
 20
-20.7073
 30
0.0
 10
16.175
 20
-20.7073
 30
0.0
 10
16.175
 20
-20.7543
 30
0.0
 10
16.1844
 20
-20.8127
 30
0.0
 10
16.2027
 20
-20.8823
 30
0.0
 10
16.2027
 20
-20.8823
 30
0.0
 10
16.2027
 20
-20.8823
 30
0.0
 10
15.985
 20
-20.8545
 30
0.0
 10
15.985
 20
-20.8545
 30
0.0
 10
15.985
 20
-20.8545
 30
0.0
 10
15.9868
 20
-20.8381
 30
0.0
 10
15.9878
 20
-20.8249
 30
0.0
 10
15.9878
 20
-20.8146
 30
0.0
 10
15.9878
 20
-20.8146
 30
0.0
 10
15.9878
 20
-20.7092
 30
0.0
 10
15.96
 20
-20.6142
 30
0.0
 10
15.905
 20
-20.5295
 30
0.0
 10
15.905
 20
-20.5295
 30
0.0
 10
15.85
 20
-20.4448
 30
0.0
 10
15.7648
 20
-20.4025
 30
0.0
 10
15.6501
 20
-20.4025
 30
0.0
 10
15.6501
 20
-20.4025
 30
0.0
 10
15.5593
 20
-20.4025
 30
0.0
 10
15.4836
 20
-20.4336
 30
0.0
 10
15.4243
 20
-20.4952
 30
0.0
 10
15.4243
 20
-20.4952
 30
0.0
 10
15.3646
 20
-20.5568
 30
0.0
 10
15.3344
 20
-20.6363
 30
0.0
 10
15.3344
 20
-20.7337
 30
0.0
 10
15.3344
 20
-20.7337
 30
0.0
 10
15.3344
 20
-20.8301
 30
0.0
 10
15.365
 20
-20.9105
 30
0.0
 10
15.4252
 20
-20.9745
 30
0.0
 10
15.4252
 20
-20.9745
 30
0.0
 10
15.4859
 20
-21.0389
 30
0.0
 10
15.5772
 20
-21.0803
 30
0.0
 10
15.6985
 20
-21.0987
 30
0.0
 10
15.6985
 20
-21.0987
 30
0.0
 10
15.6985
 20
-21.0987
 30
0.0
 10
15.6543
 20
-21.3465
 30
0.0
 10
15.6543
 20
-21.3465
 30
0.0
 10
15.6543
 20
-21.3465
 30
0.0
 10
15.4878
 20
-21.3164
 30
0.0
 10
15.3589
 20
-21.2473
 30
0.0
 10
15.2677
 20
-21.14
 30
0.0
 10
15.2677
 20
-21.14
 30
0.0
 10
15.1764
 20
-21.0323
 30
0.0
 10
15.1303
 20
-20.8987
 30
0.0
 10
15.1303
 20
-20.7388
 30
0.0
 10
15.1303
 20
-20.7388
 30
0.0
 10
15.1303
 20
-20.6288
 30
0.0
 10
15.1543
 20
-20.5272
 30
0.0
 10
15.2013
 20
-20.4345
 30
0.0
 10
15.2013
 20
-20.4345
 30
0.0
 10
15.2488
 20
-20.3418
 30
0.0
 10
15.3133
 20
-20.2708
 30
0.0
 10
15.3951
 20
-20.2214
 30
0.0
 10
15.3951
 20
-20.2214
 30
0.0
 10
15.477
 20
-20.1725
 30
0.0
 10
15.5635
 20
-20.1476
 30
0.0
 10
15.6557
 20
-20.1476
 30
0.0
 10
15.6557
 20
-20.1476
 30
0.0
 10
15.7427
 20
-20.1476
 30
0.0
 10
15.8222
 20
-20.1711
 30
0.0
 10
15.8942
 20
-20.2181
 30
0.0
 10
15.8942
 20
-20.2181
 30
0.0
 10
15.9657
 20
-20.2652
 30
0.0
 10
16.0226
 20
-20.3343
 30
0.0
 10
16.0649
 20
-20.426
 30
0.0
 10
16.0649
 20
-20.426
 30
0.0
 10
16.0922
 20
-20.3066
 30
0.0
 10
16.1496
 20
-20.2139
 30
0.0
 10
16.2366
 20
-20.1476
 30
0.0
 10
16.2366
 20
-20.1476
 30
0.0
 10
16.3232
 20
-20.0817
 30
0.0
 10
16.4318
 20
-20.0488
 30
0.0
 10
16.5621
 20
-20.0488
 30
0.0
 10
16.5621
 20
-20.0488
 30
0.0
 10
16.7385
 20
-20.0488
 30
0.0
 10
16.8881
 20
-20.1128
 30
0.0
 10
17.0108
 20
-20.2416
 30
0.0
 10
17.0108
 20
-20.2416
 30
0.0
 10
17.1336
 20
-20.3701
 30
0.0
 10
17.1947
 20
-20.5328
 30
0.0
 10
17.1947
 20
-20.7294
 30
0.0
 10
17.1947
 20
-20.7294
 30
0.0
 10
17.1947
 20
-20.9067
 30
0.0
 10
17.1421
 20
-21.054
 30
0.0
 10
17.0362
 20
-21.1711
 30
0.0
 10
17.0362
 20
-21.1711
 30
0.0
 10
16.9309
 20
-21.2882
 30
0.0
 10
16.794
 20
-21.355
 30
0.0
 10
16.6256
 20
-21.3715
 30
0.0
  0
SPLINE
  5
4D
330
1F
100
AcDbEntity
  8
DEFAULT_3
 62
   250
100
AcDbSpline
210
0.0
220
0.0
230
1.0
 70
    11
 71
     3
 72
    92
 73
    88
 74
     0
 42
0.0000000001
 43
0.0000000001
 40
0.0
 40
0.0
 40
0.0
 40
0.0
 40
0.0434782608695652
 40
0.0434782608695652
 40
0.0434782608695652
 40
0.0434782608695652
 40
0.0869565217391304
 40
0.0869565217391304
 40
0.0869565217391304
 40
0.0869565217391304
 40
0.1304347826086956
 40
0.1304347826086956
 40
0.1304347826086956
 40
0.1304347826086956
 40
0.1739130434782609
 40
0.1739130434782609
 40
0.1739130434782609
 40
0.1739130434782609
 40
0.2173913043478261
 40
0.2173913043478261
 40
0.2173913043478261
 40
0.2173913043478261
 40
0.2608695652173913
 40
0.2608695652173913
 40
0.2608695652173913
 40
0.2608695652173913
 40
0.3043478260869565
 40
0.3043478260869565
 40
0.3043478260869565
 40
0.3043478260869565
 40
0.3478260869565217
 40
0.3478260869565217
 40
0.3478260869565217
 40
0.3478260869565217
 40
0.391304347826087
 40
0.391304347826087
 40
0.391304347826087
 40
0.391304347826087
 40
0.4347826086956522
 40
0.4347826086956522
 40
0.4347826086956522
 40
0.4347826086956522
 40
0.4782608695652174
 40
0.4782608695652174
 40
0.4782608695652174
 40
0.4782608695652174
 40
0.5217391304347826
 40
0.5217391304347826
 40
0.5217391304347826
 40
0.5217391304347826
 40
0.5652173913043478
 40
0.5652173913043478
 40
0.5652173913043478
 40
0.5652173913043478
 40
0.6086956521739131
 40
0.6086956521739131
 40
0.6086956521739131
 40
0.6086956521739131
 40
0.6521739130434783
 40
0.6521739130434783
 40
0.6521739130434783
 40
0.6521739130434783
 40
0.6956521739130435
 40
0.6956521739130435
 40
0.6956521739130435
 40
0.6956521739130435
 40
0.7391304347826086
 40
0.7391304347826086
 40
0.7391304347826086
 40
0.7391304347826086
 40
0.782608695652174
 40
0.782608695652174
 40
0.782608695652174
 40
0.782608695652174
 40
0.8260869565217391
 40
0.8260869565217391
 40
0.8260869565217391
 40
0.8260869565217391
 40
0.8695652173913043
 40
0.8695652173913043
 40
0.8695652173913043
 40
0.8695652173913043
 40
0.9130434782608695
 40
0.9130434782608695
 40
0.9130434782608695
 40
0.9130434782608695
 40
1.0
 40
1.0
 40
1.0
 40
1.0
 10
16.6298
 20
-19.8033
 30
0.0
 10
16.6298
 20
-19.8033
 30
0.0
 10
16.6077
 20
-19.5427
 30
0.0
 10
16.6077
 20
-19.5427
 30
0.0
 10
16.6077
 20
-19.5427
 30
0.0
 10
16.7347
 20
-19.5234
 30
0.0
 10
16.8297
 20
-19.4787
 30
0.0
 10
16.8937
 20
-19.4086
 30
0.0
 10
16.8937
 20
-19.4086
 30
0.0
 10
16.9577
 20
-19.3381
 30
0.0
 10
16.9897
 20
-19.2534
 30
0.0
 10
16.9897
 20
-19.1542
 30
0.0
 10
16.9897
 20
-19.1542
 30
0.0
 10
16.9897
 20
-19.0347
 30
0.0
 10
16.9445
 20
-18.9336
 30
0.0
 10
16.8547
 20
-18.8513
 30
0.0
 10
16.8547
 20
-18.8513
 30
0.0
 10
16.7644
 20
-18.7685
 30
0.0
 10
16.6449
 20
-18.7271
 30
0.0
 10
16.4963
 20
-18.7271
 30
0.0
 10
16.4963
 20
-18.7271
 30
0.0
 10
16.3547
 20
-18.7271
 30
0.0
 10
16.2432
 20
-18.7666
 30
0.0
 10
16.1614
 20
-18.8461
 30
0.0
 10
16.1614
 20
-18.8461
 30
0.0
 10
16.0795
 20
-18.9256
 30
0.0
 10
16.0386
 20
-19.0295
 30
0.0
 10
16.0386
 20
-19.1584
 30
0.0
 10
16.0386
 20
-19.1584
 30
0.0
 10
16.0386
 20
-19.2384
 30
0.0
 10
16.0569
 20
-19.3103
 30
0.0
 10
16.0931
 20
-19.3748
 30
0.0
 10
16.0931
 20
-19.3748
 30
0.0
 10
16.1294
 20
-19.4392
 30
0.0
 10
16.1764
 20
-19.4895
 30
0.0
 10
16.2343
 20
-19.5262
 30
0.0
 10
16.2343
 20
-19.5262
 30
0.0
 10
16.2343
 20
-19.5262
 30
0.0
 10
16.2042
 20
-19.7591
 30
0.0
 10
16.2042
 20
-19.7591
 30
0.0
 10
16.2042
 20
-19.7591
 30
0.0
 10
16.2042
 20
-19.7591
 30
0.0
 10
15.1665
 20
-19.5634
 30
0.0
 10
15.1665
 20
-19.5634
 30
0.0
 10
15.1665
 20
-19.5634
 30
0.0
 10
15.1665
 20
-19.5634
 30
0.0
 10
15.1665
 20
-18.5587
 30
0.0
 10
15.1665
 20
-18.5587
 30
0.0
 10
15.1665
 20
-18.5587
 30
0.0
 10
15.1665
 20
-18.5587
 30
0.0
 10
15.4036
 20
-18.5587
 30
0.0
 10
15.4036
 20
-18.5587
 30
0.0
 10
15.4036
 20
-18.5587
 30
0.0
 10
15.4036
 20
-18.5587
 30
0.0
 10
15.4036
 20
-19.3649
 30
0.0
 10
15.4036
 20
-19.3649
 30
0.0
 10
15.4036
 20
-19.3649
 30
0.0
 10
15.4036
 20
-19.3649
 30
0.0
 10
15.9464
 20
-19.474
 30
0.0
 10
15.9464
 20
-19.474
 30
0.0
 10
15.9464
 20
-19.474
 30
0.0
 10
15.8617
 20
-19.3527
 30
0.0
 10
15.8194
 20
-19.2252
 30
0.0
 10
15.8194
 20
-19.0921
 30
0.0
 10
15.8194
 20
-19.0921
 30
0.0
 10
15.8194
 20
-18.9157
 30
0.0
 10
15.8805
 20
-18.7671
 30
0.0
 10
16.0028
 20
-18.6457
 30
0.0
 10
16.0028
 20
-18.6457
 30
0.0
 10
16.1251
 20
-18.5244
 30
0.0
 10
16.2822
 20
-18.4637
 30
0.0
 10
16.4741
 20
-18.4637
 30
0.0
 10
16.4741
 20
-18.4637
 30
0.0
 10
16.6571
 20
-18.4637
 30
0.0
 10
16.8152
 20
-18.5173
 30
0.0
 10
16.9483
 20
-18.6236
 30
0.0
 10
16.9483
 20
-18.6236
 30
0.0
 10
17.1115
 20
-18.7534
 30
0.0
 10
17.1933
 20
-18.9303
 30
0.0
 10
17.1933
 20
-19.1542
 30
0.0
 10
17.1933
 20
-19.1542
 30
0.0
 10
17.1933
 20
-19.3381
 30
0.0
 10
17.1421
 20
-19.4881
 30
0.0
 10
17.0391
 20
-19.6043
 30
0.0
 10
17.0391
 20
-19.6043
 30
0.0
 10
16.936
 20
-19.7205
 30
0.0
 10
16.7996
 20
-19.7868
 30
0.0
 10
16.6298
 20
-19.8033
 30
0.0
  0
SPLINE
  5
4E
330
1F
100
AcDbEntity
  8
DEFAULT_3
 62
   250
100
AcDbSpline
210
0.0
220
0.0
230
1.0
 70
    24
 71
     3
 72
     8
 73
     4
 74
     0
 42
0.0000000001
 43
0.0000000001
 40
0.0
 40
0.0
 40
0.0
 40
0.0
 40
1.0
 40
1.0
 40
1.0
 40
1.0
 10
5.5611
 20
-27.2063
 30
0.0
 10
5.5611
 20
-27.2063
 30
0.0
 10
18.6585
 20
-27.2063
 30
0.0
 10
18.6585
 20
-27.2063
 30
0.0
  0
SPLINE
  5
4F
330
1F
100
AcDbEntity
  8
DEFAULT_3
 62
   250
100
AcDbSpline
210
0.0
220
0.0
230
1.0
 70
    24
 71
     3
 72
     8
 73
     4
 74
     0
 42
0.0000000001
 43
0.0000000001
 40
0.0
 40
0.0
 40
0.0
 40
0.0
 40
1.0
 40
1.0
 40
1.0
 40
1.0
 10
10.7436
 20
-13.2773
 30
0.0
 10
10.7436
 20
-13.2773
 30
0.0
 10
18.4222
 20
-13.2773
 30
0.0
 10
18.4222
 20
-13.2773
 30
0.0
  0
SPLINE
  5
50
330
1F
100
AcDbEntity
  8
DEFAULT_3
 62
   250
100
AcDbSpline
210
0.0
220
0.0
230
1.0
 70
    24
 71
     3
 72
     8
 73
     4
 74
     0
 42
0.0000000001
 43
0.0000000001
 40
0.0
 40
0.0
 40
0.0
 40
0.0
 40
1.0
 40
1.0
 40
1.0
 40
1.0
 10
17.8438
 20
-14.7599
 30
0.0
 10
17.8438
 20
-14.7599
 30
0.0
 10
17.8438
 20
-26.3828
 30
0.0
 10
17.8438
 20
-26.3828
 30
0.0
  0
SPLINE
  5
51
330
1F
100
AcDbEntity
  8
DEFAULT_3
 62
   250
100
AcDbSpline
210
0.0
220
0.0
230
1.0
 70
    11
 71
     3
 72
   116
 73
   112
 74
     0
 42
0.0000000001
 43
0.0000000001
 40
0.0
 40
0.0
 40
0.0
 40
0.0
 40
0.0344827586206897
 40
0.0344827586206897
 40
0.0344827586206897
 40
0.0344827586206897
 40
0.0689655172413793
 40
0.0689655172413793
 40
0.0689655172413793
 40
0.0689655172413793
 40
0.103448275862069
 40
0.103448275862069
 40
0.103448275862069
 40
0.103448275862069
 40
0.1379310344827586
 40
0.1379310344827586
 40
0.1379310344827586
 40
0.1379310344827586
 40
0.1724137931034483
 40
0.1724137931034483
 40
0.1724137931034483
 40
0.1724137931034483
 40
0.2068965517241379
 40
0.2068965517241379
 40
0.2068965517241379
 40
0.2068965517241379
 40
0.2413793103448276
 40
0.2413793103448276
 40
0.2413793103448276
 40
0.2413793103448276
 40
0.2758620689655172
 40
0.2758620689655172
 40
0.2758620689655172
 40
0.2758620689655172
 40
0.3103448275862069
 40
0.3103448275862069
 40
0.3103448275862069
 40
0.3103448275862069
 40
0.3448275862068966
 40
0.3448275862068966
 40
0.3448275862068966
 40
0.3448275862068966
 40
0.3793103448275862
 40
0.3793103448275862
 40
0.3793103448275862
 40
0.3793103448275862
 40
0.4137931034482759
 40
0.4137931034482759
 40
0.4137931034482759
 40
0.4137931034482759
 40
0.4482758620689655
 40
0.4482758620689655
 40
0.4482758620689655
 40
0.4482758620689655
 40
0.4827586206896552
 40
0.4827586206896552
 40
0.4827586206896552
 40
0.4827586206896552
 40
0.5172413793103449
 40
0.5172413793103449
 40
0.5172413793103449
 40
0.5172413793103449
 40
0.5517241379310345
 40
0.5517241379310345
 40
0.5517241379310345
 40
0.5517241379310345
 40
0.5862068965517241
 40
0.5862068965517241
 40
0.5862068965517241
 40
0.5862068965517241
 40
0.6206896551724138
 40
0.6206896551724138
 40
0.6206896551724138
 40
0.6206896551724138
 40
0.6551724137931034
 40
0.6551724137931034
 40
0.6551724137931034
 40
0.6551724137931034
 40
0.6896551724137931
 40
0.6896551724137931
 40
0.6896551724137931
 40
0.6896551724137931
 40
0.7241379310344828
 40
0.7241379310344828
 40
0.7241379310344828
 40
0.7241379310344828
 40
0.7586206896551724
 40
0.7586206896551724
 40
0.7586206896551724
 40
0.7586206896551724
 40
0.7931034482758621
 40
0.7931034482758621
 40
0.7931034482758621
 40
0.7931034482758621
 40
0.8275862068965517
 40
0.8275862068965517
 40
0.8275862068965517
 40
0.8275862068965517
 40
0.8620689655172413
 40
0.8620689655172413
 40
0.8620689655172413
 40
0.8620689655172413
 40
0.896551724137931
 40
0.896551724137931
 40
0.896551724137931
 40
0.896551724137931
 40
0.9310344827586207
 40
0.9310344827586207
 40
0.9310344827586207
 40
0.9310344827586207
 40
1.0
 40
1.0
 40
1.0
 40
1.0
 10
16.6661
 20
-10.7935
 30
0.0
 10
16.6661
 20
-10.7935
 30
0.0
 10
15.2028
 20
-10.7935
 30
0.0
 10
15.2028
 20
-10.7935
 30
0.0
 10
15.2028
 20
-10.7935
 30
0.0
 10
15.2028
 20
-10.7935
 30
0.0
 10
15.2028
 20
-10.572
 30
0.0
 10
15.2028
 20
-10.572
 30
0.0
 10
15.2028
 20
-10.572
 30
0.0
 10
15.2028
 20
-10.572
 30
0.0
 10
15.4079
 20
-10.572
 30
0.0
 10
15.4079
 20
-10.572
 30
0.0
 10
15.4079
 20
-10.572
 30
0.0
 10
15.3364
 20
-10.5259
 30
0.0
 10
15.2785
 20
-10.4647
 30
0.0
 10
15.2352
 20
-10.3885
 30
0.0
 10
15.2352
 20
-10.3885
 30
0.0
 10
15.1915
 20
-10.3123
 30
0.0
 10
15.1694
 20
-10.2253
 30
0.0
 10
15.1694
 20
-10.128
 30
0.0
 10
15.1694
 20
-10.128
 30
0.0
 10
15.1694
 20
-10.0198
 30
0.0
 10
15.192
 20
-9.9309
 30
0.0
 10
15.2371
 20
-9.8617
 30
0.0
 10
15.2371
 20
-9.8617
 30
0.0
 10
15.2823
 20
-9.7921
 30
0.0
 10
15.3448
 20
-9.7432
 30
0.0
 10
15.4257
 20
-9.715
 30
0.0
 10
15.4257
 20
-9.715
 30
0.0
 10
15.255
 20
-9.5988
 30
0.0
 10
15.1694
 20
-9.4483
 30
0.0
 10
15.1694
 20
-9.263
 30
0.0
 10
15.1694
 20
-9.263
 30
0.0
 10
15.1694
 20
-9.1176
 30
0.0
 10
15.2098
 20
-9.0061
 30
0.0
 10
15.2903
 20
-8.9281
 30
0.0
 10
15.2903
 20
-8.9281
 30
0.0
 10
15.3707
 20
-8.85
 30
0.0
 10
15.4944
 20
-8.8109
 30
0.0
 10
15.6614
 20
-8.8109
 30
0.0
 10
15.6614
 20
-8.8109
 30
0.0
 10
15.6614
 20
-8.8109
 30
0.0
 10
16.6661
 20
-8.8109
 30
0.0
 10
16.6661
 20
-8.8109
 30
0.0
 10
16.6661
 20
-8.8109
 30
0.0
 10
16.6661
 20
-8.8109
 30
0.0
 10
16.6661
 20
-9.0574
 30
0.0
 10
16.6661
 20
-9.0574
 30
0.0
 10
16.6661
 20
-9.0574
 30
0.0
 10
16.6661
 20
-9.0574
 30
0.0
 10
15.7442
 20
-9.0574
 30
0.0
 10
15.7442
 20
-9.0574
 30
0.0
 10
15.7442
 20
-9.0574
 30
0.0
 10
15.6449
 20
-9.0574
 30
0.0
 10
15.5734
 20
-9.0654
 30
0.0
 10
15.5297
 20
-9.0814
 30
0.0
 10
15.5297
 20
-9.0814
 30
0.0
 10
15.4864
 20
-9.0979
 30
0.0
 10
15.4511
 20
-9.127
 30
0.0
 10
15.4243
 20
-9.1689
 30
0.0
 10
15.4243
 20
-9.1689
 30
0.0
 10
15.398
 20
-9.2112
 30
0.0
 10
15.3844
 20
-9.2611
 30
0.0
 10
15.3844
 20
-9.318
 30
0.0
 10
15.3844
 20
-9.318
 30
0.0
 10
15.3844
 20
-9.421
 30
0.0
 10
15.4187
 20
-9.5061
 30
0.0
 10
15.4874
 20
-9.5743
 30
0.0
 10
15.4874
 20
-9.5743
 30
0.0
 10
15.5556
 20
-9.6421
 30
0.0
 10
15.6652
 20
-9.6764
 30
0.0
 10
15.8157
 20
-9.6764
 30
0.0
 10
15.8157
 20
-9.6764
 30
0.0
 10
15.8157
 20
-9.6764
 30
0.0
 10
16.6661
 20
-9.6764
 30
0.0
 10
16.6661
 20
-9.6764
 30
0.0
 10
16.6661
 20
-9.6764
 30
0.0
 10
16.6661
 20
-9.6764
 30
0.0
 10
16.6661
 20
-9.9243
 30
0.0
 10
16.6661
 20
-9.9243
 30
0.0
 10
16.6661
 20
-9.9243
 30
0.0
 10
16.6661
 20
-9.9243
 30
0.0
 10
15.7155
 20
-9.9243
 30
0.0
 10
15.7155
 20
-9.9243
 30
0.0
 10
15.7155
 20
-9.9243
 30
0.0
 10
15.605
 20
-9.9243
 30
0.0
 10
15.5222
 20
-9.9445
 30
0.0
 10
15.4671
 20
-9.985
 30
0.0
 10
15.4671
 20
-9.985
 30
0.0
 10
15.4121
 20
-10.0254
 30
0.0
 10
15.3844
 20
-10.0913
 30
0.0
 10
15.3844
 20
-10.1835
 30
0.0
 10
15.3844
 20
-10.1835
 30
0.0
 10
15.3844
 20
-10.2531
 30
0.0
 10
15.4027
 20
-10.3175
 30
0.0
 10
15.4399
 20
-10.3768
 30
0.0
 10
15.4399
 20
-10.3768
 30
0.0
 10
15.4765
 20
-10.4361
 30
0.0
 10
15.5302
 20
-10.4793
 30
0.0
 10
15.6007
 20
-10.5057
 30
0.0
 10
15.6007
 20
-10.5057
 30
0.0
 10
15.6717
 20
-10.5325
 30
0.0
 10
15.7738
 20
-10.5457
 30
0.0
 10
15.9069
 20
-10.5457
 30
0.0
 10
15.9069
 20
-10.5457
 30
0.0
 10
15.9069
 20
-10.5457
 30
0.0
 10
16.6661
 20
-10.5457
 30
0.0
 10
16.6661
 20
-10.5457
 30
0.0
 10
16.6661
 20
-10.5457
 30
0.0
 10
16.6661
 20
-10.5457
 30
0.0
 10
16.6661
 20
-10.7935
 30
0.0
 10
16.6661
 20
-10.7935
 30
0.0
  0
SPLINE
  5
52
330
1F
100
AcDbEntity
  8
DEFAULT_3
 62
   250
100
AcDbSpline
210
0.0
220
0.0
230
1.0
 70
    11
 71
     3
 72
   112
 73
   108
 74
     0
 42
0.0000000001
 43
0.0000000001
 40
0.0
 40
0.0
 40
0.0
 40
0.0
 40
0.0357142857142857
 40
0.0357142857142857
 40
0.0357142857142857
 40
0.0357142857142857
 40
0.0714285714285714
 40
0.0714285714285714
 40
0.0714285714285714
 40
0.0714285714285714
 40
0.1071428571428571
 40
0.1071428571428571
 40
0.1071428571428571
 40
0.1071428571428571
 40
0.1428571428571428
 40
0.1428571428571428
 40
0.1428571428571428
 40
0.1428571428571428
 40
0.1785714285714286
 40
0.1785714285714286
 40
0.1785714285714286
 40
0.1785714285714286
 40
0.2142857142857143
 40
0.2142857142857143
 40
0.2142857142857143
 40
0.2142857142857143
 40
0.25
 40
0.25
 40
0.25
 40
0.25
 40
0.2857142857142857
 40
0.2857142857142857
 40
0.2857142857142857
 40
0.2857142857142857
 40
0.3214285714285715
 40
0.3214285714285715
 40
0.3214285714285715
 40
0.3214285714285715
 40
0.3571428571428572
 40
0.3571428571428572
 40
0.3571428571428572
 40
0.3571428571428572
 40
0.3928571428571428
 40
0.3928571428571428
 40
0.3928571428571428
 40
0.3928571428571428
 40
0.4285714285714285
 40
0.4285714285714285
 40
0.4285714285714285
 40
0.4285714285714285
 40
0.4642857142857143
 40
0.4642857142857143
 40
0.4642857142857143
 40
0.4642857142857143
 40
0.5
 40
0.5
 40
0.5
 40
0.5
 40
0.5357142857142857
 40
0.5357142857142857
 40
0.5357142857142857
 40
0.5357142857142857
 40
0.5714285714285714
 40
0.5714285714285714
 40
0.5714285714285714
 40
0.5714285714285714
 40
0.6071428571428571
 40
0.6071428571428571
 40
0.6071428571428571
 40
0.6071428571428571
 40
0.6428571428571429
 40
0.6428571428571429
 40
0.6428571428571429
 40
0.6428571428571429
 40
0.6785714285714286
 40
0.6785714285714286
 40
0.6785714285714286
 40
0.6785714285714286
 40
0.7142857142857143
 40
0.7142857142857143
 40
0.7142857142857143
 40
0.7142857142857143
 40
0.75
 40
0.75
 40
0.75
 40
0.75
 40
0.7857142857142857
 40
0.7857142857142857
 40
0.7857142857142857
 40
0.7857142857142857
 40
0.8214285714285714
 40
0.8214285714285714
 40
0.8214285714285714
 40
0.8214285714285714
 40
0.8571428571428571
 40
0.8571428571428571
 40
0.8571428571428571
 40
0.8571428571428571
 40
0.8928571428571429
 40
0.8928571428571429
 40
0.8928571428571429
 40
0.8928571428571429
 40
0.9285714285714286
 40
0.9285714285714286
 40
0.9285714285714286
 40
0.9285714285714286
 40
1.0
 40
1.0
 40
1.0
 40
1.0
 10
16.4855
 20
-7.4878
 30
0.0
 10
16.5636
 20
-7.58
 30
0.0
 10
16.6186
 20
-7.6684
 30
0.0
 10
16.651
 20
-7.7531
 30
0.0
 10
16.651
 20
-7.7531
 30
0.0
 10
16.683
 20
-7.8382
 30
0.0
 10
16.699
 20
-7.9295
 30
0.0
 10
16.699
 20
-8.0268
 30
0.0
 10
16.699
 20
-8.0268
 30
0.0
 10
16.699
 20
-8.1877
 30
0.0
 10
16.66
 20
-8.3109
 30
0.0
 10
16.5814
 20
-8.3975
 30
0.0
 10
16.5814
 20
-8.3975
 30
0.0
 10
16.5029
 20
-8.4836
 30
0.0
 10
16.4022
 20
-8.5268
 30
0.0
 10
16.2804
 20
-8.5268
 30
0.0
 10
16.2804
 20
-8.5268
 30
0.0
 10
16.2084
 20
-8.5268
 30
0.0
 10
16.1431
 20
-8.5108
 30
0.0
 10
16.0838
 20
-8.4779
 30
0.0
 10
16.0838
 20
-8.4779
 30
0.0
 10
16.0245
 20
-8.4455
 30
0.0
 10
15.977
 20
-8.4027
 30
0.0
 10
15.9413
 20
-8.35
 30
0.0
 10
15.9413
 20
-8.35
 30
0.0
 10
15.9055
 20
-8.2968
 30
0.0
 10
15.8782
 20
-8.2376
 30
0.0
 10
15.8599
 20
-8.1712
 30
0.0
 10
15.8599
 20
-8.1712
 30
0.0
 10
15.8472
 20
-8.1228
 30
0.0
 10
15.8345
 20
-8.0494
 30
0.0
 10
15.8227
 20
-7.9511
 30
0.0
 10
15.8227
 20
-7.9511
 30
0.0
 10
15.7987
 20
-7.7507
 30
0.0
 10
15.7705
 20
-7.603
 30
0.0
 10
15.7371
 20
-7.5085
 30
0.0
 10
15.7371
 20
-7.5085
 30
0.0
 10
15.7033
 20
-7.5075
 30
0.0
 10
15.6816
 20
-7.5071
 30
0.0
 10
15.6727
 20
-7.5071
 30
0.0
 10
15.6727
 20
-7.5071
 30
0.0
 10
15.5716
 20
-7.5071
 30
0.0
 10
15.5001
 20
-7.5306
 30
0.0
 10
15.4591
 20
-7.5776
 30
0.0
 10
15.4591
 20
-7.5776
 30
0.0
 10
15.4027
 20
-7.6407
 30
0.0
 10
15.3749
 20
-7.7352
 30
0.0
 10
15.3749
 20
-7.8599
 30
0.0
 10
15.3749
 20
-7.8599
 30
0.0
 10
15.3749
 20
-7.9765
 30
0.0
 10
15.3952
 20
-8.0626
 30
0.0
 10
15.4361
 20
-8.1186
 30
0.0
 10
15.4361
 20
-8.1186
 30
0.0
 10
15.477
 20
-8.1741
 30
0.0
 10
15.5494
 20
-8.215
 30
0.0
 10
15.6534
 20
-8.2418
 30
0.0
 10
15.6534
 20
-8.2418
 30
0.0
 10
15.6534
 20
-8.2418
 30
0.0
 10
15.62
 20
-8.484
 30
0.0
 10
15.62
 20
-8.484
 30
0.0
 10
15.62
 20
-8.484
 30
0.0
 10
15.5165
 20
-8.4619
 30
0.0
 10
15.4323
 20
-8.4257
 30
0.0
 10
15.3688
 20
-8.3754
 30
0.0
 10
15.3688
 20
-8.3754
 30
0.0
 10
15.3049
 20
-8.325
 30
0.0
 10
15.2555
 20
-8.2517
 30
0.0
 10
15.2211
 20
-8.1562
 30
0.0
 10
15.2211
 20
-8.1562
 30
0.0
 10
15.1868
 20
-8.0607
 30
0.0
 10
15.1694
 20
-7.9502
 30
0.0
 10
15.1694
 20
-7.8241
 30
0.0
 10
15.1694
 20
-7.8241
 30
0.0
 10
15.1694
 20
-7.699
 30
0.0
 10
15.1844
 20
-7.5979
 30
0.0
 10
15.2136
 20
-7.5198
 30
0.0
 10
15.2136
 20
-7.5198
 30
0.0
 10
15.2432
 20
-7.4417
 30
0.0
 10
15.2799
 20
-7.3843
 30
0.0
 10
15.3246
 20
-7.3472
 30
0.0
 10
15.3246
 20
-7.3472
 30
0.0
 10
15.3693
 20
-7.3105
 30
0.0
 10
15.4253
 20
-7.2851
 30
0.0
 10
15.4935
 20
-7.27
 30
0.0
 10
15.4935
 20
-7.27
 30
0.0
 10
15.5358
 20
-7.262
 30
0.0
 10
15.612
 20
-7.2578
 30
0.0
 10
15.7221
 20
-7.2578
 30
0.0
 10
15.7221
 20
-7.2578
 30
0.0
 10
15.7221
 20
-7.2578
 30
0.0
 10
16.0527
 20
-7.2578
 30
0.0
 10
16.0527
 20
-7.2578
 30
0.0
 10
16.0527
 20
-7.2578
 30
0.0
 10
16.2837
 20
-7.2578
 30
0.0
 10
16.4295
 20
-7.2526
 30
0.0
 10
16.4902
 20
-7.2418
 30
0.0
 10
16.4902
 20
-7.2418
 30
0.0
 10
16.5513
 20
-7.2314
 30
0.0
 10
16.6101
 20
-7.2103
 30
0.0
 10
16.6661
 20
-7.1792
 30
0.0
 10
16.6661
 20
-7.1792
 30
0.0
 10
16.6661
 20
-7.1792
 30
0.0
 10
16.6661
 20
-7.4384
 30
0.0
 10
16.6661
 20
-7.4384
 30
0.0
 10
16.6661
 20
-7.4384
 30
0.0
 10
16.6148
 20
-7.4638
 30
0.0
 10
16.5546
 20
-7.4807
 30
0.0
 10
16.4855
 20
-7.4878
 30
0.0
  0
SPLINE
  5
53
330
1F
100
AcDbEntity
  8
DEFAULT_3
 62
   250
100
AcDbSpline
210
0.0
220
0.0
230
1.0
 70
    11
 71
     3
 72
    44
 73
    40
 74
     0
 42
0.0000000001
 43
0.0000000001
 40
0.0
 40
0.0
 40
0.0
 40
0.0
 40
0.0909090909090909
 40
0.0909090909090909
 40
0.0909090909090909
 40
0.0909090909090909
 40
0.1818181818181818
 40
0.1818181818181818
 40
0.1818181818181818
 40
0.1818181818181818
 40
0.2727272727272727
 40
0.2727272727272727
 40
0.2727272727272727
 40
0.2727272727272727
 40
0.3636363636363636
 40
0.3636363636363636
 40
0.3636363636363636
 40
0.3636363636363636
 40
0.4545454545454545
 40
0.4545454545454545
 40
0.4545454545454545
 40
0.4545454545454545
 40
0.5454545454545454
 40
0.5454545454545454
 40
0.5454545454545454
 40
0.5454545454545454
 40
0.6363636363636364
 40
0.6363636363636364
 40
0.6363636363636364
 40
0.6363636363636364
 40
0.7272727272727273
 40
0.7272727272727273
 40
0.7272727272727273
 40
0.7272727272727273
 40
0.8181818181818182
 40
0.8181818181818182
 40
0.8181818181818182
 40
0.8181818181818182
 40
1.0
 40
1.0
 40
1.0
 40
1.0
 10
15.9314
 20
-7.5085
 30
0.0
 10
15.9685
 20
-7.5988
 30
0.0
 10
15.9996
 20
-7.7338
 30
0.0
 10
16.0255
 20
-7.9135
 30
0.0
 10
16.0255
 20
-7.9135
 30
0.0
 10
16.04
 20
-8.0155
 30
0.0
 10
16.0565
 20
-8.088
 30
0.0
 10
16.0748
 20
-8.1298
 30
0.0
 10
16.0748
 20
-8.1298
 30
0.0
 10
16.0932
 20
-8.1722
 30
0.0
 10
16.12
 20
-8.2051
 30
0.0
 10
16.1558
 20
-8.2277
 30
0.0
 10
16.1558
 20
-8.2277
 30
0.0
 10
16.191
 20
-8.2507
 30
0.0
 10
16.2301
 20
-8.2625
 30
0.0
 10
16.2733
 20
-8.2625
 30
0.0
 10
16.2733
 20
-8.2625
 30
0.0
 10
16.3397
 20
-8.2625
 30
0.0
 10
16.3947
 20
-8.2371
 30
0.0
 10
16.4389
 20
-8.1872
 30
0.0
 10
16.4389
 20
-8.1872
 30
0.0
 10
16.4827
 20
-8.1374
 30
0.0
 10
16.5048
 20
-8.064
 30
0.0
 10
16.5048
 20
-7.9676
 30
0.0
 10
16.5048
 20
-7.9676
 30
0.0
 10
16.5048
 20
-7.8721
 30
0.0
 10
16.4841
 20
-7.7869
 30
0.0
 10
16.4422
 20
-7.7126
 30
0.0
 10
16.4422
 20
-7.7126
 30
0.0
 10
16.4003
 20
-7.6383
 30
0.0
 10
16.343
 20
-7.5833
 30
0.0
 10
16.2705
 20
-7.5485
 30
0.0
 10
16.2705
 20
-7.5485
 30
0.0
 10
16.2145
 20
-7.5217
 30
0.0
 10
16.1318
 20
-7.5085
 30
0.0
 10
16.0226
 20
-7.5085
 30
0.0
 10
16.0226
 20
-7.5085
 30
0.0
 10
16.0226
 20
-7.5085
 30
0.0
 10
15.9314
 20
-7.5085
 30
0.0
 10
15.9314
 20
-7.5085
 30
0.0
  0
SPLINE
  5
54
330
1F
100
AcDbEntity
  8
DEFAULT_3
 62
   250
100
AcDbSpline
210
0.0
220
0.0
230
1.0
 70
    11
 71
     3
 72
    64
 73
    60
 74
     0
 42
0.0000000001
 43
0.0000000001
 40
0.0
 40
0.0
 40
0.0
 40
0.0
 40
0.0625
 40
0.0625
 40
0.0625
 40
0.0625
 40
0.125
 40
0.125
 40
0.125
 40
0.125
 40
0.1875
 40
0.1875
 40
0.1875
 40
0.1875
 40
0.25
 40
0.25
 40
0.25
 40
0.25
 40
0.3125
 40
0.3125
 40
0.3125
 40
0.3125
 40
0.375
 40
0.375
 40
0.375
 40
0.375
 40
0.4375
 40
0.4375
 40
0.4375
 40
0.4375
 40
0.5
 40
0.5
 40
0.5
 40
0.5
 40
0.5625
 40
0.5625
 40
0.5625
 40
0.5625
 40
0.625
 40
0.625
 40
0.625
 40
0.625
 40
0.6875
 40
0.6875
 40
0.6875
 40
0.6875
 40
0.75
 40
0.75
 40
0.75
 40
0.75
 40
0.8125
 40
0.8125
 40
0.8125
 40
0.8125
 40
0.875
 40
0.875
 40
0.875
 40
0.875
 40
1.0
 40
1.0
 40
1.0
 40
1.0
 10
16.6661
 20
-7.0386
 30
0.0
 10
16.6661
 20
-7.0386
 30
0.0
 10
15.9055
 20
-6.5038
 30
0.0
 10
15.9055
 20
-6.5038
 30
0.0
 10
15.9055
 20
-6.5038
 30
0.0
 10
15.9055
 20
-6.5038
 30
0.0
 10
15.2028
 20
-6.9986
 30
0.0
 10
15.2028
 20
-6.9986
 30
0.0
 10
15.2028
 20
-6.9986
 30
0.0
 10
15.2028
 20
-6.9986
 30
0.0
 10
15.2028
 20
-6.6887
 30
0.0
 10
15.2028
 20
-6.6887
 30
0.0
 10
15.2028
 20
-6.6887
 30
0.0
 10
15.2028
 20
-6.6887
 30
0.0
 10
15.5457
 20
-6.4638
 30
0.0
 10
15.5457
 20
-6.4638
 30
0.0
 10
15.5457
 20
-6.4638
 30
0.0
 10
15.6111
 20
-6.422
 30
0.0
 10
15.6656
 20
-6.3876
 30
0.0
 10
15.7098
 20
-6.3622
 30
0.0
 10
15.7098
 20
-6.3622
 30
0.0
 10
15.6492
 20
-6.3218
 30
0.0
 10
15.5955
 20
-6.2846
 30
0.0
 10
15.5485
 20
-6.2503
 30
0.0
 10
15.5485
 20
-6.2503
 30
0.0
 10
15.5485
 20
-6.2503
 30
0.0
 10
15.2028
 20
-6.0038
 30
0.0
 10
15.2028
 20
-6.0038
 30
0.0
 10
15.2028
 20
-6.0038
 30
0.0
 10
15.2028
 20
-6.0038
 30
0.0
 10
15.2028
 20
-5.7075
 30
0.0
 10
15.2028
 20
-5.7075
 30
0.0
 10
15.2028
 20
-5.7075
 30
0.0
 10
15.2028
 20
-5.7075
 30
0.0
 10
15.8919
 20
-6.2131
 30
0.0
 10
15.8919
 20
-6.2131
 30
0.0
 10
15.8919
 20
-6.2131
 30
0.0
 10
15.8919
 20
-6.2131
 30
0.0
 10
16.6661
 20
-5.6689
 30
0.0
 10
16.6661
 20
-5.6689
 30
0.0
 10
16.6661
 20
-5.6689
 30
0.0
 10
16.6661
 20
-5.6689
 30
0.0
 10
16.6661
 20
-5.9732
 30
0.0
 10
16.6661
 20
-5.9732
 30
0.0
 10
16.6661
 20
-5.9732
 30
0.0
 10
16.6661
 20
-5.9732
 30
0.0
 10
16.2113
 20
-6.2738
 30
0.0
 10
16.2113
 20
-6.2738
 30
0.0
 10
16.2113
 20
-6.2738
 30
0.0
 10
16.2113
 20
-6.2738
 30
0.0
 10
16.0885
 20
-6.3537
 30
0.0
 10
16.0885
 20
-6.3537
 30
0.0
 10
16.0885
 20
-6.3537
 30
0.0
 10
16.0885
 20
-6.3537
 30
0.0
 10
16.6661
 20
-6.738
 30
0.0
 10
16.6661
 20
-6.738
 30
0.0
 10
16.6661
 20
-6.738
 30
0.0
 10
16.6661
 20
-6.738
 30
0.0
 10
16.6661
 20
-7.0386
 30
0.0
 10
16.6661
 20
-7.0386
 30
0.0
  0
SPLINE
  5
55
330
1F
100
AcDbEntity
  8
DEFAULT_3
 62
   250
100
AcDbSpline
210
0.0
220
0.0
230
1.0
 70
    11
 71
     3
 72
    40
 73
    36
 74
     0
 42
0.0000000001
 43
0.0000000001
 40
0.0
 40
0.0
 40
0.0
 40
0.0
 40
0.1
 40
0.1
 40
0.1
 40
0.1
 40
0.2
 40
0.2
 40
0.2
 40
0.2
 40
0.3
 40
0.3
 40
0.3
 40
0.3
 40
0.4
 40
0.4
 40
0.4
 40
0.4
 40
0.5
 40
0.5
 40
0.5
 40
0.5
 40
0.6
 40
0.6
 40
0.6
 40
0.6
 40
0.7
 40
0.7
 40
0.7
 40
0.7
 40
0.8
 40
0.8
 40
0.8
 40
0.8
 40
1.0
 40
1.0
 40
1.0
 40
1.0
 10
16.6661
 20
-3.8128
 30
0.0
 10
16.6661
 20
-3.8128
 30
0.0
 10
16.6661
 20
-4.0607
 30
0.0
 10
16.6661
 20
-4.0607
 30
0.0
 10
16.6661
 20
-4.0607
 30
0.0
 10
16.6661
 20
-4.0607
 30
0.0
 10
15.0857
 20
-4.0607
 30
0.0
 10
15.0857
 20
-4.0607
 30
0.0
 10
15.0857
 20
-4.0607
 30
0.0
 10
15.1426
 20
-4.1205
 30
0.0
 10
15.1995
 20
-4.1985
 30
0.0
 10
15.2564
 20
-4.2954
 30
0.0
 10
15.2564
 20
-4.2954
 30
0.0
 10
15.3133
 20
-4.3928
 30
0.0
 10
15.3561
 20
-4.4798
 30
0.0
 10
15.3844
 20
-4.557
 30
0.0
 10
15.3844
 20
-4.557
 30
0.0
 10
15.3844
 20
-4.557
 30
0.0
 10
15.1449
 20
-4.557
 30
0.0
 10
15.1449
 20
-4.557
 30
0.0
 10
15.1449
 20
-4.557
 30
0.0
 10
15.0796
 20
-4.4182
 30
0.0
 10
15.0005
 20
-4.2968
 30
0.0
 10
14.9079
 20
-4.1929
 30
0.0
 10
14.9079
 20
-4.1929
 30
0.0
 10
14.8147
 20
-4.0894
 30
0.0
 10
14.7249
 20
-4.0156
 30
0.0
 10
14.6374
 20
-3.9723
 30
0.0
 10
14.6374
 20
-3.9723
 30
0.0
 10
14.6374
 20
-3.9723
 30
0.0
 10
14.6374
 20
-3.8128
 30
0.0
 10
14.6374
 20
-3.8128
 30
0.0
 10
14.6374
 20
-3.8128
 30
0.0
 10
14.6374
 20
-3.8128
 30
0.0
 10
16.6661
 20
-3.8128
 30
0.0
 10
16.6661
 20
-3.8128
 30
0.0
  0
SPLINE
  5
56
330
1F
100
AcDbEntity
  8
DEFAULT_3
 62
   250
100
AcDbSpline
210
0.0
220
0.0
230
1.0
 70
    11
 71
     3
 72
    80
 73
    76
 74
     0
 42
0.0000000001
 43
0.0000000001
 40
0.0
 40
0.0
 40
0.0
 40
0.0
 40
0.05
 40
0.05
 40
0.05
 40
0.05
 40
0.1
 40
0.1
 40
0.1
 40
0.1
 40
0.15
 40
0.15
 40
0.15
 40
0.15
 40
0.2
 40
0.2
 40
0.2
 40
0.2
 40
0.25
 40
0.25
 40
0.25
 40
0.25
 40
0.3
 40
0.3
 40
0.3
 40
0.3
 40
0.35
 40
0.35
 40
0.35
 40
0.35
 40
0.4
 40
0.4
 40
0.4
 40
0.4
 40
0.45
 40
0.45
 40
0.45
 40
0.45
 40
0.5
 40
0.5
 40
0.5
 40
0.5
 40
0.55
 40
0.55
 40
0.55
 40
0.55
 40
0.6
 40
0.6
 40
0.6
 40
0.6
 40
0.65
 40
0.65
 40
0.65
 40
0.65
 40
0.7
 40
0.7
 40
0.7
 40
0.7
 40
0.75
 40
0.75
 40
0.75
 40
0.75
 40
0.8
 40
0.8
 40
0.8
 40
0.8
 40
0.85
 40
0.85
 40
0.85
 40
0.85
 40
0.9
 40
0.9
 40
0.9
 40
0.9
 40
1.0
 40
1.0
 40
1.0
 40
1.0
 10
15.1407
 20
-1.8905
 30
0.0
 10
15.1407
 20
-1.8905
 30
0.0
 10
15.16
 20
-2.1369
 30
0.0
 10
15.16
 20
-2.1369
 30
0.0
 10
15.16
 20
-2.1369
 30
0.0
 10
15.0626
 20
-2.159
 30
0.0
 10
14.9916
 20
-2.1901
 30
0.0
 10
14.9479
 20
-2.2305
 30
0.0
 10
14.9479
 20
-2.2305
 30
0.0
 10
14.8768
 20
-2.2978
 30
0.0
 10
14.8415
 20
-2.3806
 30
0.0
 10
14.8415
 20
-2.4789
 30
0.0
 10
14.8415
 20
-2.4789
 30
0.0
 10
14.8415
 20
-2.5579
 30
0.0
 10
14.8637
 20
-2.627
 30
0.0
 10
14.9079
 20
-2.6868
 30
0.0
 10
14.9079
 20
-2.6868
 30
0.0
 10
14.9648
 20
-2.7649
 30
0.0
 10
15.048
 20
-2.8265
 30
0.0
 10
15.1572
 20
-2.8716
 30
0.0
 10
15.1572
 20
-2.8716
 30
0.0
 10
15.2663
 20
-2.9163
 30
0.0
 10
15.422
 20
-2.9398
 30
0.0
 10
15.6242
 20
-2.9417
 30
0.0
 10
15.6242
 20
-2.9417
 30
0.0
 10
15.5335
 20
-2.882
 30
0.0
 10
15.4657
 20
-2.8091
 30
0.0
 10
15.4215
 20
-2.7225
 30
0.0
 10
15.4215
 20
-2.7225
 30
0.0
 10
15.3778
 20
-2.6365
 30
0.0
 10
15.3557
 20
-2.5457
 30
0.0
 10
15.3557
 20
-2.4511
 30
0.0
 10
15.3557
 20
-2.4511
 30
0.0
 10
15.3557
 20
-2.2856
 30
0.0
 10
15.4163
 20
-2.1449
 30
0.0
 10
15.5382
 20
-2.0287
 30
0.0
 10
15.5382
 20
-2.0287
 30
0.0
 10
15.66
 20
-1.9126
 30
0.0
 10
15.8171
 20
-1.8542
 30
0.0
 10
16.0099
 20
-1.8542
 30
0.0
 10
16.0099
 20
-1.8542
 30
0.0
 10
16.1369
 20
-1.8542
 30
0.0
 10
16.2545
 20
-1.882
 30
0.0
 10
16.3637
 20
-1.9366
 30
0.0
 10
16.3637
 20
-1.9366
 30
0.0
 10
16.4723
 20
-1.9911
 30
0.0
 10
16.556
 20
-2.0664
 30
0.0
 10
16.6139
 20
-2.1619
 30
0.0
 10
16.6139
 20
-2.1619
 30
0.0
 10
16.6717
 20
-2.2573
 30
0.0
 10
16.7004
 20
-2.3655
 30
0.0
 10
16.7004
 20
-2.4869
 30
0.0
 10
16.7004
 20
-2.4869
 30
0.0
 10
16.7004
 20
-2.6938
 30
0.0
 10
16.6247
 20
-2.8622
 30
0.0
 10
16.4723
 20
-2.9925
 30
0.0
 10
16.4723
 20
-2.9925
 30
0.0
 10
16.3204
 20
-3.1233
 30
0.0
 10
16.0697
 20
-3.1882
 30
0.0
 10
15.7207
 20
-3.1882
 30
0.0
 10
15.7207
 20
-3.1882
 30
0.0
 10
15.3303
 20
-3.1882
 30
0.0
 10
15.0466
 20
-3.1162
 30
0.0
 10
14.8693
 20
-2.9718
 30
0.0
 10
14.8693
 20
-2.9718
 30
0.0
 10
14.715
 20
-2.8462
 30
0.0
 10
14.6374
 20
-2.6769
 30
0.0
 10
14.6374
 20
-2.4634
 30
0.0
 10
14.6374
 20
-2.4634
 30
0.0
 10
14.6374
 20
-2.3048
 30
0.0
 10
14.6821
 20
-2.1746
 30
0.0
 10
14.7715
 20
-2.073
 30
0.0
 10
14.7715
 20
-2.073
 30
0.0
 10
14.8604
 20
-1.9714
 30
0.0
 10
14.9836
 20
-1.9107
 30
0.0
 10
15.1407
 20
-1.8905
 30
0.0
  0
SPLINE
  5
57
330
1F
100
AcDbEntity
  8
DEFAULT_3
 62
   250
100
AcDbSpline
210
0.0
220
0.0
230
1.0
 70
    11
 71
     3
 72
    40
 73
    36
 74
     0
 42
0.0000000001
 43
0.0000000001
 40
0.0
 40
0.0
 40
0.0
 40
0.0
 40
0.1
 40
0.1
 40
0.1
 40
0.1
 40
0.2
 40
0.2
 40
0.2
 40
0.2
 40
0.3
 40
0.3
 40
0.3
 40
0.3
 40
0.4
 40
0.4
 40
0.4
 40
0.4
 40
0.5
 40
0.5
 40
0.5
 40
0.5
 40
0.6
 40
0.6
 40
0.6
 40
0.6
 40
0.7
 40
0.7
 40
0.7
 40
0.7
 40
0.8
 40
0.8
 40
0.8
 40
0.8
 40
1.0
 40
1.0
 40
1.0
 40
1.0
 10
16.0113
 20
-2.9032
 30
0.0
 10
16.097
 20
-2.9032
 30
0.0
 10
16.1788
 20
-2.8848
 30
0.0
 10
16.2569
 20
-2.8486
 30
0.0
 10
16.2569
 20
-2.8486
 30
0.0
 10
16.335
 20
-2.8124
 30
0.0
 10
16.3942
 20
-2.7616
 30
0.0
 10
16.4351
 20
-2.6967
 30
0.0
 10
16.4351
 20
-2.6967
 30
0.0
 10
16.4761
 20
-2.6313
 30
0.0
 10
16.4968
 20
-2.5626
 30
0.0
 10
16.4968
 20
-2.4911
 30
0.0
 10
16.4968
 20
-2.4911
 30
0.0
 10
16.4968
 20
-2.3862
 30
0.0
 10
16.4544
 20
-2.2964
 30
0.0
 10
16.3698
 20
-2.2211
 30
0.0
 10
16.3698
 20
-2.2211
 30
0.0
 10
16.2851
 20
-2.1459
 30
0.0
 10
16.1703
 20
-2.1082
 30
0.0
 10
16.0255
 20
-2.1082
 30
0.0
 10
16.0255
 20
-2.1082
 30
0.0
 10
15.8858
 20
-2.1082
 30
0.0
 10
15.7757
 20
-2.1454
 30
0.0
 10
15.6953
 20
-2.2197
 30
0.0
 10
15.6953
 20
-2.2197
 30
0.0
 10
15.6148
 20
-2.294
 30
0.0
 10
15.5748
 20
-2.3876
 30
0.0
 10
15.5748
 20
-2.5005
 30
0.0
 10
15.5748
 20
-2.5005
 30
0.0
 10
15.5748
 20
-2.6129
 30
0.0
 10
15.6148
 20
-2.708
 30
0.0
 10
15.6953
 20
-2.786
 30
0.0
 10
15.6953
 20
-2.786
 30
0.0
 10
15.7757
 20
-2.8641
 30
0.0
 10
15.8811
 20
-2.9032
 30
0.0
 10
16.0113
 20
-2.9032
 30
0.0
  0
SPLINE
  5
58
330
1F
100
AcDbEntity
  8
DEFAULT_3
 62
   250
100
AcDbSpline
210
0.0
220
0.0
230
1.0
 70
    24
 71
     3
 72
     8
 73
     4
 74
     0
 42
0.0000000001
 43
0.0000000001
 40
0.0
 40
0.0
 40
0.0
 40
0.0
 40
1.0
 40
1.0
 40
1.0
 40
1.0
 10
9.7509
 20
0.4681
 30
0.0
 10
9.7509
 20
0.4681
 30
0.0
 10
18.5222
 20
0.4681
 30
0.0
 10
18.5222
 20
0.4681
 30
0.0
  0
SPLINE
  5
59
330
1F
100
AcDbEntity
  8
DEFAULT_3
 62
   250
100
AcDbSpline
210
0.0
220
0.0
230
1.0
 70
    24
 71
     3
 72
     8
 73
     4
 74
     0
 42
0.0000000001
 43
0.0000000001
 40
0.0
 40
0.0
 40
0.0
 40
0.0
 40
1.0
 40
1.0
 40
1.0
 40
1.0
 10
17.8664
 20
-12.7214
 30
0.0
 10
17.8664
 20
-12.7214
 30
0.0
 10
17.8664
 20
-0.1806
 30
0.0
 10
17.8664
 20
-0.1806
 30
0.0
  0
SPLINE
  5
5A
330
1F
100
AcDbEntity
  8
DEFAULT_3
 62
   250
100
AcDbSpline
210
0.0
220
0.0
230
1.0
 70
    11
 71
     3
 72
    84
 73
    80
 74
     0
 42
0.0000000001
 43
0.0000000001
 40
0.0
 40
0.0
 40
0.0
 40
0.0
 40
0.0476190476190476
 40
0.0476190476190476
 40
0.0476190476190476
 40
0.0476190476190476
 40
0.0952380952380952
 40
0.0952380952380952
 40
0.0952380952380952
 40
0.0952380952380952
 40
0.1428571428571428
 40
0.1428571428571428
 40
0.1428571428571428
 40
0.1428571428571428
 40
0.1904761904761905
 40
0.1904761904761905
 40
0.1904761904761905
 40
0.1904761904761905
 40
0.2380952380952381
 40
0.2380952380952381
 40
0.2380952380952381
 40
0.2380952380952381
 40
0.2857142857142857
 40
0.2857142857142857
 40
0.2857142857142857
 40
0.2857142857142857
 40
0.3333333333333333
 40
0.3333333333333333
 40
0.3333333333333333
 40
0.3333333333333333
 40
0.3809523809523809
 40
0.3809523809523809
 40
0.3809523809523809
 40
0.3809523809523809
 40
0.4285714285714285
 40
0.4285714285714285
 40
0.4285714285714285
 40
0.4285714285714285
 40
0.4761904761904762
 40
0.4761904761904762
 40
0.4761904761904762
 40
0.4761904761904762
 40
0.5238095238095238
 40
0.5238095238095238
 40
0.5238095238095238
 40
0.5238095238095238
 40
0.5714285714285714
 40
0.5714285714285714
 40
0.5714285714285714
 40
0.5714285714285714
 40
0.6190476190476191
 40
0.6190476190476191
 40
0.6190476190476191
 40
0.6190476190476191
 40
0.6666666666666666
 40
0.6666666666666666
 40
0.6666666666666666
 40
0.6666666666666666
 40
0.7142857142857143
 40
0.7142857142857143
 40
0.7142857142857143
 40
0.7142857142857143
 40
0.7619047619047619
 40
0.7619047619047619
 40
0.7619047619047619
 40
0.7619047619047619
 40
0.8095238095238095
 40
0.8095238095238095
 40
0.8095238095238095
 40
0.8095238095238095
 40
0.8571428571428571
 40
0.8571428571428571
 40
0.8571428571428571
 40
0.8571428571428571
 40
0.9047619047619048
 40
0.9047619047619048
 40
0.9047619047619048
 40
0.9047619047619048
 40
1.0
 40
1.0
 40
1.0
 40
1.0
 10
-5.7781
 20
33.332
 30
0.0
 10
-5.7781
 20
33.332
 30
0.0
 10
-5.5467
 20
33.5911
 30
0.0
 10
-5.5467
 20
33.5911
 30
0.0
 10
-5.5467
 20
33.5911
 30
0.0
 10
-5.5467
 20
33.5911
 30
0.0
 10
-5.4103
 20
33.4754
 30
0.0
 10
-5.4103
 20
33.4754
 30
0.0
 10
-5.4103
 20
33.4754
 30
0.0
 10
-5.4103
 20
33.4754
 30
0.0
 10
-5.6525
 20
33.2026
 30
0.0
 10
-5.6525
 20
33.2026
 30
0.0
 10
-5.6525
 20
33.2026
 30
0.0
 10
-5.5735
 20
33.085
 30
0.0
 10
-5.5204
 20
32.982
 30
0.0
 10
-5.4926
 20
32.8941
 30
0.0
 10
-5.4926
 20
32.8941
 30
0.0
 10
-5.4559
 20
32.7783
 30
0.0
 10
-5.4376
 20
32.6485
 30
0.0
 10
-5.4376
 20
32.5055
 30
0.0
 10
-5.4376
 20
32.5055
 30
0.0
 10
-5.4376
 20
32.2986
 30
0.0
 10
-5.4794
 20
32.1142
 30
0.0
 10
-5.5632
 20
31.9529
 30
0.0
 10
-5.5632
 20
31.9529
 30
0.0
 10
-5.6469
 20
31.791
 30
0.0
 10
-5.764
 20
31.6688
 30
0.0
 10
-5.915
 20
31.586
 30
0.0
 10
-5.915
 20
31.586
 30
0.0
 10
-6.0665
 20
31.5037
 30
0.0
 10
-6.2268
 20
31.4623
 30
0.0
 10
-6.3966
 20
31.4623
 30
0.0
 10
-6.3966
 20
31.4623
 30
0.0
 10
-6.5236
 20
31.4623
 30
0.0
 10
-6.6384
 20
31.4801
 30
0.0
 10
-6.7414
 20
31.5159
 30
0.0
 10
-6.7414
 20
31.5159
 30
0.0
 10
-6.8204
 20
31.5436
 30
0.0
 10
-6.9126
 20
31.5963
 30
0.0
 10
-7.0185
 20
31.6744
 30
0.0
 10
-7.0185
 20
31.6744
 30
0.0
 10
-7.0185
 20
31.6744
 30
0.0
 10
-7.2499
 20
31.4152
 30
0.0
 10
-7.2499
 20
31.4152
 30
0.0
 10
-7.2499
 20
31.4152
 30
0.0
 10
-7.2499
 20
31.4152
 30
0.0
 10
-7.3863
 20
31.5309
 30
0.0
 10
-7.3863
 20
31.5309
 30
0.0
 10
-7.3863
 20
31.5309
 30
0.0
 10
-7.3863
 20
31.5309
 30
0.0
 10
-7.1436
 20
31.8023
 30
0.0
 10
-7.1436
 20
31.8023
 30
0.0
 10
-7.1436
 20
31.8023
 30
0.0
 10
-7.2339
 20
31.9392
 30
0.0
 10
-7.2941
 20
32.0563
 30
0.0
 10
-7.3242
 20
32.1532
 30
0.0
 10
-7.3242
 20
32.1532
 30
0.0
 10
-7.3543
 20
32.2501
 30
0.0
 10
-7.3698
 20
32.3668
 30
0.0
 10
-7.3698
 20
32.5027
 30
0.0
 10
-7.3698
 20
32.5027
 30
0.0
 10
-7.3698
 20
32.7101
 30
0.0
 10
-7.3284
 20
32.895
 30
0.0
 10
-7.2457
 20
33.0573
 30
0.0
 10
-7.2457
 20
33.0573
 30
0.0
 10
-7.1629
 20
33.2196
 30
0.0
 10
-7.0472
 20
33.3423
 30
0.0
 10
-6.8976
 20
33.426
 30
0.0
 10
-6.8976
 20
33.426
 30
0.0
 10
-6.7485
 20
33.5093
 30
0.0
 10
-6.5824
 20
33.5512
 30
0.0
 10
-6.3995
 20
33.5512
 30
0.0
 10
-6.3995
 20
33.5512
 30
0.0
 10
-6.2762
 20
33.5512
 30
0.0
 10
-6.1685
 20
33.5352
 30
0.0
 10
-6.0763
 20
33.5022
 30
0.0
 10
-6.0763
 20
33.5022
 30
0.0
 10
-5.9841
 20
33.4698
 30
0.0
 10
-5.8844
 20
33.4129
 30
0.0
 10
-5.7781
 20
33.332
 30
0.0
  0
SPLINE
  5
5B
330
1F
100
AcDbEntity
  8
DEFAULT_3
 62
   250
100
AcDbSpline
210
0.0
220
0.0
230
1.0
 70
    11
 71
     3
 72
    32
 73
    28
 74
     0
 42
0.0000000001
 43
0.0000000001
 40
0.0
 40
0.0
 40
0.0
 40
0.0
 40
0.125
 40
0.125
 40
0.125
 40
0.125
 40
0.25
 40
0.25
 40
0.25
 40
0.25
 40
0.375
 40
0.375
 40
0.375
 40
0.375
 40
0.5
 40
0.5
 40
0.5
 40
0.5
 40
0.625
 40
0.625
 40
0.625
 40
0.625
 40
0.75
 40
0.75
 40
0.75
 40
0.75
 40
1.0
 40
1.0
 40
1.0
 40
1.0
 10
-5.9432
 20
33.1462
 30
0.0
 10
-6.0298
 20
33.2139
 30
0.0
 10
-6.1055
 20
33.2605
 30
0.0
 10
-6.1699
 20
33.2854
 30
0.0
 10
-6.1699
 20
33.2854
 30
0.0
 10
-6.2348
 20
33.3099
 30
0.0
 10
-6.311
 20
33.3226
 30
0.0
 10
-6.3981
 20
33.3226
 30
0.0
 10
-6.3981
 20
33.3226
 30
0.0
 10
-6.5994
 20
33.3226
 30
0.0
 10
-6.7654
 20
33.2544
 30
0.0
 10
-6.8971
 20
33.118
 30
0.0
 10
-6.8971
 20
33.118
 30
0.0
 10
-7.0284
 20
32.9815
 30
0.0
 10
-7.0942
 20
32.7779
 30
0.0
 10
-7.0942
 20
32.5065
 30
0.0
 10
-7.0942
 20
32.5065
 30
0.0
 10
-7.0942
 20
32.4002
 30
0.0
 10
-7.0839
 20
32.3056
 30
0.0
 10
-7.0636
 20
32.2228
 30
0.0
 10
-7.0636
 20
32.2228
 30
0.0
 10
-7.049
 20
32.1612
 30
0.0
 10
-7.0185
 20
32.0855
 30
0.0
 10
-6.9714
 20
31.9957
 30
0.0
 10
-6.9714
 20
31.9957
 30
0.0
 10
-6.9714
 20
31.9957
 30
0.0
 10
-5.9432
 20
33.1462
 30
0.0
 10
-5.9432
 20
33.1462
 30
0.0
  0
SPLINE
  5
5C
330
1F
100
AcDbEntity
  8
DEFAULT_3
 62
   250
100
AcDbSpline
210
0.0
220
0.0
230
1.0
 70
    11
 71
     3
 72
    28
 73
    24
 74
     0
 42
0.0000000001
 43
0.0000000001
 40
0.0
 40
0.0
 40
0.0
 40
0.0
 40
0.1428571428571428
 40
0.1428571428571428
 40
0.1428571428571428
 40
0.1428571428571428
 40
0.2857142857142857
 40
0.2857142857142857
 40
0.2857142857142857
 40
0.2857142857142857
 40
0.4285714285714285
 40
0.4285714285714285
 40
0.4285714285714285
 40
0.4285714285714285
 40
0.5714285714285714
 40
0.5714285714285714
 40
0.5714285714285714
 40
0.5714285714285714
 40
0.7142857142857143
 40
0.7142857142857143
 40
0.7142857142857143
 40
0.7142857142857143
 40
1.0
 40
1.0
 40
1.0
 40
1.0
 10
-5.8303
 20
33.0041
 30
0.0
 10
-5.8303
 20
33.0041
 30
0.0
 10
-6.8543
 20
31.8578
 30
0.0
 10
-6.8543
 20
31.8578
 30
0.0
 10
-6.8543
 20
31.8578
 30
0.0
 10
-6.7838
 20
31.8
 30
0.0
 10
-6.7184
 20
31.7595
 30
0.0
 10
-6.6586
 20
31.7365
 30
0.0
 10
-6.6586
 20
31.7365
 30
0.0
 10
-6.5806
 20
31.7059
 30
0.0
 10
-6.4959
 20
31.6909
 30
0.0
 10
-6.4051
 20
31.6909
 30
0.0
 10
-6.4051
 20
31.6909
 30
0.0
 10
-6.2047
 20
31.6909
 30
0.0
 10
-6.0396
 20
31.7614
 30
0.0
 10
-5.9089
 20
31.903
 30
0.0
 10
-5.9089
 20
31.903
 30
0.0
 10
-5.7786
 20
32.0446
 30
0.0
 10
-5.7132
 20
32.2431
 30
0.0
 10
-5.7132
 20
32.4985
 30
0.0
 10
-5.7132
 20
32.4985
 30
0.0
 10
-5.7132
 20
32.6894
 30
0.0
 10
-5.7522
 20
32.8583
 30
0.0
 10
-5.8303
 20
33.0041
 30
0.0
  0
SPLINE
  5
5D
330
1F
100
AcDbEntity
  8
DEFAULT_3
 62
   250
100
AcDbSpline
210
0.0
220
0.0
230
1.0
 70
    11
 71
     3
 72
    48
 73
    44
 74
     0
 42
0.0000000001
 43
0.0000000001
 40
0.0
 40
0.0
 40
0.0
 40
0.0
 40
0.0833333333333333
 40
0.0833333333333333
 40
0.0833333333333333
 40
0.0833333333333333
 40
0.1666666666666667
 40
0.1666666666666667
 40
0.1666666666666667
 40
0.1666666666666667
 40
0.25
 40
0.25
 40
0.25
 40
0.25
 40
0.3333333333333333
 40
0.3333333333333333
 40
0.3333333333333333
 40
0.3333333333333333
 40
0.4166666666666667
 40
0.4166666666666667
 40
0.4166666666666667
 40
0.4166666666666667
 40
0.5
 40
0.5
 40
0.5
 40
0.5
 40
0.5833333333333334
 40
0.5833333333333334
 40
0.5833333333333334
 40
0.5833333333333334
 40
0.6666666666666666
 40
0.6666666666666666
 40
0.6666666666666666
 40
0.6666666666666666
 40
0.75
 40
0.75
 40
0.75
 40
0.75
 40
0.8333333333333334
 40
0.8333333333333334
 40
0.8333333333333334
 40
0.8333333333333334
 40
1.0
 40
1.0
 40
1.0
 40
1.0
 10
-5.1718
 20
33.252
 30
0.0
 10
-5.1718
 20
33.252
 30
0.0
 10
-5.1718
 20
33.4905
 30
0.0
 10
-5.1718
 20
33.4905
 30
0.0
 10
-5.1718
 20
33.4905
 30
0.0
 10
-5.1718
 20
33.4905
 30
0.0
 10
-3.8642
 20
33.4905
 30
0.0
 10
-3.8642
 20
33.4905
 30
0.0
 10
-3.8642
 20
33.4905
 30
0.0
 10
-3.8642
 20
33.4905
 30
0.0
 10
-3.8642
 20
33.2976
 30
0.0
 10
-3.8642
 20
33.2976
 30
0.0
 10
-3.8642
 20
33.2976
 30
0.0
 10
-3.9926
 20
33.1608
 30
0.0
 10
-4.1201
 20
32.9787
 30
0.0
 10
-4.2466
 20
32.752
 30
0.0
 10
-4.2466
 20
32.752
 30
0.0
 10
-4.3727
 20
32.5253
 30
0.0
 10
-4.4705
 20
32.2915
 30
0.0
 10
-4.5392
 20
32.0521
 30
0.0
 10
-4.5392
 20
32.0521
 30
0.0
 10
-4.589
 20
31.8828
 30
0.0
 10
-4.6205
 20
31.6979
 30
0.0
 10
-4.6342
 20
31.4966
 30
0.0
 10
-4.6342
 20
31.4966
 30
0.0
 10
-4.6342
 20
31.4966
 30
0.0
 10
-4.8891
 20
31.4966
 30
0.0
 10
-4.8891
 20
31.4966
 30
0.0
 10
-4.8891
 20
31.4966
 30
0.0
 10
-4.8863
 20
31.6556
 30
0.0
 10
-4.8553
 20
31.8475
 30
0.0
 10
-4.7955
 20
32.0728
 30
0.0
 10
-4.7955
 20
32.0728
 30
0.0
 10
-4.7358
 20
32.2976
 30
0.0
 10
-4.6502
 20
32.5149
 30
0.0
 10
-4.5387
 20
32.7238
 30
0.0
 10
-4.5387
 20
32.7238
 30
0.0
 10
-4.4268
 20
32.9326
 30
0.0
 10
-4.3082
 20
33.109
 30
0.0
 10
-4.1822
 20
33.252
 30
0.0
 10
-4.1822
 20
33.252
 30
0.0
 10
-4.1822
 20
33.252
 30
0.0
 10
-5.1718
 20
33.252
 30
0.0
 10
-5.1718
 20
33.252
 30
0.0
  0
SPLINE
  5
5E
330
1F
100
AcDbEntity
  8
DEFAULT_3
 62
   250
100
AcDbSpline
210
0.0
220
0.0
230
1.0
 70
    11
 71
     3
 72
    52
 73
    48
 74
     0
 42
0.0000000001
 43
0.0000000001
 40
0.0
 40
0.0
 40
0.0
 40
0.0
 40
0.0769230769230769
 40
0.0769230769230769
 40
0.0769230769230769
 40
0.0769230769230769
 40
0.1538461538461539
 40
0.1538461538461539
 40
0.1538461538461539
 40
0.1538461538461539
 40
0.2307692307692308
 40
0.2307692307692308
 40
0.2307692307692308
 40
0.2307692307692308
 40
0.3076923076923077
 40
0.3076923076923077
 40
0.3076923076923077
 40
0.3076923076923077
 40
0.3846153846153846
 40
0.3846153846153846
 40
0.3846153846153846
 40
0.3846153846153846
 40
0.4615384615384616
 40
0.4615384615384616
 40
0.4615384615384616
 40
0.4615384615384616
 40
0.5384615384615384
 40
0.5384615384615384
 40
0.5384615384615384
 40
0.5384615384615384
 40
0.6153846153846154
 40
0.6153846153846154
 40
0.6153846153846154
 40
0.6153846153846154
 40
0.6923076923076923
 40
0.6923076923076923
 40
0.6923076923076923
 40
0.6923076923076923
 40
0.7692307692307693
 40
0.7692307692307693
 40
0.7692307692307693
 40
0.7692307692307693
 40
0.8461538461538461
 40
0.8461538461538461
 40
0.8461538461538461
 40
0.8461538461538461
 40
1.0
 40
1.0
 40
1.0
 40
1.0
 10
-3.6187
 20
32.4928
 30
0.0
 10
-3.6187
 20
32.7318
 30
0.0
 10
-3.5942
 20
32.9242
 30
0.0
 10
-3.5448
 20
33.0695
 30
0.0
 10
-3.5448
 20
33.0695
 30
0.0
 10
-3.4959
 20
33.2153
 30
0.0
 10
-3.4225
 20
33.3277
 30
0.0
 10
-3.3256
 20
33.4068
 30
0.0
 10
-3.3256
 20
33.4068
 30
0.0
 10
-3.2287
 20
33.4858
 30
0.0
 10
-3.1069
 20
33.5253
 30
0.0
 10
-2.9602
 20
33.5253
 30
0.0
 10
-2.9602
 20
33.5253
 30
0.0
 10
-2.8515
 20
33.5253
 30
0.0
 10
-2.7565
 20
33.5032
 30
0.0
 10
-2.6747
 20
33.4594
 30
0.0
 10
-2.6747
 20
33.4594
 30
0.0
 10
-2.5928
 20
33.4162
 30
0.0
 10
-2.5255
 20
33.3531
 30
0.0
 10
-2.4719
 20
33.2708
 30
0.0
 10
-2.4719
 20
33.2708
 30
0.0
 10
-2.4188
 20
33.1885
 30
0.0
 10
-2.3769
 20
33.0883
 30
0.0
 10
-2.3468
 20
32.9703
 30
0.0
 10
-2.3468
 20
32.9703
 30
0.0
 10
-2.3162
 20
32.8522
 30
0.0
 10
-2.3012
 20
32.6932
 30
0.0
 10
-2.3012
 20
32.4928
 30
0.0
 10
-2.3012
 20
32.4928
 30
0.0
 10
-2.3012
 20
32.2558
 30
0.0
 10
-2.3256
 20
32.0648
 30
0.0
 10
-2.3741
 20
31.919
 30
0.0
 10
-2.3741
 20
31.919
 30
0.0
 10
-2.423
 20
31.7732
 30
0.0
 10
-2.4959
 20
31.6608
 30
0.0
 10
-2.5928
 20
31.5813
 30
0.0
 10
-2.5928
 20
31.5813
 30
0.0
 10
-2.6897
 20
31.5018
 30
0.0
 10
-2.812
 20
31.4623
 30
0.0
 10
-2.9602
 20
31.4623
 30
0.0
 10
-2.9602
 20
31.4623
 30
0.0
 10
-3.1549
 20
31.4623
 30
0.0
 10
-3.3078
 20
31.5319
 30
0.0
 10
-3.4188
 20
31.6716
 30
0.0
 10
-3.4188
 20
31.6716
 30
0.0
 10
-3.5519
 20
31.8395
 30
0.0
 10
-3.6187
 20
32.1137
 30
0.0
 10
-3.6187
 20
32.4928
 30
0.0
  0
SPLINE
  5
5F
330
1F
100
AcDbEntity
  8
DEFAULT_3
 62
   250
100
AcDbSpline
210
0.0
220
0.0
230
1.0
 70
    11
 71
     3
 72
    36
 73
    32
 74
     0
 42
0.0000000001
 43
0.0000000001
 40
0.0
 40
0.0
 40
0.0
 40
0.0
 40
0.1111111111111111
 40
0.1111111111111111
 40
0.1111111111111111
 40
0.1111111111111111
 40
0.2222222222222222
 40
0.2222222222222222
 40
0.2222222222222222
 40
0.2222222222222222
 40
0.3333333333333333
 40
0.3333333333333333
 40
0.3333333333333333
 40
0.3333333333333333
 40
0.4444444444444444
 40
0.4444444444444444
 40
0.4444444444444444
 40
0.4444444444444444
 40
0.5555555555555556
 40
0.5555555555555556
 40
0.5555555555555556
 40
0.5555555555555556
 40
0.6666666666666666
 40
0.6666666666666666
 40
0.6666666666666666
 40
0.6666666666666666
 40
0.7777777777777778
 40
0.7777777777777778
 40
0.7777777777777778
 40
0.7777777777777778
 40
1.0
 40
1.0
 40
1.0
 40
1.0
 10
-3.3637
 20
32.4928
 30
0.0
 10
-3.3637
 20
32.1612
 30
0.0
 10
-3.3247
 20
31.9406
 30
0.0
 10
-3.2471
 20
31.8306
 30
0.0
 10
-3.2471
 20
31.8306
 30
0.0
 10
-3.1695
 20
31.721
 30
0.0
 10
-3.074
 20
31.6659
 30
0.0
 10
-2.9602
 20
31.6659
 30
0.0
 10
-2.9602
 20
31.6659
 30
0.0
 10
-2.8459
 20
31.6659
 30
0.0
 10
-2.7504
 20
31.7214
 30
0.0
 10
-2.6728
 20
31.8315
 30
0.0
 10
-2.6728
 20
31.8315
 30
0.0
 10
-2.5952
 20
31.9416
 30
0.0
 10
-2.5561
 20
32.1622
 30
0.0
 10
-2.5561
 20
32.4928
 30
0.0
 10
-2.5561
 20
32.4928
 30
0.0
 10
-2.5561
 20
32.8254
 30
0.0
 10
-2.5952
 20
33.0465
 30
0.0
 10
-2.6728
 20
33.1556
 30
0.0
 10
-2.6728
 20
33.1556
 30
0.0
 10
-2.7504
 20
33.2652
 30
0.0
 10
-2.8468
 20
33.3197
 30
0.0
 10
-2.9625
 20
33.3197
 30
0.0
 10
-2.9625
 20
33.3197
 30
0.0
 10
-3.0768
 20
33.3197
 30
0.0
 10
-3.1676
 20
33.2713
 30
0.0
 10
-3.2358
 20
33.1749
 30
0.0
 10
-3.2358
 20
33.1749
 30
0.0
 10
-3.3209
 20
33.0521
 30
0.0
 10
-3.3637
 20
32.8244
 30
0.0
 10
-3.3637
 20
32.4928
 30
0.0
  0
SPLINE
  5
60
330
1F
100
AcDbEntity
  8
DEFAULT_3
 62
   250
100
AcDbSpline
210
0.0
220
0.0
230
1.0
 70
    24
 71
     3
 72
     8
 73
     4
 74
     0
 42
0.0000000001
 43
0.0000000001
 40
0.0
 40
0.0
 40
0.0
 40
0.0
 40
1.0
 40
1.0
 40
1.0
 40
1.0
 10
-17.7745
 20
2.0425
 30
0.0
 10
-17.7745
 20
2.0425
 30
0.0
 10
-17.7745
 20
31.3231
 30
0.0
 10
-17.7745
 20
31.3231
 30
0.0
  0
SPLINE
  5
61
330
1F
100
AcDbEntity
  8
DEFAULT_3
 62
   250
100
AcDbSpline
210
0.0
220
0.0
230
1.0
 70
    24
 71
     3
 72
     8
 73
     4
 74
     0
 42
0.0000000001
 43
0.0000000001
 40
0.0
 40
0.0
 40
0.0
 40
0.0
 40
1.0
 40
1.0
 40
1.0
 40
1.0
 10
9.4669
 20
2.0425
 30
0.0
 10
9.4669
 20
2.0425
 30
0.0
 10
9.4669
 20
31.4094
 30
0.0
 10
9.4669
 20
31.4094
 30
0.0
  0
SPLINE
  5
62
330
1F
100
AcDbEntity
  8
DEFAULT_3
 62
   250
100
AcDbSpline
210
0.0
220
0.0
230
1.0
 70
    24
 71
     3
 72
     8
 73
     4
 74
     0
 42
0.0000000001
 43
0.0000000001
 40
0.0
 40
0.0
 40
0.0
 40
0.0
 40
1.0
 40
1.0
 40
1.0
 40
1.0
 10
7.0065
 20
30.9289
 30
0.0
 10
7.0065
 20
30.9289
 30
0.0
 10
-17.1317
 20
30.9289
 30
0.0
 10
-17.1317
 20
30.9289
 30
0.0
  0
SPLINE
  5
63
330
1F
100
AcDbEntity
  8
DEFAULT_3
 62
   250
100
AcDbSpline
210
0.0
220
0.0
230
1.0
 70
    24
 71
     3
 72
     8
 73
     4
 74
     0
 42
0.0000000001
 43
0.0000000001
 40
0.0
 40
0.0
 40
0.0
 40
0.0
 40
1.0
 40
1.0
 40
1.0
 40
1.0
 10
-17.8427
 20
-2.3576
 30
0.0
 10
-17.8427
 20
-2.3576
 30
0.0
 10
-17.8427
 20
-3.1359
 30
0.0
 10
-17.8427
 20
-3.1359
 30
0.0
  0
SPLINE
  5
64
330
1F
100
AcDbEntity
  8
DEFAULT_3
 62
   250
100
AcDbSpline
210
0.0
220
0.0
230
1.0
 70
    24
 71
     3
 72
     8
 73
     4
 74
     0
 42
0.0000000001
 43
0.0000000001
 40
0.0
 40
0.0
 40
0.0
 40
0.0
 40
1.0
 40
1.0
 40
1.0
 40
1.0
 10
-17.7744
 20
-10.7999
 30
0.0
 10
-17.7744
 20
-10.7999
 30
0.0
 10
-17.7744
 20
-8.8541
 30
0.0
 10
-17.7744
 20
-8.8541
 30
0.0
  0
SPLINE
  5
65
330
1F
100
AcDbEntity
  8
DEFAULT_3
 62
   250
100
AcDbSpline
210
0.0
220
0.0
230
1.0
 70
    24
 71
     3
 72
     8
 73
     4
 74
     0
 42
0.0000000001
 43
0.0000000001
 40
0.0
 40
0.0
 40
0.0
 40
0.0
 40
1.0
 40
1.0
 40
1.0
 40
1.0
 10
-17.8427
 20
0.3665
 30
0.0
 10
-17.8427
 20
0.3665
 30
0.0
 10
-17.8427
 20
0.5611
 30
0.0
 10
-17.8427
 20
0.5611
 30
0.0
  0
SPLINE
  5
66
330
1F
100
AcDbEntity
  8
DEFAULT_3
 62
   250
100
AcDbSpline
210
0.0
220
0.0
230
1.0
 70
    24
 71
     3
 72
     8
 73
     4
 74
     0
 42
0.0000000001
 43
0.0000000001
 40
0.0
 40
0.0
 40
0.0
 40
0.0
 40
1.0
 40
1.0
 40
1.0
 40
1.0
 10
-17.7744
 20
-10.7999
 30
0.0
 10
-17.7744
 20
-10.7999
 30
0.0
 10
9.4669
 20
-10.7999
 30
0.0
 10
9.4669
 20
-10.7999
 30
0.0
  0
SPLINE
  5
67
330
1F
100
AcDbEntity
  8
DEFAULT_3
 62
   250
100
AcDbSpline
210
0.0
220
0.0
230
1.0
 70
    24
 71
     3
 72
     8
 73
     4
 74
     0
 42
0.0000000001
 43
0.0000000001
 40
0.0
 40
0.0
 40
0.0
 40
0.0
 40
1.0
 40
1.0
 40
1.0
 40
1.0
 10
-2.9862
 20
10.4722
 30
0.0
 10
-2.9862
 20
10.4722
 30
0.0
 10
-1.9646
 20
11.4937
 30
0.0
 10
-1.9646
 20
11.4937
 30
0.0
  0
SPLINE
  5
68
330
1F
100
AcDbEntity
  8
DEFAULT_3
 62
   250
100
AcDbSpline
210
0.0
220
0.0
230
1.0
 70
    24
 71
     3
 72
     8
 73
     4
 74
     0
 42
0.0000000001
 43
0.0000000001
 40
0.0
 40
0.0
 40
0.0
 40
0.0
 40
1.0
 40
1.0
 40
1.0
 40
1.0
 10
-17.7744
 20
-8.8541
 30
0.0
 10
-17.7744
 20
-8.8541
 30
0.0
 10
9.4669
 20
-8.8541
 30
0.0
 10
9.4669
 20
-8.8541
 30
0.0
  0
SPLINE
  5
69
330
1F
100
AcDbEntity
  8
DEFAULT_3
 62
   250
100
AcDbSpline
210
0.0
220
0.0
230
1.0
 70
    24
 71
     3
 72
     8
 73
     4
 74
     0
 42
0.0000000001
 43
0.0000000001
 40
0.0
 40
0.0
 40
0.0
 40
0.0
 40
1.0
 40
1.0
 40
1.0
 40
1.0
 10
-12.2927
 20
-4.4274
 30
0.0
 10
-12.2927
 20
-4.4274
 30
0.0
 10
-12.5734
 20
-3.1359
 30
0.0
 10
-12.5734
 20
-3.1359
 30
0.0
  0
SPLINE
  5
6A
330
1F
100
AcDbEntity
  8
DEFAULT_3
 62
   250
100
AcDbSpline
210
0.0
220
0.0
230
1.0
 70
    24
 71
     3
 72
     8
 73
     4
 74
     0
 42
0.0000000001
 43
0.0000000001
 40
0.0
 40
0.0
 40
0.0
 40
0.0
 40
1.0
 40
1.0
 40
1.0
 40
1.0
 10
-12.7426
 20
-2.3576
 30
0.0
 10
-12.7426
 20
-2.3576
 30
0.0
 10
-13.1683
 20
-0.3997
 30
0.0
 10
-13.1683
 20
-0.3997
 30
0.0
  0
SPLINE
  5
6B
330
1F
100
AcDbEntity
  8
DEFAULT_3
 62
   250
100
AcDbSpline
210
0.0
220
0.0
230
1.0
 70
    24
 71
     3
 72
     8
 73
     4
 74
     0
 42
0.0000000001
 43
0.0000000001
 40
0.0
 40
0.0
 40
0.0
 40
0.0
 40
1.0
 40
1.0
 40
1.0
 40
1.0
 10
-5.3895
 20
-7.8058
 30
0.0
 10
-5.3895
 20
-7.8058
 30
0.0
 10
-3.0545
 20
-7.8058
 30
0.0
 10
-3.0545
 20
-7.8058
 30
0.0
  0
SPLINE
  5
6C
330
1F
100
AcDbEntity
  8
DEFAULT_3
 62
   250
100
AcDbSpline
210
0.0
220
0.0
230
1.0
 70
    24
 71
     3
 72
     8
 73
     4
 74
     0
 42
0.0000000001
 43
0.0000000001
 40
0.0
 40
0.0
 40
0.0
 40
0.0
 40
1.0
 40
1.0
 40
1.0
 40
1.0
 10
-8.0453
 20
20.0502
 30
0.0
 10
-8.0453
 20
20.0502
 30
0.0
 10
-8.0453
 20
19.807
 30
0.0
 10
-8.0453
 20
19.807
 30
0.0
  0
SPLINE
  5
6D
330
1F
100
AcDbEntity
  8
DEFAULT_3
 62
   250
100
AcDbSpline
210
0.0
220
0.0
230
1.0
 70
    24
 71
     3
 72
     8
 73
     4
 74
     0
 42
0.0000000001
 43
0.0000000001
 40
0.0
 40
0.0
 40
0.0
 40
0.0
 40
1.0
 40
1.0
 40
1.0
 40
1.0
 10
-6.9557
 20
18.7611
 30
0.0
 10
-6.9557
 20
18.7611
 30
0.0
 10
-6.9557
 20
21.8581
 30
0.0
 10
-6.9557
 20
21.8581
 30
0.0
  0
SPLINE
  5
6E
330
1F
100
AcDbEntity
  8
DEFAULT_3
 62
   250
100
AcDbSpline
210
0.0
220
0.0
230
1.0
 70
    24
 71
     3
 72
     8
 73
     4
 74
     0
 42
0.0000000001
 43
0.0000000001
 40
0.0
 40
0.0
 40
0.0
 40
0.0
 40
1.0
 40
1.0
 40
1.0
 40
1.0
 10
-5.7217
 20
-5.803
 30
0.0
 10
-5.7217
 20
-5.803
 30
0.0
 10
-2.7224
 20
-5.803
 30
0.0
 10
-2.7224
 20
-5.803
 30
0.0
  0
SPLINE
  5
6F
330
1F
100
AcDbEntity
  8
DEFAULT_3
 62
   250
100
AcDbSpline
210
0.0
220
0.0
230
1.0
 70
    24
 71
     3
 72
     8
 73
     4
 74
     0
 42
0.0000000001
 43
0.0000000001
 40
0.0
 40
0.0
 40
0.0
 40
0.0
 40
1.0
 40
1.0
 40
1.0
 40
1.0
 10
-11.7223
 20
-4.8871
 30
0.0
 10
-11.7223
 20
-4.8871
 30
0.0
 10
3.2782
 20
-4.8871
 30
0.0
 10
3.2782
 20
-4.8871
 30
0.0
  0
SPLINE
  5
70
330
1F
100
AcDbEntity
  8
DEFAULT_3
 62
   250
100
AcDbSpline
210
0.0
220
0.0
230
1.0
 70
    24
 71
     3
 72
     8
 73
     4
 74
     0
 42
0.0000000001
 43
0.0000000001
 40
0.0
 40
0.0
 40
0.0
 40
0.0
 40
1.0
 40
1.0
 40
1.0
 40
1.0
 10
-5.7217
 20
-5.803
 30
0.0
 10
-5.7217
 20
-5.803
 30
0.0
 10
-6.6376
 20
-4.8871
 30
0.0
 10
-6.6376
 20
-4.8871
 30
0.0
  0
SPLINE
  5
71
330
1F
100
AcDbEntity
  8
DEFAULT_3
 62
   250
100
AcDbSpline
210
0.0
220
0.0
230
1.0
 70
    24
 71
     3
 72
     8
 73
     4
 74
     0
 42
0.0000000001
 43
0.0000000001
 40
0.0
 40
0.0
 40
0.0
 40
0.0
 40
1.0
 40
1.0
 40
1.0
 40
1.0
 10
-12.2394
 20
13.5853
 30
0.0
 10
-12.2394
 20
13.5853
 30
0.0
 10
-13.0071
 20
17.0484
 30
0.0
 10
-13.0071
 20
17.0484
 30
0.0
  0
SPLINE
  5
72
330
1F
100
AcDbEntity
  8
DEFAULT_3
 62
   250
100
AcDbSpline
210
0.0
220
0.0
230
1.0
 70
    24
 71
     3
 72
     8
 73
     4
 74
     0
 42
0.0000000001
 43
0.0000000001
 40
0.0
 40
0.0
 40
0.0
 40
0.0
 40
1.0
 40
1.0
 40
1.0
 40
1.0
 10
-6.3427
 20
11.4937
 30
0.0
 10
-6.3427
 20
11.4937
 30
0.0
 10
-6.3427
 20
11.523
 30
0.0
 10
-6.3427
 20
11.523
 30
0.0
  0
SPLINE
  5
73
330
1F
100
AcDbEntity
  8
DEFAULT_3
 62
   250
100
AcDbSpline
210
0.0
220
0.0
230
1.0
 70
    24
 71
     3
 72
     8
 73
     4
 74
     0
 42
0.0000000001
 43
0.0000000001
 40
0.0
 40
0.0
 40
0.0
 40
0.0
 40
1.0
 40
1.0
 40
1.0
 40
1.0
 10
-6.3231
 20
11.523
 30
0.0
 10
-6.3231
 20
11.523
 30
0.0
 10
-6.3231
 20
11.7565
 30
0.0
 10
-6.3231
 20
11.7565
 30
0.0
  0
SPLINE
  5
74
330
1F
100
AcDbEntity
  8
DEFAULT_3
 62
   250
100
AcDbSpline
210
0.0
220
0.0
230
1.0
 70
    24
 71
     3
 72
     8
 73
     4
 74
     0
 42
0.0000000001
 43
0.0000000001
 40
0.0
 40
0.0
 40
0.0
 40
0.0
 40
1.0
 40
1.0
 40
1.0
 40
1.0
 10
-5.7882
 20
18.1721
 30
0.0
 10
-5.7882
 20
18.1721
 30
0.0
 10
-5.7882
 20
22.4178
 30
0.0
 10
-5.7882
 20
22.4178
 30
0.0
  0
SPLINE
  5
75
330
1F
100
AcDbEntity
  8
DEFAULT_3
 62
   250
100
AcDbSpline
210
0.0
220
0.0
230
1.0
 70
    24
 71
     3
 72
     8
 73
     4
 74
     0
 42
0.0000000001
 43
0.0000000001
 40
0.0
 40
0.0
 40
0.0
 40
0.0
 40
1.0
 40
1.0
 40
1.0
 40
1.0
 10
-5.3895
 20
-7.8058
 30
0.0
 10
-5.3895
 20
-7.8058
 30
0.0
 10
-5.3895
 20
-5.803
 30
0.0
 10
-5.3895
 20
-5.803
 30
0.0
  0
SPLINE
  5
76
330
1F
100
AcDbEntity
  8
DEFAULT_3
 62
   250
100
AcDbSpline
210
0.0
220
0.0
230
1.0
 70
    24
 71
     3
 72
     8
 73
     4
 74
     0
 42
0.0000000001
 43
0.0000000001
 40
0.0
 40
0.0
 40
0.0
 40
0.0
 40
1.0
 40
1.0
 40
1.0
 40
1.0
 10
-5.3212
 20
0.6653
 30
0.0
 10
-5.3212
 20
0.6653
 30
0.0
 10
-5.3212
 20
10.4722
 30
0.0
 10
-5.3212
 20
10.4722
 30
0.0
  0
SPLINE
  5
77
330
1F
100
AcDbEntity
  8
DEFAULT_3
 62
   250
100
AcDbSpline
210
0.0
220
0.0
230
1.0
 70
    24
 71
     3
 72
     8
 73
     4
 74
     0
 42
0.0000000001
 43
0.0000000001
 40
0.0
 40
0.0
 40
0.0
 40
0.0
 40
1.0
 40
1.0
 40
1.0
 40
1.0
 10
9.3986
 20
-3.1359
 30
0.0
 10
9.3986
 20
-3.1359
 30
0.0
 10
-17.8427
 20
-3.1359
 30
0.0
 10
-17.8427
 20
-3.1359
 30
0.0
  0
SPLINE
  5
78
330
1F
100
AcDbEntity
  8
DEFAULT_3
 62
   250
100
AcDbSpline
210
0.0
220
0.0
230
1.0
 70
    24
 71
     3
 72
     8
 73
     4
 74
     0
 42
0.0000000001
 43
0.0000000001
 40
0.0
 40
0.0
 40
0.0
 40
0.0
 40
1.0
 40
1.0
 40
1.0
 40
1.0
 10
9.3986
 20
-2.3576
 30
0.0
 10
9.3986
 20
-2.3576
 30
0.0
 10
-17.8427
 20
-2.3576
 30
0.0
 10
-17.8427
 20
-2.3576
 30
0.0
  0
SPLINE
  5
79
330
1F
100
AcDbEntity
  8
DEFAULT_3
 62
   250
100
AcDbSpline
210
0.0
220
0.0
230
1.0
 70
    24
 71
     3
 72
     8
 73
     4
 74
     0
 42
0.0000000001
 43
0.0000000001
 40
0.0
 40
0.0
 40
0.0
 40
0.0
 40
1.0
 40
1.0
 40
1.0
 40
1.0
 10
-3.0545
 20
-7.8058
 30
0.0
 10
-3.0545
 20
-7.8058
 30
0.0
 10
-3.0545
 20
-5.803
 30
0.0
 10
-3.0545
 20
-5.803
 30
0.0
  0
SPLINE
  5
7A
330
1F
100
AcDbEntity
  8
DEFAULT_3
 62
   250
100
AcDbSpline
210
0.0
220
0.0
230
1.0
 70
    24
 71
     3
 72
     8
 73
     4
 74
     0
 42
0.0000000001
 43
0.0000000001
 40
0.0
 40
0.0
 40
0.0
 40
0.0
 40
1.0
 40
1.0
 40
1.0
 40
1.0
 10
-2.9862
 20
0.6653
 30
0.0
 10
-2.9862
 20
0.6653
 30
0.0
 10
-2.9862
 20
10.4722
 30
0.0
 10
-2.9862
 20
10.4722
 30
0.0
  0
SPLINE
  5
7B
330
1F
100
AcDbEntity
  8
DEFAULT_3
 62
   250
100
AcDbSpline
210
0.0
220
0.0
230
1.0
 70
    24
 71
     3
 72
     8
 73
     4
 74
     0
 42
0.0000000001
 43
0.0000000001
 40
0.0
 40
0.0
 40
0.0
 40
0.0
 40
1.0
 40
1.0
 40
1.0
 40
1.0
 10
-2.597
 20
18.2186
 30
0.0
 10
-2.597
 20
18.2186
 30
0.0
 10
-2.597
 20
22.4178
 30
0.0
 10
-2.597
 20
22.4178
 30
0.0
  0
SPLINE
  5
7C
330
1F
100
AcDbEntity
  8
DEFAULT_3
 62
   250
100
AcDbSpline
210
0.0
220
0.0
230
1.0
 70
    24
 71
     3
 72
     8
 73
     4
 74
     0
 42
0.0000000001
 43
0.0000000001
 40
0.0
 40
0.0
 40
0.0
 40
0.0
 40
1.0
 40
1.0
 40
1.0
 40
1.0
 10
-1.9842
 20
11.523
 30
0.0
 10
-1.9842
 20
11.523
 30
0.0
 10
-1.9842
 20
11.7565
 30
0.0
 10
-1.9842
 20
11.7565
 30
0.0
  0
SPLINE
  5
7D
330
1F
100
AcDbEntity
  8
DEFAULT_3
 62
   250
100
AcDbSpline
210
0.0
220
0.0
230
1.0
 70
    24
 71
     3
 72
     8
 73
     4
 74
     0
 42
0.0000000001
 43
0.0000000001
 40
0.0
 40
0.0
 40
0.0
 40
0.0
 40
1.0
 40
1.0
 40
1.0
 40
1.0
 10
-1.9646
 20
11.4937
 30
0.0
 10
-1.9646
 20
11.4937
 30
0.0
 10
-1.9646
 20
11.523
 30
0.0
 10
-1.9646
 20
11.523
 30
0.0
  0
SPLINE
  5
7E
330
1F
100
AcDbEntity
  8
DEFAULT_3
 62
   250
100
AcDbSpline
210
0.0
220
0.0
230
1.0
 70
    24
 71
     3
 72
     8
 73
     4
 74
     0
 42
0.0000000001
 43
0.0000000001
 40
0.0
 40
0.0
 40
0.0
 40
0.0
 40
1.0
 40
1.0
 40
1.0
 40
1.0
 10
-1.4296
 20
18.7611
 30
0.0
 10
-1.4296
 20
18.7611
 30
0.0
 10
-1.4296
 20
21.8581
 30
0.0
 10
-1.4296
 20
21.8581
 30
0.0
  0
SPLINE
  5
7F
330
1F
100
AcDbEntity
  8
DEFAULT_3
 62
   250
100
AcDbSpline
210
0.0
220
0.0
230
1.0
 70
    24
 71
     3
 72
     8
 73
     4
 74
     0
 42
0.0000000001
 43
0.0000000001
 40
0.0
 40
0.0
 40
0.0
 40
0.0
 40
1.0
 40
1.0
 40
1.0
 40
1.0
 10
-17.8427
 20
0.3665
 30
0.0
 10
-17.8427
 20
0.3665
 30
0.0
 10
9.3986
 20
0.3665
 30
0.0
 10
9.3986
 20
0.3665
 30
0.0
  0
SPLINE
  5
80
330
1F
100
AcDbEntity
  8
DEFAULT_3
 62
   250
100
AcDbSpline
210
0.0
220
0.0
230
1.0
 70
    24
 71
     3
 72
     8
 73
     4
 74
     0
 42
0.0000000001
 43
0.0000000001
 40
0.0
 40
0.0
 40
0.0
 40
0.0
 40
1.0
 40
1.0
 40
1.0
 40
1.0
 10
-17.8427
 20
0.5611
 30
0.0
 10
-17.8427
 20
0.5611
 30
0.0
 10
9.3986
 20
0.5611
 30
0.0
 10
9.3986
 20
0.5611
 30
0.0
  0
SPLINE
  5
81
330
1F
100
AcDbEntity
  8
DEFAULT_3
 62
   250
100
AcDbSpline
210
0.0
220
0.0
230
1.0
 70
    24
 71
     3
 72
     8
 73
     4
 74
     0
 42
0.0000000001
 43
0.0000000001
 40
0.0
 40
0.0
 40
0.0
 40
0.0
 40
1.0
 40
1.0
 40
1.0
 40
1.0
 10
-0.2621
 20
19.1503
 30
0.0
 10
-0.2621
 20
19.1503
 30
0.0
 10
-0.2621
 20
20.707
 30
0.0
 10
-0.2621
 20
20.707
 30
0.0
  0
SPLINE
  5
82
330
1F
100
AcDbEntity
  8
DEFAULT_3
 62
   250
100
AcDbSpline
210
0.0
220
0.0
230
1.0
 70
    24
 71
     3
 72
     8
 73
     4
 74
     0
 42
0.0000000001
 43
0.0000000001
 40
0.0
 40
0.0
 40
0.0
 40
0.0
 40
1.0
 40
1.0
 40
1.0
 40
1.0
 10
3.9319
 20
13.5853
 30
0.0
 10
3.9319
 20
13.5853
 30
0.0
 10
4.6997
 20
17.0484
 30
0.0
 10
4.6997
 20
17.0484
 30
0.0
  0
SPLINE
  5
83
330
1F
100
AcDbEntity
  8
DEFAULT_3
 62
   250
100
AcDbSpline
210
0.0
220
0.0
230
1.0
 70
    24
 71
     3
 72
     8
 73
     4
 74
     0
 42
0.0000000001
 43
0.0000000001
 40
0.0
 40
0.0
 40
0.0
 40
0.0
 40
1.0
 40
1.0
 40
1.0
 40
1.0
 10
-2.7224
 20
-5.803
 30
0.0
 10
-2.7224
 20
-5.803
 30
0.0
 10
-1.8064
 20
-4.8871
 30
0.0
 10
-1.8064
 20
-4.8871
 30
0.0
  0
SPLINE
  5
84
330
1F
100
AcDbEntity
  8
DEFAULT_3
 62
   250
100
AcDbSpline
210
0.0
220
0.0
230
1.0
 70
    24
 71
     3
 72
     8
 73
     4
 74
     0
 42
0.0000000001
 43
0.0000000001
 40
0.0
 40
0.0
 40
0.0
 40
0.0
 40
1.0
 40
1.0
 40
1.0
 40
1.0
 10
-5.3212
 20
10.4722
 30
0.0
 10
-5.3212
 20
10.4722
 30
0.0
 10
-6.3427
 20
11.4937
 30
0.0
 10
-6.3427
 20
11.4937
 30
0.0
  0
SPLINE
  5
85
330
1F
100
AcDbEntity
  8
DEFAULT_3
 62
   250
100
AcDbSpline
210
0.0
220
0.0
230
1.0
 70
    24
 71
     3
 72
     8
 73
     4
 74
     0
 42
0.0000000001
 43
0.0000000001
 40
0.0
 40
0.0
 40
0.0
 40
0.0
 40
1.0
 40
1.0
 40
1.0
 40
1.0
 10
3.8486
 20
-4.4274
 30
0.0
 10
3.8486
 20
-4.4274
 30
0.0
 10
4.1294
 20
-3.1359
 30
0.0
 10
4.1294
 20
-3.1359
 30
0.0
  0
SPLINE
  5
86
330
1F
100
AcDbEntity
  8
DEFAULT_3
 62
   250
100
AcDbSpline
210
0.0
220
0.0
230
1.0
 70
    24
 71
     3
 72
     8
 73
     4
 74
     0
 42
0.0000000001
 43
0.0000000001
 40
0.0
 40
0.0
 40
0.0
 40
0.0
 40
1.0
 40
1.0
 40
1.0
 40
1.0
 10
4.2986
 20
-2.3576
 30
0.0
 10
4.2986
 20
-2.3576
 30
0.0
 10
4.7242
 20
-0.3997
 30
0.0
 10
4.7242
 20
-0.3997
 30
0.0
  0
SPLINE
  5
87
330
1F
100
AcDbEntity
  8
DEFAULT_3
 62
   250
100
AcDbSpline
210
0.0
220
0.0
230
1.0
 70
    24
 71
     3
 72
     8
 73
     4
 74
     0
 42
0.0000000001
 43
0.0000000001
 40
0.0
 40
0.0
 40
0.0
 40
0.0
 40
1.0
 40
1.0
 40
1.0
 40
1.0
 10
-2.9862
 20
10.4722
 30
0.0
 10
-2.9862
 20
10.4722
 30
0.0
 10
-5.3212
 20
10.4722
 30
0.0
 10
-5.3212
 20
10.4722
 30
0.0
  0
SPLINE
  5
88
330
1F
100
AcDbEntity
  8
DEFAULT_3
 62
   250
100
AcDbSpline
210
0.0
220
0.0
230
1.0
 70
    24
 71
     3
 72
     8
 73
     4
 74
     0
 42
0.0000000001
 43
0.0000000001
 40
0.0
 40
0.0
 40
0.0
 40
0.0
 40
1.0
 40
1.0
 40
1.0
 40
1.0
 10
9.3986
 20
-2.3576
 30
0.0
 10
9.3986
 20
-2.3576
 30
0.0
 10
9.3986
 20
-3.1359
 30
0.0
 10
9.3986
 20
-3.1359
 30
0.0
  0
SPLINE
  5
89
330
1F
100
AcDbEntity
  8
DEFAULT_3
 62
   250
100
AcDbSpline
210
0.0
220
0.0
230
1.0
 70
    24
 71
     3
 72
     8
 73
     4
 74
     0
 42
0.0000000001
 43
0.0000000001
 40
0.0
 40
0.0
 40
0.0
 40
0.0
 40
1.0
 40
1.0
 40
1.0
 40
1.0
 10
9.4669
 20
-10.7999
 30
0.0
 10
9.4669
 20
-10.7999
 30
0.0
 10
9.4669
 20
-8.8541
 30
0.0
 10
9.4669
 20
-8.8541
 30
0.0
  0
SPLINE
  5
8A
330
1F
100
AcDbEntity
  8
DEFAULT_3
 62
   250
100
AcDbSpline
210
0.0
220
0.0
230
1.0
 70
    24
 71
     3
 72
     8
 73
     4
 74
     0
 42
0.0000000001
 43
0.0000000001
 40
0.0
 40
0.0
 40
0.0
 40
0.0
 40
1.0
 40
1.0
 40
1.0
 40
1.0
 10
9.3986
 20
0.3665
 30
0.0
 10
9.3986
 20
0.3665
 30
0.0
 10
9.3986
 20
0.5611
 30
0.0
 10
9.3986
 20
0.5611
 30
0.0
  0
SPLINE
  5
8B
330
1F
100
AcDbEntity
  8
DEFAULT_3
 62
   250
100
AcDbSpline
210
0.0
220
0.0
230
1.0
 70
    24
 71
     3
 72
     8
 73
     4
 74
     0
 42
0.0000000001
 43
0.0000000001
 40
0.0
 40
0.0
 40
0.0
 40
0.0
 40
1.0
 40
1.0
 40
1.0
 40
1.0
 10
-6.3427
 20
11.4937
 30
0.0
 10
-6.3427
 20
11.4937
 30
0.0
 10
-1.9646
 20
11.4937
 30
0.0
 10
-1.9646
 20
11.4937
 30
0.0
  0
SPLINE
  5
8C
330
1F
100
AcDbEntity
  8
DEFAULT_3
 62
   250
100
AcDbSpline
210
0.0
220
0.0
230
1.0
 70
    24
 71
     3
 72
     8
 73
     4
 74
     0
 42
0.0000000001
 43
0.0000000001
 40
0.0
 40
0.0
 40
0.0
 40
0.0
 40
1.0
 40
1.0
 40
1.0
 40
1.0
 10
-6.3427
 20
11.523
 30
0.0
 10
-6.3427
 20
11.523
 30
0.0
 10
-6.3231
 20
11.523
 30
0.0
 10
-6.3231
 20
11.523
 30
0.0
  0
SPLINE
  5
8D
330
1F
100
AcDbEntity
  8
DEFAULT_3
 62
   250
100
AcDbSpline
210
0.0
220
0.0
230
1.0
 70
    24
 71
     3
 72
     8
 73
     4
 74
     0
 42
0.0000000001
 43
0.0000000001
 40
0.0
 40
0.0
 40
0.0
 40
0.0
 40
1.0
 40
1.0
 40
1.0
 40
1.0
 10
-1.9842
 20
11.523
 30
0.0
 10
-1.9842
 20
11.523
 30
0.0
 10
-1.9646
 20
11.523
 30
0.0
 10
-1.9646
 20
11.523
 30
0.0
  0
SPLINE
  5
8E
330
1F
100
AcDbEntity
  8
DEFAULT_3
 62
   250
100
AcDbSpline
210
0.0
220
0.0
230
1.0
 70
    24
 71
     3
 72
     8
 73
     4
 74
     0
 42
0.0000000001
 43
0.0000000001
 40
0.0
 40
0.0
 40
0.0
 40
0.0
 40
1.0
 40
1.0
 40
1.0
 40
1.0
 10
-12.2394
 20
13.5853
 30
0.0
 10
-12.2394
 20
13.5853
 30
0.0
 10
3.9319
 20
13.5853
 30
0.0
 10
3.9319
 20
13.5853
 30
0.0
  0
SPLINE
  5
8F
330
1F
100
AcDbEntity
  8
DEFAULT_3
 62
   250
100
AcDbSpline
210
0.0
220
0.0
230
1.0
 70
    24
 71
     3
 72
     8
 73
     4
 74
     0
 42
0.0000000001
 43
0.0000000001
 40
0.0
 40
0.0
 40
0.0
 40
0.0
 40
1.0
 40
1.0
 40
1.0
 40
1.0
 10
-13.0071
 20
17.0484
 30
0.0
 10
-13.0071
 20
17.0484
 30
0.0
 10
4.6997
 20
17.0484
 30
0.0
 10
4.6997
 20
17.0484
 30
0.0
  0
SPLINE
  5
90
330
1F
100
AcDbEntity
  8
DEFAULT_3
 62
   250
100
AcDbSpline
210
0.0
220
0.0
230
1.0
 70
    24
 71
     3
 72
     8
 73
     4
 74
     0
 42
0.0000000001
 43
0.0000000001
 40
0.0
 40
0.0
 40
0.0
 40
0.0
 40
1.0
 40
1.0
 40
1.0
 40
1.0
 10
-1.4296
 20
18.7611
 30
0.0
 10
-1.4296
 20
18.7611
 30
0.0
 10
-2.597
 20
18.7611
 30
0.0
 10
-2.597
 20
18.7611
 30
0.0
  0
SPLINE
  5
91
330
1F
100
AcDbEntity
  8
DEFAULT_3
 62
   250
100
AcDbSpline
210
0.0
220
0.0
230
1.0
 70
    24
 71
     3
 72
     8
 73
     4
 74
     0
 42
0.0000000001
 43
0.0000000001
 40
0.0
 40
0.0
 40
0.0
 40
0.0
 40
1.0
 40
1.0
 40
1.0
 40
1.0
 10
-5.7882
 20
18.7611
 30
0.0
 10
-5.7882
 20
18.7611
 30
0.0
 10
-6.9557
 20
18.7611
 30
0.0
 10
-6.9557
 20
18.7611
 30
0.0
  0
SPLINE
  5
92
330
1F
100
AcDbEntity
  8
DEFAULT_3
 62
   250
100
AcDbSpline
210
0.0
220
0.0
230
1.0
 70
    24
 71
     3
 72
     8
 73
     4
 74
     0
 42
0.0000000001
 43
0.0000000001
 40
0.0
 40
0.0
 40
0.0
 40
0.0
 40
1.0
 40
1.0
 40
1.0
 40
1.0
 10
-6.9557
 20
19.3657
 30
0.0
 10
-6.9557
 20
19.3657
 30
0.0
 10
-7.9011
 20
19.6191
 30
0.0
 10
-7.9011
 20
19.6191
 30
0.0
  0
SPLINE
  5
93
330
1F
100
AcDbEntity
  8
DEFAULT_3
 62
   250
100
AcDbSpline
210
0.0
220
0.0
230
1.0
 70
    24
 71
     3
 72
     8
 73
     4
 74
     0
 42
0.0000000001
 43
0.0000000001
 40
0.0
 40
0.0
 40
0.0
 40
0.0
 40
1.0
 40
1.0
 40
1.0
 40
1.0
 10
-6.9557
 20
20.4915
 30
0.0
 10
-6.9557
 20
20.4915
 30
0.0
 10
-7.9011
 20
20.2382
 30
0.0
 10
-7.9011
 20
20.2382
 30
0.0
  0
SPLINE
  5
94
330
1F
100
AcDbEntity
  8
DEFAULT_3
 62
   250
100
AcDbSpline
210
0.0
220
0.0
230
1.0
 70
    24
 71
     3
 72
     8
 73
     4
 74
     0
 42
0.0000000001
 43
0.0000000001
 40
0.0
 40
0.0
 40
0.0
 40
0.0
 40
1.0
 40
1.0
 40
1.0
 40
1.0
 10
-0.2621
 20
19.1503
 30
0.0
 10
-0.2621
 20
19.1503
 30
0.0
 10
-1.4296
 20
19.1503
 30
0.0
 10
-1.4296
 20
19.1503
 30
0.0
  0
SPLINE
  5
95
330
1F
100
AcDbEntity
  8
DEFAULT_3
 62
   250
100
AcDbSpline
210
0.0
220
0.0
230
1.0
 70
    24
 71
     3
 72
     8
 73
     4
 74
     0
 42
0.0000000001
 43
0.0000000001
 40
0.0
 40
0.0
 40
0.0
 40
0.0
 40
1.0
 40
1.0
 40
1.0
 40
1.0
 10
-0.2621
 20
20.707
 30
0.0
 10
-0.2621
 20
20.707
 30
0.0
 10
-1.4296
 20
20.707
 30
0.0
 10
-1.4296
 20
20.707
 30
0.0
  0
SPLINE
  5
96
330
1F
100
AcDbEntity
  8
DEFAULT_3
 62
   250
100
AcDbSpline
210
0.0
220
0.0
230
1.0
 70
     8
 71
     3
 72
    60
 73
    56
 74
     0
 42
0.0000000001
 43
0.0000000001
 40
0.0
 40
0.0
 40
0.0
 40
0.0
 40
0.0666666666666667
 40
0.0666666666666667
 40
0.0666666666666667
 40
0.0666666666666667
 40
0.1333333333333333
 40
0.1333333333333333
 40
0.1333333333333333
 40
0.1333333333333333
 40
0.2
 40
0.2
 40
0.2
 40
0.2
 40
0.2666666666666667
 40
0.2666666666666667
 40
0.2666666666666667
 40
0.2666666666666667
 40
0.3333333333333333
 40
0.3333333333333333
 40
0.3333333333333333
 40
0.3333333333333333
 40
0.4
 40
0.4
 40
0.4
 40
0.4
 40
0.4666666666666667
 40
0.4666666666666667
 40
0.4666666666666667
 40
0.4666666666666667
 40
0.5333333333333333
 40
0.5333333333333333
 40
0.5333333333333333
 40
0.5333333333333333
 40
0.6
 40
0.6
 40
0.6
 40
0.6
 40
0.6666666666666666
 40
0.6666666666666666
 40
0.6666666666666666
 40
0.6666666666666666
 40
0.7333333333333333
 40
0.7333333333333333
 40
0.7333333333333333
 40
0.7333333333333333
 40
0.8
 40
0.8
 40
0.8
 40
0.8
 40
0.8666666666666667
 40
0.8666666666666667
 40
0.8666666666666667
 40
0.8666666666666667
 40
1.0
 40
1.0
 40
1.0
 40
1.0
 10
-4.176
 20
22.0052
 30
0.0
 10
-4.176
 20
22.0052
 30
0.0
 10
-4.3414
 20
21.9962
 30
0.0
 10
-4.3414
 20
21.9962
 30
0.0
 10
-4.3414
 20
21.9962
 30
0.0
 10
-4.3414
 20
21.9962
 30
0.0
 10
-4.5135
 20
21.9677
 30
0.0
 10
-4.5135
 20
21.9677
 30
0.0
 10
-4.5135
 20
21.9677
 30
0.0
 10
-4.5135
 20
21.9677
 30
0.0
 10
-4.681
 20
21.9199
 30
0.0
 10
-4.681
 20
21.9199
 30
0.0
 10
-4.681
 20
21.9199
 30
0.0
 10
-4.681
 20
21.9199
 30
0.0
 10
-4.8419
 20
21.8536
 30
0.0
 10
-4.8419
 20
21.8536
 30
0.0
 10
-4.8419
 20
21.8536
 30
0.0
 10
-4.8419
 20
21.8536
 30
0.0
 10
-4.9942
 20
21.7694
 30
0.0
 10
-4.9942
 20
21.7694
 30
0.0
 10
-4.9942
 20
21.7694
 30
0.0
 10
-4.9942
 20
21.7694
 30
0.0
 10
-5.1358
 20
21.6686
 30
0.0
 10
-5.1358
 20
21.6686
 30
0.0
 10
-5.1358
 20
21.6686
 30
0.0
 10
-5.1358
 20
21.6686
 30
0.0
 10
-5.2652
 20
21.5524
 30
0.0
 10
-5.2652
 20
21.5524
 30
0.0
 10
-5.2652
 20
21.5524
 30
0.0
 10
-5.2652
 20
21.5524
 30
0.0
 10
-5.3805
 20
21.4223
 30
0.0
 10
-5.3805
 20
21.4223
 30
0.0
 10
-5.3805
 20
21.4223
 30
0.0
 10
-5.3805
 20
21.4223
 30
0.0
 10
-5.4803
 20
21.2799
 30
0.0
 10
-5.4803
 20
21.2799
 30
0.0
 10
-5.4803
 20
21.2799
 30
0.0
 10
-5.4803
 20
21.2799
 30
0.0
 10
-5.5634
 20
21.127
 30
0.0
 10
-5.5634
 20
21.127
 30
0.0
 10
-5.5634
 20
21.127
 30
0.0
 10
-5.5634
 20
21.127
 30
0.0
 10
-5.6286
 20
20.966
 30
0.0
 10
-5.6286
 20
20.966
 30
0.0
 10
-5.6286
 20
20.966
 30
0.0
 10
-5.6286
 20
20.966
 30
0.0
 10
-5.675
 20
20.7991
 30
0.0
 10
-5.675
 20
20.7991
 30
0.0
 10
-5.675
 20
20.7991
 30
0.0
 10
-5.675
 20
20.7991
 30
0.0
 10
-5.7022
 20
20.6287
 30
0.0
 10
-5.7022
 20
20.6287
 30
0.0
 10
-5.7022
 20
20.6287
 30
0.0
 10
-5.7022
 20
20.6287
 30
0.0
 10
-5.7082
 20
20.5126
 30
0.0
 10
-5.7082
 20
20.5126
 30
0.0
  0
SPLINE
  5
97
330
1F
100
AcDbEntity
  8
DEFAULT_3
 62
   250
100
AcDbSpline
210
0.0
220
0.0
230
1.0
 70
     8
 71
     3
 72
     8
 73
     4
 74
     0
 42
0.0000000001
 43
0.0000000001
 40
0.0
 40
0.0
 40
0.0
 40
0.0
 40
1.0
 40
1.0
 40
1.0
 40
1.0
 10
-8.0453
 20
19.807
 30
0.0
 10
-8.0453
 20
19.7189
 30
0.0
 10
-7.9862
 20
19.6419
 30
0.0
 10
-7.9011
 20
19.6191
 30
0.0
  0
SPLINE
  5
98
330
1F
100
AcDbEntity
  8
DEFAULT_3
 62
   250
100
AcDbSpline
210
0.0
220
0.0
230
1.0
 70
     8
 71
     3
 72
     8
 73
     4
 74
     0
 42
0.0000000001
 43
0.0000000001
 40
0.0
 40
0.0
 40
0.0
 40
0.0
 40
1.0
 40
1.0
 40
1.0
 40
1.0
 10
-7.9011
 20
20.2382
 30
0.0
 10
-7.9862
 20
20.2154
 30
0.0
 10
-8.0453
 20
20.1383
 30
0.0
 10
-8.0453
 20
20.0502
 30
0.0
  0
SPLINE
  5
99
330
1F
100
AcDbEntity
  8
DEFAULT_3
 62
   250
100
AcDbSpline
210
0.0
220
0.0
230
1.0
 70
     8
 71
     3
 72
     8
 73
     4
 74
     0
 42
0.0000000001
 43
0.0000000001
 40
0.0
 40
0.0
 40
0.0
 40
0.0
 40
1.0
 40
1.0
 40
1.0
 40
1.0
 10
-5.7882
 20
22.4178
 30
0.0
 10
-5.7882
 20
22.476
 30
0.0
 10
-5.8142
 20
22.5312
 30
0.0
 10
-5.8593
 20
22.5682
 30
0.0
  0
SPLINE
  5
9A
330
1F
100
AcDbEntity
  8
DEFAULT_3
 62
   250
100
AcDbSpline
210
0.0
220
0.0
230
1.0
 70
     8
 71
     3
 72
     8
 73
     4
 74
     0
 42
0.0000000001
 43
0.0000000001
 40
0.0
 40
0.0
 40
0.0
 40
0.0
 40
1.0
 40
1.0
 40
1.0
 40
1.0
 10
-2.5259
 20
22.5682
 30
0.0
 10
-2.5709
 20
22.5312
 30
0.0
 10
-2.597
 20
22.476
 30
0.0
 10
-2.597
 20
22.4178
 30
0.0
  0
SPLINE
  5
9B
330
1F
100
AcDbEntity
  8
DEFAULT_3
 62
   250
100
AcDbSpline
210
0.0
220
0.0
230
1.0
 70
     8
 71
     3
 72
    20
 73
    16
 74
     0
 42
0.0000000001
 43
0.0000000001
 40
0.0
 40
0.0
 40
0.0
 40
0.0
 40
0.2
 40
0.2
 40
0.2
 40
0.2
 40
0.4
 40
0.4
 40
0.4
 40
0.4
 40
0.6
 40
0.6
 40
0.6
 40
0.6
 40
1.0
 40
1.0
 40
1.0
 40
1.0
 10
-2.5259
 20
22.5682
 30
0.0
 10
-1.6683
 20
23.2721
 30
0.0
 10
-1.3455
 20
24.439
 30
0.0
 10
-1.7193
 20
25.4837
 30
0.0
 10
-1.7193
 20
25.4837
 30
0.0
 10
-2.0932
 20
26.5283
 30
0.0
 10
-3.0831
 20
27.2254
 30
0.0
 10
-4.1926
 20
27.2254
 30
0.0
 10
-4.1926
 20
27.2254
 30
0.0
 10
-5.3021
 20
27.2254
 30
0.0
 10
-6.292
 20
26.5283
 30
0.0
 10
-6.6658
 20
25.4837
 30
0.0
 10
-6.6658
 20
25.4837
 30
0.0
 10
-7.0397
 20
24.439
 30
0.0
 10
-6.7169
 20
23.2721
 30
0.0
 10
-5.8593
 20
22.5682
 30
0.0
  0
SPLINE
  5
9C
330
1F
100
AcDbEntity
  8
DEFAULT_3
 62
   250
100
AcDbSpline
210
0.0
220
0.0
230
1.0
 70
     8
 71
     3
 72
    16
 73
    12
 74
     0
 42
0.0000000001
 43
0.0000000001
 40
0.0
 40
0.0
 40
0.0
 40
0.0
 40
0.25
 40
0.25
 40
0.25
 40
0.25
 40
0.5
 40
0.5
 40
0.5
 40
0.5
 40
1.0
 40
1.0
 40
1.0
 40
1.0
 10
-1.4296
 20
21.8581
 30
0.0
 10
0.081
 20
23.3811
 30
0.0
 10
0.0743
 20
25.8394
 30
0.0
 10
-1.4446
 20
27.3541
 30
0.0
 10
-1.4446
 20
27.3541
 30
0.0
 10
-2.9635
 20
28.8689
 30
0.0
 10
-5.4217
 20
28.8689
 30
0.0
 10
-6.9406
 20
27.3541
 30
0.0
 10
-6.9406
 20
27.3541
 30
0.0
 10
-8.4596
 20
25.8394
 30
0.0
 10
-8.4663
 20
23.3811
 30
0.0
 10
-6.9557
 20
21.8581
 30
0.0
  0
SPLINE
  5
9D
330
1F
100
AcDbEntity
  8
DEFAULT_3
 62
   250
100
AcDbSpline
210
0.0
220
0.0
230
1.0
 70
     8
 71
     3
 72
     8
 73
     4
 74
     0
 42
0.0000000001
 43
0.0000000001
 40
0.0
 40
0.0
 40
0.0
 40
0.0
 40
1.0
 40
1.0
 40
1.0
 40
1.0
 10
-1.9842
 20
11.7565
 30
0.0
 10
-3.3423
 20
12.4707
 30
0.0
 10
-4.965
 20
12.4707
 30
0.0
 10
-6.3231
 20
11.7565
 30
0.0
  0
SPLINE
  5
9E
330
1F
100
AcDbEntity
  8
DEFAULT_3
 62
   250
100
AcDbSpline
210
0.0
220
0.0
230
1.0
 70
     8
 71
     3
 72
     8
 73
     4
 74
     0
 42
0.0000000001
 43
0.0000000001
 40
0.0
 40
0.0
 40
0.0
 40
0.0
 40
1.0
 40
1.0
 40
1.0
 40
1.0
 10
-2.5982
 20
20.5128
 30
0.0
 10
-2.6307
 20
21.3462
 30
0.0
 10
-3.3157
 20
22.0052
 30
0.0
 10
-4.1498
 20
22.0052
 30
0.0
  0
SPLINE
  5
9F
330
1F
100
AcDbEntity
  8
DEFAULT_3
 62
   250
100
AcDbSpline
210
0.0
220
0.0
230
1.0
 70
     8
 71
     3
 72
     8
 73
     4
 74
     0
 42
0.0000000001
 43
0.0000000001
 40
0.0
 40
0.0
 40
0.0
 40
0.0
 40
1.0
 40
1.0
 40
1.0
 40
1.0
 10
4.6997
 20
17.0484
 30
0.0
 10
2.3194
 20
17.7096
 30
0.0
 10
-0.1275
 20
18.1021
 30
0.0
 10
-2.5952
 20
18.2185
 30
0.0
  0
SPLINE
  5
A0
330
1F
100
AcDbEntity
  8
DEFAULT_3
 62
   250
100
AcDbSpline
210
0.0
220
0.0
230
1.0
 70
     8
 71
     3
 72
     8
 73
     4
 74
     0
 42
0.0000000001
 43
0.0000000001
 40
0.0
 40
0.0
 40
0.0
 40
0.0
 40
1.0
 40
1.0
 40
1.0
 40
1.0
 10
-5.7122
 20
18.2185
 30
0.0
 10
-8.1799
 20
18.1021
 30
0.0
 10
-10.6268
 20
17.7096
 30
0.0
 10
-13.0071
 20
17.0484
 30
0.0
  0
SPLINE
  5
A1
330
1F
100
AcDbEntity
  8
DEFAULT_3
 62
   250
100
AcDbSpline
210
0.0
220
0.0
230
1.0
 70
     8
 71
     3
 72
     8
 73
     4
 74
     0
 42
0.0000000001
 43
0.0000000001
 40
0.0
 40
0.0
 40
0.0
 40
0.0
 40
1.0
 40
1.0
 40
1.0
 40
1.0
 10
5.6749
 20
0.3665
 30
0.0
 10
5.2172
 20
0.3665
 30
0.0
 10
4.8215
 20
0.0475
 30
0.0
 10
4.7242
 20
-0.3997
 30
0.0
  0
SPLINE
  5
A2
330
1F
100
AcDbEntity
  8
DEFAULT_3
 62
   250
100
AcDbSpline
210
0.0
220
0.0
230
1.0
 70
     8
 71
     3
 72
     8
 73
     4
 74
     0
 42
0.0000000001
 43
0.0000000001
 40
0.0
 40
0.0
 40
0.0
 40
0.0
 40
1.0
 40
1.0
 40
1.0
 40
1.0
 10
3.2782
 20
-4.8871
 30
0.0
 10
3.5528
 20
-4.8871
 30
0.0
 10
3.7903
 20
-4.6958
 30
0.0
 10
3.8486
 20
-4.4274
 30
0.0
  0
SPLINE
  5
A3
330
1F
100
AcDbEntity
  8
DEFAULT_3
 62
   250
100
AcDbSpline
210
0.0
220
0.0
230
1.0
 70
     8
 71
     3
 72
     8
 73
     4
 74
     0
 42
0.0000000001
 43
0.0000000001
 40
0.0
 40
0.0
 40
0.0
 40
0.0
 40
1.0
 40
1.0
 40
1.0
 40
1.0
 10
-13.1683
 20
-0.3997
 30
0.0
 10
-13.2655
 20
0.0475
 30
0.0
 10
-13.6613
 20
0.3665
 30
0.0
 10
-14.119
 20
0.3665
 30
0.0
  0
SPLINE
  5
A4
330
1F
100
AcDbEntity
  8
DEFAULT_3
 62
   250
100
AcDbSpline
210
0.0
220
0.0
230
1.0
 70
     8
 71
     3
 72
     8
 73
     4
 74
     0
 42
0.0000000001
 43
0.0000000001
 40
0.0
 40
0.0
 40
0.0
 40
0.0
 40
1.0
 40
1.0
 40
1.0
 40
1.0
 10
-12.2927
 20
-4.4274
 30
0.0
 10
-12.2344
 20
-4.6958
 30
0.0
 10
-11.9969
 20
-4.8871
 30
0.0
 10
-11.7223
 20
-4.8871
 30
0.0
  0
SPLINE
  5
A5
330
1F
100
AcDbEntity
  8
DEFAULT_3
 62
   250
100
AcDbSpline
210
0.0
220
0.0
230
1.0
 70
     8
 71
     3
 72
    16
 73
    12
 74
     0
 42
0.0000000001
 43
0.0000000001
 40
0.0
 40
0.0
 40
0.0
 40
0.0
 40
0.25
 40
0.25
 40
0.25
 40
0.25
 40
0.5
 40
0.5
 40
0.5
 40
0.5
 40
1.0
 40
1.0
 40
1.0
 40
1.0
 10
-5.7024
 20
20.5121
 30
0.0
 10
-5.7024
 20
20.5121
 30
0.0
 10
-5.7019
 20
20.5122
 30
0.0
 10
-5.7019
 20
20.5122
 30
0.0
 10
-5.7019
 20
20.5122
 30
0.0
 10
-5.7019
 20
20.5122
 30
0.0
 10
-5.6978
 20
20.5044
 30
0.0
 10
-5.6978
 20
20.5044
 30
0.0
 10
-5.6978
 20
20.5044
 30
0.0
 10
-5.6978
 20
20.5044
 30
0.0
 10
-5.6946
 20
20.4848
 30
0.0
 10
-5.6946
 20
20.4848
 30
0.0
  0
SPLINE
  5
A6
330
1F
100
AcDbEntity
  8
DEFAULT_3
 62
   250
100
AcDbSpline
210
0.0
220
0.0
230
1.0
 70
     8
 71
     3
 72
    80
 73
    76
 74
     0
 42
0.0000000001
 43
0.0000000001
 40
0.0
 40
0.0
 40
0.0
 40
0.0
 40
0.05
 40
0.05
 40
0.05
 40
0.05
 40
0.1
 40
0.1
 40
0.1
 40
0.1
 40
0.15
 40
0.15
 40
0.15
 40
0.15
 40
0.2
 40
0.2
 40
0.2
 40
0.2
 40
0.25
 40
0.25
 40
0.25
 40
0.25
 40
0.3
 40
0.3
 40
0.3
 40
0.3
 40
0.35
 40
0.35
 40
0.35
 40
0.35
 40
0.4
 40
0.4
 40
0.4
 40
0.4
 40
0.45
 40
0.45
 40
0.45
 40
0.45
 40
0.5
 40
0.5
 40
0.5
 40
0.5
 40
0.55
 40
0.55
 40
0.55
 40
0.55
 40
0.6
 40
0.6
 40
0.6
 40
0.6
 40
0.65
 40
0.65
 40
0.65
 40
0.65
 40
0.7
 40
0.7
 40
0.7
 40
0.7
 40
0.75
 40
0.75
 40
0.75
 40
0.75
 40
0.8
 40
0.8
 40
0.8
 40
0.8
 40
0.85
 40
0.85
 40
0.85
 40
0.85
 40
0.9
 40
0.9
 40
0.9
 40
0.9
 40
1.0
 40
1.0
 40
1.0
 40
1.0
 10
-2.5971
 20
18.2185
 30
0.0
 10
-2.5971
 20
18.2185
 30
0.0
 10
-2.6024
 20
18.218
 30
0.0
 10
-2.6024
 20
18.218
 30
0.0
 10
-2.6024
 20
18.218
 30
0.0
 10
-2.6024
 20
18.218
 30
0.0
 10
-2.6182
 20
18.2161
 30
0.0
 10
-2.6182
 20
18.2161
 30
0.0
 10
-2.6182
 20
18.2161
 30
0.0
 10
-2.6182
 20
18.2161
 30
0.0
 10
-2.6439
 20
18.2126
 30
0.0
 10
-2.6439
 20
18.2126
 30
0.0
 10
-2.6439
 20
18.2126
 30
0.0
 10
-2.6439
 20
18.2126
 30
0.0
 10
-2.6796
 20
18.2078
 30
0.0
 10
-2.6796
 20
18.2078
 30
0.0
 10
-2.6796
 20
18.2078
 30
0.0
 10
-2.6796
 20
18.2078
 30
0.0
 10
-2.7263
 20
18.2013
 30
0.0
 10
-2.7263
 20
18.2013
 30
0.0
 10
-2.7263
 20
18.2013
 30
0.0
 10
-2.7263
 20
18.2013
 30
0.0
 10
-2.7888
 20
18.1928
 30
0.0
 10
-2.7888
 20
18.1928
 30
0.0
 10
-2.7888
 20
18.1928
 30
0.0
 10
-2.7888
 20
18.1928
 30
0.0
 10
-2.8692
 20
18.1821
 30
0.0
 10
-2.8692
 20
18.1821
 30
0.0
 10
-2.8692
 20
18.1821
 30
0.0
 10
-2.8692
 20
18.1821
 30
0.0
 10
-2.9656
 20
18.1697
 30
0.0
 10
-2.9656
 20
18.1697
 30
0.0
 10
-2.9656
 20
18.1697
 30
0.0
 10
-2.9656
 20
18.1697
 30
0.0
 10
-3.0734
 20
18.1568
 30
0.0
 10
-3.0734
 20
18.1568
 30
0.0
 10
-3.0734
 20
18.1568
 30
0.0
 10
-3.0734
 20
18.1568
 30
0.0
 10
-3.1851
 20
18.1444
 30
0.0
 10
-3.1851
 20
18.1444
 30
0.0
 10
-3.1851
 20
18.1444
 30
0.0
 10
-3.1851
 20
18.1444
 30
0.0
 10
-3.2983
 20
18.1329
 30
0.0
 10
-3.2983
 20
18.1329
 30
0.0
 10
-3.2983
 20
18.1329
 30
0.0
 10
-3.2983
 20
18.1329
 30
0.0
 10
-3.413
 20
18.1227
 30
0.0
 10
-3.413
 20
18.1227
 30
0.0
 10
-3.413
 20
18.1227
 30
0.0
 10
-3.413
 20
18.1227
 30
0.0
 10
-3.5298
 20
18.1136
 30
0.0
 10
-3.5298
 20
18.1136
 30
0.0
 10
-3.5298
 20
18.1136
 30
0.0
 10
-3.5298
 20
18.1136
 30
0.0
 10
-3.6444
 20
18.1061
 30
0.0
 10
-3.6444
 20
18.1061
 30
0.0
 10
-3.6444
 20
18.1061
 30
0.0
 10
-3.6444
 20
18.1061
 30
0.0
 10
-3.7549
 20
18.1003
 30
0.0
 10
-3.7549
 20
18.1003
 30
0.0
 10
-3.7549
 20
18.1003
 30
0.0
 10
-3.7549
 20
18.1003
 30
0.0
 10
-3.8598
 20
18.0961
 30
0.0
 10
-3.8598
 20
18.0961
 30
0.0
 10
-3.8598
 20
18.0961
 30
0.0
 10
-3.8598
 20
18.0961
 30
0.0
 10
-3.9597
 20
18.0933
 30
0.0
 10
-3.9597
 20
18.0933
 30
0.0
 10
-3.9597
 20
18.0933
 30
0.0
 10
-3.9597
 20
18.0933
 30
0.0
 10
-4.0564
 20
18.0916
 30
0.0
 10
-4.0564
 20
18.0916
 30
0.0
 10
-4.0564
 20
18.0916
 30
0.0
 10
-4.0564
 20
18.0916
 30
0.0
 10
-4.1498
 20
18.0911
 30
0.0
 10
-4.1498
 20
18.0911
 30
0.0
  0
SPLINE
  5
A7
330
1F
100
AcDbEntity
  8
DEFAULT_3
 62
   250
100
AcDbSpline
210
0.0
220
0.0
230
1.0
 70
    24
 71
     3
 72
    12
 73
     8
 74
     0
 42
0.0000000001
 43
0.0000000001
 40
0.0
 40
0.0
 40
0.0
 40
0.0
 40
0.3333333333333333
 40
0.3333333333333333
 40
0.3333333333333333
 40
0.3333333333333333
 40
1.0
 40
1.0
 40
1.0
 40
1.0
 10
-4.1498
 20
18.0911
 30
0.0
 10
-4.1498
 20
18.0911
 30
0.0
 10
-4.1517
 20
18.0911
 30
0.0
 10
-4.1517
 20
18.0911
 30
0.0
 10
-4.1517
 20
18.0911
 30
0.0
 10
-4.1517
 20
18.0911
 30
0.0
 10
-4.1537
 20
18.0911
 30
0.0
 10
-4.1537
 20
18.0911
 30
0.0
  0
SPLINE
  5
A8
330
1F
100
AcDbEntity
  8
DEFAULT_3
 62
   250
100
AcDbSpline
210
0.0
220
0.0
230
1.0
 70
     8
 71
     3
 72
    80
 73
    76
 74
     0
 42
0.0000000001
 43
0.0000000001
 40
0.0
 40
0.0
 40
0.0
 40
0.0
 40
0.05
 40
0.05
 40
0.05
 40
0.05
 40
0.1
 40
0.1
 40
0.1
 40
0.1
 40
0.15
 40
0.15
 40
0.15
 40
0.15
 40
0.2
 40
0.2
 40
0.2
 40
0.2
 40
0.25
 40
0.25
 40
0.25
 40
0.25
 40
0.3
 40
0.3
 40
0.3
 40
0.3
 40
0.35
 40
0.35
 40
0.35
 40
0.35
 40
0.4
 40
0.4
 40
0.4
 40
0.4
 40
0.45
 40
0.45
 40
0.45
 40
0.45
 40
0.5
 40
0.5
 40
0.5
 40
0.5
 40
0.55
 40
0.55
 40
0.55
 40
0.55
 40
0.6
 40
0.6
 40
0.6
 40
0.6
 40
0.65
 40
0.65
 40
0.65
 40
0.65
 40
0.7
 40
0.7
 40
0.7
 40
0.7
 40
0.75
 40
0.75
 40
0.75
 40
0.75
 40
0.8
 40
0.8
 40
0.8
 40
0.8
 40
0.85
 40
0.85
 40
0.85
 40
0.85
 40
0.9
 40
0.9
 40
0.9
 40
0.9
 40
1.0
 40
1.0
 40
1.0
 40
1.0
 10
-4.1576
 20
18.0911
 30
0.0
 10
-4.1576
 20
18.0911
 30
0.0
 10
-4.2509
 20
18.0916
 30
0.0
 10
-4.2509
 20
18.0916
 30
0.0
 10
-4.2509
 20
18.0916
 30
0.0
 10
-4.2509
 20
18.0916
 30
0.0
 10
-4.3477
 20
18.0933
 30
0.0
 10
-4.3477
 20
18.0933
 30
0.0
 10
-4.3477
 20
18.0933
 30
0.0
 10
-4.3477
 20
18.0933
 30
0.0
 10
-4.4475
 20
18.0961
 30
0.0
 10
-4.4475
 20
18.0961
 30
0.0
 10
-4.4475
 20
18.0961
 30
0.0
 10
-4.4475
 20
18.0961
 30
0.0
 10
-4.5525
 20
18.1003
 30
0.0
 10
-4.5525
 20
18.1003
 30
0.0
 10
-4.5525
 20
18.1003
 30
0.0
 10
-4.5525
 20
18.1003
 30
0.0
 10
-4.663
 20
18.1061
 30
0.0
 10
-4.663
 20
18.1061
 30
0.0
 10
-4.663
 20
18.1061
 30
0.0
 10
-4.663
 20
18.1061
 30
0.0
 10
-4.7776
 20
18.1136
 30
0.0
 10
-4.7776
 20
18.1136
 30
0.0
 10
-4.7776
 20
18.1136
 30
0.0
 10
-4.7776
 20
18.1136
 30
0.0
 10
-4.8943
 20
18.1227
 30
0.0
 10
-4.8943
 20
18.1227
 30
0.0
 10
-4.8943
 20
18.1227
 30
0.0
 10
-4.8943
 20
18.1227
 30
0.0
 10
-5.0091
 20
18.1329
 30
0.0
 10
-5.0091
 20
18.1329
 30
0.0
 10
-5.0091
 20
18.1329
 30
0.0
 10
-5.0091
 20
18.1329
 30
0.0
 10
-5.1223
 20
18.1444
 30
0.0
 10
-5.1223
 20
18.1444
 30
0.0
 10
-5.1223
 20
18.1444
 30
0.0
 10
-5.1223
 20
18.1444
 30
0.0
 10
-5.234
 20
18.1568
 30
0.0
 10
-5.234
 20
18.1568
 30
0.0
 10
-5.234
 20
18.1568
 30
0.0
 10
-5.234
 20
18.1568
 30
0.0
 10
-5.3417
 20
18.1697
 30
0.0
 10
-5.3417
 20
18.1697
 30
0.0
 10
-5.3417
 20
18.1697
 30
0.0
 10
-5.3417
 20
18.1697
 30
0.0
 10
-5.4381
 20
18.1821
 30
0.0
 10
-5.4381
 20
18.1821
 30
0.0
 10
-5.4381
 20
18.1821
 30
0.0
 10
-5.4381
 20
18.1821
 30
0.0
 10
-5.5186
 20
18.1928
 30
0.0
 10
-5.5186
 20
18.1928
 30
0.0
 10
-5.5186
 20
18.1928
 30
0.0
 10
-5.5186
 20
18.1928
 30
0.0
 10
-5.581
 20
18.2013
 30
0.0
 10
-5.581
 20
18.2013
 30
0.0
 10
-5.581
 20
18.2013
 30
0.0
 10
-5.581
 20
18.2013
 30
0.0
 10
-5.6278
 20
18.2078
 30
0.0
 10
-5.6278
 20
18.2078
 30
0.0
 10
-5.6278
 20
18.2078
 30
0.0
 10
-5.6278
 20
18.2078
 30
0.0
 10
-5.6635
 20
18.2126
 30
0.0
 10
-5.6635
 20
18.2126
 30
0.0
 10
-5.6635
 20
18.2126
 30
0.0
 10
-5.6635
 20
18.2126
 30
0.0
 10
-5.6891
 20
18.2161
 30
0.0
 10
-5.6891
 20
18.2161
 30
0.0
 10
-5.6891
 20
18.2161
 30
0.0
 10
-5.6891
 20
18.2161
 30
0.0
 10
-5.7049
 20
18.218
 30
0.0
 10
-5.7049
 20
18.218
 30
0.0
 10
-5.7049
 20
18.218
 30
0.0
 10
-5.7049
 20
18.218
 30
0.0
 10
-5.7102
 20
18.2185
 30
0.0
 10
-5.7102
 20
18.2185
 30
0.0
  0
SPLINE
  5
A9
330
1F
100
AcDbEntity
  8
DEFAULT_3
 62
   250
100
AcDbSpline
210
0.0
220
0.0
230
1.0
 70
    24
 71
     3
 72
    12
 73
     8
 74
     0
 42
0.0000000001
 43
0.0000000001
 40
0.0
 40
0.0
 40
0.0
 40
0.0
 40
0.3333333333333333
 40
0.3333333333333333
 40
0.3333333333333333
 40
0.3333333333333333
 40
1.0
 40
1.0
 40
1.0
 40
1.0
 10
-4.1537
 20
18.0911
 30
0.0
 10
-4.1537
 20
18.0911
 30
0.0
 10
-4.1556
 20
18.0911
 30
0.0
 10
-4.1556
 20
18.0911
 30
0.0
 10
-4.1556
 20
18.0911
 30
0.0
 10
-4.1556
 20
18.0911
 30
0.0
 10
-4.1576
 20
18.0911
 30
0.0
 10
-4.1576
 20
18.0911
 30
0.0
  0
SPLINE
  5
AA
330
1F
100
AcDbEntity
  8
DEFAULT_3
 62
   250
100
AcDbSpline
210
0.0
220
0.0
230
1.0
 70
     8
 71
     3
 72
    16
 73
    12
 74
     0
 42
0.0000000001
 43
0.0000000001
 40
0.0
 40
0.0
 40
0.0
 40
0.0
 40
0.25
 40
0.25
 40
0.25
 40
0.25
 40
0.5
 40
0.5
 40
0.5
 40
0.5
 40
1.0
 40
1.0
 40
1.0
 40
1.0
 10
-5.7102
 20
20.4713
 30
0.0
 10
-5.7102
 20
20.4713
 30
0.0
 10
-5.7091
 20
20.4922
 30
0.0
 10
-5.7091
 20
20.4922
 30
0.0
 10
-5.7091
 20
20.4922
 30
0.0
 10
-5.7091
 20
20.4922
 30
0.0
 10
-5.7059
 20
20.5081
 30
0.0
 10
-5.7059
 20
20.5081
 30
0.0
 10
-5.7059
 20
20.5081
 30
0.0
 10
-5.7059
 20
20.5081
 30
0.0
 10
-5.7024
 20
20.5121
 30
0.0
 10
-5.7024
 20
20.5121
 30
0.0
  0
SPLINE
  5
AB
330
1F
100
AcDbEntity
  8
DEFAULT_3
  6
NEW_LINE1
 62
   250
100
AcDbSpline
210
0.0
220
0.0
230
1.0
 70
    24
 71
     3
 72
     8
 73
     4
 74
     0
 42
0.0000000001
 43
0.0000000001
 40
0.0
 40
0.0
 40
0.0
 40
0.0
 40
1.0
 40
1.0
 40
1.0
 40
1.0
 10
-4.1537
 20
28.9261
 30
0.0
 10
-4.1537
 20
28.9261
 30
0.0
 10
-4.1537
 20
-28.2643
 30
0.0
 10
-4.1537
 20
-28.2643
 30
0.0
  0
SPLINE
  5
AD
330
1F
100
AcDbEntity
  8
DEFAULT_3
 62
   250
100
AcDbSpline
210
0.0
220
0.0
230
1.0
 70
    24
 71
     3
 72
     8
 73
     4
 74
     0
 42
0.0000000001
 43
0.0000000001
 40
0.0
 40
0.0
 40
0.0
 40
0.0
 40
1.0
 40
1.0
 40
1.0
 40
1.0
 10
-13.3229
 20
-21.8554
 30
0.0
 10
-13.3229
 20
-21.8554
 30
0.0
 10
5.1631
 20
-22.4874
 30
0.0
 10
5.1631
 20
-22.4874
 30
0.0
  0
SPLINE
  5
AE
330
1F
100
AcDbEntity
  8
DEFAULT_3
 62
   250
100
AcDbSpline
210
0.0
220
0.0
230
1.0
 70
    24
 71
     3
 72
     8
 73
     4
 74
     0
 42
0.0000000001
 43
0.0000000001
 40
0.0
 40
0.0
 40
0.0
 40
0.0
 40
1.0
 40
1.0
 40
1.0
 40
1.0
 10
-13.3229
 20
-22.9537
 30
0.0
 10
-13.3229
 20
-22.9537
 30
0.0
 10
5.1631
 20
-23.5857
 30
0.0
 10
5.1631
 20
-23.5857
 30
0.0
  0
SPLINE
  5
AF
330
1F
100
AcDbEntity
  8
DEFAULT_3
 62
   250
100
AcDbSpline
210
0.0
220
0.0
230
1.0
 70
    24
 71
     3
 72
     8
 73
     4
 74
     0
 42
0.0000000001
 43
0.0000000001
 40
0.0
 40
0.0
 40
0.0
 40
0.0
 40
1.0
 40
1.0
 40
1.0
 40
1.0
 10
-13.3229
 20
-24.052
 30
0.0
 10
-13.3229
 20
-24.052
 30
0.0
 10
5.1631
 20
-24.684
 30
0.0
 10
5.1631
 20
-24.684
 30
0.0
  0
SPLINE
  5
B0
330
1F
100
AcDbEntity
  8
DEFAULT_3
 62
   250
100
AcDbSpline
210
0.0
220
0.0
230
1.0
 70
    24
 71
     3
 72
     8
 73
     4
 74
     0
 42
0.0000000001
 43
0.0000000001
 40
0.0
 40
0.0
 40
0.0
 40
0.0
 40
1.0
 40
1.0
 40
1.0
 40
1.0
 10
-13.3229
 20
-25.1503
 30
0.0
 10
-13.3229
 20
-25.1503
 30
0.0
 10
5.1631
 20
-25.7823
 30
0.0
 10
5.1631
 20
-25.7823
 30
0.0
  0
SPLINE
  5
B1
330
1F
100
AcDbEntity
  8
DEFAULT_3
 62
   250
100
AcDbSpline
210
0.0
220
0.0
230
1.0
 70
    24
 71
     3
 72
     8
 73
     4
 74
     0
 42
0.0000000001
 43
0.0000000001
 40
0.0
 40
0.0
 40
0.0
 40
0.0
 40
1.0
 40
1.0
 40
1.0
 40
1.0
 10
-13.3229
 20
-26.2486
 30
0.0
 10
-13.3229
 20
-26.2486
 30
0.0
 10
5.1631
 20
-26.8806
 30
0.0
 10
5.1631
 20
-26.8806
 30
0.0
  0
SPLINE
  5
B2
330
1F
100
AcDbEntity
  8
DEFAULT_3
 62
   250
100
AcDbSpline
210
0.0
220
0.0
230
1.0
 70
    24
 71
     3
 72
     8
 73
     4
 74
     0
 42
0.0000000001
 43
0.0000000001
 40
0.0
 40
0.0
 40
0.0
 40
0.0
 40
1.0
 40
1.0
 40
1.0
 40
1.0
 10
-18.6582
 20
-13.257
 30
0.0
 10
-18.6582
 20
-13.257
 30
0.0
 10
-18.6582
 20
-15.4452
 30
0.0
 10
-18.6582
 20
-15.4452
 30
0.0
  0
SPLINE
  5
B3
330
1F
100
AcDbEntity
  8
DEFAULT_3
 62
   250
100
AcDbSpline
210
0.0
220
0.0
230
1.0
 70
    24
 71
     3
 72
     8
 73
     4
 74
     0
 42
0.0000000001
 43
0.0000000001
 40
0.0
 40
0.0
 40
0.0
 40
0.0
 40
1.0
 40
1.0
 40
1.0
 40
1.0
 10
-14.4808
 20
-15.6441
 30
0.0
 10
-14.4808
 20
-15.6441
 30
0.0
 10
-14.4808
 20
-19.722
 30
0.0
 10
-14.4808
 20
-19.722
 30
0.0
  0
SPLINE
  5
B4
330
1F
100
AcDbEntity
  8
DEFAULT_3
 62
   250
100
AcDbSpline
210
0.0
220
0.0
230
1.0
 70
    24
 71
     3
 72
     8
 73
     4
 74
     0
 42
0.0000000001
 43
0.0000000001
 40
0.0
 40
0.0
 40
0.0
 40
0.0
 40
1.0
 40
1.0
 40
1.0
 40
1.0
 10
-13.3867
 20
-20.816
 30
0.0
 10
-13.3867
 20
-20.816
 30
0.0
 10
-13.3867
 20
-26.9826
 30
0.0
 10
-13.3867
 20
-26.9826
 30
0.0
  0
SPLINE
  5
B5
330
1F
100
AcDbEntity
  8
DEFAULT_3
 62
   250
100
AcDbSpline
210
0.0
220
0.0
230
1.0
 70
    24
 71
     3
 72
     8
 73
     4
 74
     0
 42
0.0000000001
 43
0.0000000001
 40
0.0
 40
0.0
 40
0.0
 40
0.0
 40
1.0
 40
1.0
 40
1.0
 40
1.0
 10
-13.0575
 20
-26.9826
 30
0.0
 10
-13.0575
 20
-26.9826
 30
0.0
 10
-13.0575
 20
-27.1816
 30
0.0
 10
-13.0575
 20
-27.1816
 30
0.0
  0
SPLINE
  5
B6
330
1F
100
AcDbEntity
  8
DEFAULT_3
 62
   250
100
AcDbSpline
210
0.0
220
0.0
230
1.0
 70
    24
 71
     3
 72
     8
 73
     4
 74
     0
 42
0.0000000001
 43
0.0000000001
 40
0.0
 40
0.0
 40
0.0
 40
0.0
 40
1.0
 40
1.0
 40
1.0
 40
1.0
 10
-13.0575
 20
-27.1816
 30
0.0
 10
-13.0575
 20
-27.1816
 30
0.0
 10
4.7837
 20
-27.1816
 30
0.0
 10
4.7837
 20
-27.1816
 30
0.0
  0
SPLINE
  5
B7
330
1F
100
AcDbEntity
  8
DEFAULT_3
 62
   250
100
AcDbSpline
210
0.0
220
0.0
230
1.0
 70
    24
 71
     3
 72
     8
 73
     4
 74
     0
 42
0.0000000001
 43
0.0000000001
 40
0.0
 40
0.0
 40
0.0
 40
0.0
 40
1.0
 40
1.0
 40
1.0
 40
1.0
 10
-13.3867
 20
-26.9826
 30
0.0
 10
-13.3867
 20
-26.9826
 30
0.0
 10
5.113
 20
-26.9826
 30
0.0
 10
5.113
 20
-26.9826
 30
0.0
  0
SPLINE
  5
B8
330
1F
100
AcDbEntity
  8
DEFAULT_3
 62
   250
100
AcDbSpline
210
0.0
220
0.0
230
1.0
 70
    24
 71
     3
 72
     8
 73
     4
 74
     0
 42
0.0000000001
 43
0.0000000001
 40
0.0
 40
0.0
 40
0.0
 40
0.0
 40
1.0
 40
1.0
 40
1.0
 40
1.0
 10
-14.4808
 20
-19.722
 30
0.0
 10
-14.4808
 20
-19.722
 30
0.0
 10
-13.3867
 20
-20.816
 30
0.0
 10
-13.3867
 20
-20.816
 30
0.0
  0
SPLINE
  5
B9
330
1F
100
AcDbEntity
  8
DEFAULT_3
 62
   250
100
AcDbSpline
210
0.0
220
0.0
230
1.0
 70
    24
 71
     3
 72
     8
 73
     4
 74
     0
 42
0.0000000001
 43
0.0000000001
 40
0.0
 40
0.0
 40
0.0
 40
0.0
 40
1.0
 40
1.0
 40
1.0
 40
1.0
 10
5.113
 20
-20.816
 30
0.0
 10
5.113
 20
-20.816
 30
0.0
 10
-13.3867
 20
-20.816
 30
0.0
 10
-13.3867
 20
-20.816
 30
0.0
  0
SPLINE
  5
BA
330
1F
100
AcDbEntity
  8
DEFAULT_3
 62
   250
100
AcDbSpline
210
0.0
220
0.0
230
1.0
 70
    24
 71
     3
 72
     8
 73
     4
 74
     0
 42
0.0000000001
 43
0.0000000001
 40
0.0
 40
0.0
 40
0.0
 40
0.0
 40
1.0
 40
1.0
 40
1.0
 40
1.0
 10
-14.4808
 20
-19.722
 30
0.0
 10
-14.4808
 20
-19.722
 30
0.0
 10
6.2071
 20
-19.722
 30
0.0
 10
6.2071
 20
-19.722
 30
0.0
  0
SPLINE
  5
BB
330
1F
100
AcDbEntity
  8
DEFAULT_3
 62
   250
100
AcDbSpline
210
0.0
220
0.0
230
1.0
 70
    24
 71
     3
 72
     8
 73
     4
 74
     0
 42
0.0000000001
 43
0.0000000001
 40
0.0
 40
0.0
 40
0.0
 40
0.0
 40
1.0
 40
1.0
 40
1.0
 40
1.0
 10
10.1855
 20
-15.6441
 30
0.0
 10
10.1855
 20
-15.6441
 30
0.0
 10
-18.4593
 20
-15.6441
 30
0.0
 10
-18.4593
 20
-15.6441
 30
0.0
  0
SPLINE
  5
BC
330
1F
100
AcDbEntity
  8
DEFAULT_3
 62
   250
100
AcDbSpline
210
0.0
220
0.0
230
1.0
 70
    24
 71
     3
 72
     8
 73
     4
 74
     0
 42
0.0000000001
 43
0.0000000001
 40
0.0
 40
0.0
 40
0.0
 40
0.0
 40
1.0
 40
1.0
 40
1.0
 40
1.0
 10
6.2071
 20
-19.722
 30
0.0
 10
6.2071
 20
-19.722
 30
0.0
 10
5.113
 20
-20.816
 30
0.0
 10
5.113
 20
-20.816
 30
0.0
  0
SPLINE
  5
BD
330
1F
100
AcDbEntity
  8
DEFAULT_3
 62
   250
100
AcDbSpline
210
0.0
220
0.0
230
1.0
 70
    24
 71
     3
 72
     8
 73
     4
 74
     0
 42
0.0000000001
 43
0.0000000001
 40
0.0
 40
0.0
 40
0.0
 40
0.0
 40
1.0
 40
1.0
 40
1.0
 40
1.0
 10
-18.6582
 20
-13.257
 30
0.0
 10
-18.6582
 20
-13.257
 30
0.0
 10
10.3844
 20
-13.257
 30
0.0
 10
10.3844
 20
-13.257
 30
0.0
  0
SPLINE
  5
BE
330
1F
100
AcDbEntity
  8
DEFAULT_3
 62
   250
100
AcDbSpline
210
0.0
220
0.0
230
1.0
 70
    24
 71
     3
 72
     8
 73
     4
 74
     0
 42
0.0000000001
 43
0.0000000001
 40
0.0
 40
0.0
 40
0.0
 40
0.0
 40
1.0
 40
1.0
 40
1.0
 40
1.0
 10
4.7838
 20
-26.9826
 30
0.0
 10
4.7838
 20
-26.9826
 30
0.0
 10
4.7838
 20
-27.1816
 30
0.0
 10
4.7838
 20
-27.1816
 30
0.0
  0
SPLINE
  5
BF
330
1F
100
AcDbEntity
  8
DEFAULT_3
 62
   250
100
AcDbSpline
210
0.0
220
0.0
230
1.0
 70
    24
 71
     3
 72
     8
 73
     4
 74
     0
 42
0.0000000001
 43
0.0000000001
 40
0.0
 40
0.0
 40
0.0
 40
0.0
 40
1.0
 40
1.0
 40
1.0
 40
1.0
 10
5.113
 20
-20.816
 30
0.0
 10
5.113
 20
-20.816
 30
0.0
 10
5.113
 20
-26.9826
 30
0.0
 10
5.113
 20
-26.9826
 30
0.0
  0
SPLINE
  5
C0
330
1F
100
AcDbEntity
  8
DEFAULT_3
 62
   250
100
AcDbSpline
210
0.0
220
0.0
230
1.0
 70
    24
 71
     3
 72
     8
 73
     4
 74
     0
 42
0.0000000001
 43
0.0000000001
 40
0.0
 40
0.0
 40
0.0
 40
0.0
 40
1.0
 40
1.0
 40
1.0
 40
1.0
 10
6.2071
 20
-15.6441
 30
0.0
 10
6.2071
 20
-15.6441
 30
0.0
 10
6.2071
 20
-19.722
 30
0.0
 10
6.2071
 20
-19.722
 30
0.0
  0
SPLINE
  5
C1
330
1F
100
AcDbEntity
  8
DEFAULT_3
 62
   250
100
AcDbSpline
210
0.0
220
0.0
230
1.0
 70
    24
 71
     3
 72
     8
 73
     4
 74
     0
 42
0.0000000001
 43
0.0000000001
 40
0.0
 40
0.0
 40
0.0
 40
0.0
 40
1.0
 40
1.0
 40
1.0
 40
1.0
 10
10.3844
 20
-13.257
 30
0.0
 10
10.3844
 20
-13.257
 30
0.0
 10
10.3844
 20
-15.4452
 30
0.0
 10
10.3844
 20
-15.4452
 30
0.0
  0
SPLINE
  5
C2
330
1F
100
AcDbEntity
  8
DEFAULT_3
 62
   250
100
AcDbSpline
210
0.0
220
0.0
230
1.0
 70
     8
 71
     3
 72
     8
 73
     4
 74
     0
 42
0.0000000001
 43
0.0000000001
 40
0.0
 40
0.0
 40
0.0
 40
0.0
 40
1.0
 40
1.0
 40
1.0
 40
1.0
 10
-18.6582
 20
-15.4452
 30
0.0
 10
-18.6582
 20
-15.555
 30
0.0
 10
-18.5691
 20
-15.6441
 30
0.0
 10
-18.4593
 20
-15.6441
 30
0.0
  0
SPLINE
  5
C3
330
1F
100
AcDbEntity
  8
DEFAULT_3
 62
   250
100
AcDbSpline
210
0.0
220
0.0
230
1.0
 70
     8
 71
     3
 72
     8
 73
     4
 74
     0
 42
0.0000000001
 43
0.0000000001
 40
0.0
 40
0.0
 40
0.0
 40
0.0
 40
1.0
 40
1.0
 40
1.0
 40
1.0
 10
10.1855
 20
-15.6441
 30
0.0
 10
10.2953
 20
-15.6441
 30
0.0
 10
10.3844
 20
-15.555
 30
0.0
 10
10.3844
 20
-15.4452
 30
0.0
  0
SPLINE
  5
C4
330
1F
100
AcDbEntity
  8
DEFAULT_3
 62
   250
100
AcDbSpline
210
0.0
220
0.0
230
1.0
 70
    24
 71
     3
 72
     8
 73
     4
 74
     0
 42
0.0000000001
 43
0.0000000001
 40
0.0
 40
0.0
 40
0.0
 40
0.0
 40
1.0
 40
1.0
 40
1.0
 40
1.0
 10
-7.9634
 20
-20.9123
 30
0.0
 10
-7.9634
 20
-20.9123
 30
0.0
 10
5.1631
 20
-21.3611
 30
0.0
 10
5.1631
 20
-21.3611
 30
0.0
  0
SPLINE
  5
C5
330
1F
100
AcDbEntity
  8
DEFAULT_3
 62
   250
100
AcDbSpline
210
0.0
220
0.0
230
1.0
 70
    11
 71
     3
 72
    16
 73
    12
 74
     0
 42
0.0000000001
 43
0.0000000001
 40
0.0
 40
0.0
 40
0.0
 40
0.0
 40
0.25
 40
0.25
 40
0.25
 40
0.25
 40
0.5
 40
0.5
 40
0.5
 40
0.5
 40
1.0
 40
1.0
 40
1.0
 40
1.0
 10
17.3724
 20
-23.7294
 30
0.0
 10
17.3724
 20
-23.7294
 30
0.0
 10
17.831
 20
-26.8685
 30
0.0
 10
17.831
 20
-26.8685
 30
0.0
 10
17.831
 20
-26.8685
 30
0.0
 10
17.831
 20
-26.8685
 30
0.0
 10
18.4068
 20
-23.7382
 30
0.0
 10
18.4068
 20
-23.7382
 30
0.0
 10
18.4068
 20
-23.7382
 30
0.0
 10
18.4068
 20
-23.7382
 30
0.0
 10
17.3724
 20
-23.7294
 30
0.0
 10
17.3724
 20
-23.7294
 30
0.0
  0
SPLINE
  5
C6
330
1F
100
AcDbEntity
  8
DEFAULT_3
 62
   250
100
AcDbSpline
210
0.0
220
0.0
230
1.0
 70
    11
 71
     3
 72
    16
 73
    12
 74
     0
 42
0.0000000001
 43
0.0000000001
 40
0.0
 40
0.0
 40
0.0
 40
0.0
 40
0.25
 40
0.25
 40
0.25
 40
0.25
 40
0.5
 40
0.5
 40
0.5
 40
0.5
 40
1.0
 40
1.0
 40
1.0
 40
1.0
 10
18.3392
 20
-16.8296
 30
0.0
 10
18.3392
 20
-16.8296
 30
0.0
 10
17.8806
 20
-13.6905
 30
0.0
 10
17.8806
 20
-13.6905
 30
0.0
 10
17.8806
 20
-13.6905
 30
0.0
 10
17.8806
 20
-13.6905
 30
0.0
 10
17.3048
 20
-16.8209
 30
0.0
 10
17.3048
 20
-16.8209
 30
0.0
 10
17.3048
 20
-16.8209
 30
0.0
 10
17.3048
 20
-16.8209
 30
0.0
 10
18.3392
 20
-16.8296
 30
0.0
 10
18.3392
 20
-16.8296
 30
0.0
  0
SPLINE
  5
C7
330
1F
100
AcDbEntity
  8
DEFAULT_3
 62
   250
100
AcDbSpline
210
0.0
220
0.0
230
1.0
 70
    11
 71
     3
 72
    16
 73
    12
 74
     0
 42
0.0000000001
 43
0.0000000001
 40
0.0
 40
0.0
 40
0.0
 40
0.0
 40
0.25
 40
0.25
 40
0.25
 40
0.25
 40
0.5
 40
0.5
 40
0.5
 40
0.5
 40
1.0
 40
1.0
 40
1.0
 40
1.0
 10
17.4218
 20
-9.735
 30
0.0
 10
17.4218
 20
-9.735
 30
0.0
 10
17.8805
 20
-12.8741
 30
0.0
 10
17.8805
 20
-12.8741
 30
0.0
 10
17.8805
 20
-12.8741
 30
0.0
 10
17.8805
 20
-12.8741
 30
0.0
 10
18.4563
 20
-9.7437
 30
0.0
 10
18.4563
 20
-9.7437
 30
0.0
 10
18.4563
 20
-9.7437
 30
0.0
 10
18.4563
 20
-9.7437
 30
0.0
 10
17.4218
 20
-9.735
 30
0.0
 10
17.4218
 20
-9.735
 30
0.0
  0
SPLINE
  5
C8
330
1F
100
AcDbEntity
  8
DEFAULT_3
 62
   250
100
AcDbSpline
210
0.0
220
0.0
230
1.0
 70
    11
 71
     3
 72
    16
 73
    12
 74
     0
 42
0.0000000001
 43
0.0000000001
 40
0.0
 40
0.0
 40
0.0
 40
0.0
 40
0.25
 40
0.25
 40
0.25
 40
0.25
 40
0.5
 40
0.5
 40
0.5
 40
0.5
 40
1.0
 40
1.0
 40
1.0
 40
1.0
 10
18.3177
 20
-2.7247
 30
0.0
 10
18.3177
 20
-2.7247
 30
0.0
 10
17.859
 20
0.4144
 30
0.0
 10
17.859
 20
0.4144
 30
0.0
 10
17.859
 20
0.4144
 30
0.0
 10
17.859
 20
0.4144
 30
0.0
 10
17.2832
 20
-2.7159
 30
0.0
 10
17.2832
 20
-2.7159
 30
0.0
 10
17.2832
 20
-2.7159
 30
0.0
 10
17.2832
 20
-2.7159
 30
0.0
 10
18.3177
 20
-2.7247
 30
0.0
 10
18.3177
 20
-2.7247
 30
0.0
  0
SPLINE
  5
C9
330
1F
100
AcDbEntity
  8
DEFAULT_3
 62
   250
100
AcDbSpline
210
0.0
220
0.0
230
1.0
 70
    11
 71
     3
 72
    16
 73
    12
 74
     0
 42
0.0000000001
 43
0.0000000001
 40
0.0
 40
0.0
 40
0.0
 40
0.0
 40
0.25
 40
0.25
 40
0.25
 40
0.25
 40
0.5
 40
0.5
 40
0.5
 40
0.5
 40
1.0
 40
1.0
 40
1.0
 40
1.0
 10
-16.5065
 20
-33.1867
 30
0.0
 10
-16.5065
 20
-33.1867
 30
0.0
 10
-13.3674
 20
-32.7281
 30
0.0
 10
-13.3674
 20
-32.7281
 30
0.0
 10
-13.3674
 20
-32.7281
 30
0.0
 10
-13.3674
 20
-32.7281
 30
0.0
 10
-16.4978
 20
-32.1523
 30
0.0
 10
-16.4978
 20
-32.1523
 30
0.0
 10
-16.4978
 20
-32.1523
 30
0.0
 10
-16.4978
 20
-32.1523
 30
0.0
 10
-16.5065
 20
-33.1867
 30
0.0
 10
-16.5065
 20
-33.1867
 30
0.0
  0
SPLINE
  5
CA
330
1F
100
AcDbEntity
  8
DEFAULT_3
 62
   250
100
AcDbSpline
210
0.0
220
0.0
230
1.0
 70
    11
 71
     3
 72
    16
 73
    12
 74
     0
 42
0.0000000001
 43
0.0000000001
 40
0.0
 40
0.0
 40
0.0
 40
0.0
 40
0.25
 40
0.25
 40
0.25
 40
0.25
 40
0.5
 40
0.5
 40
0.5
 40
0.5
 40
1.0
 40
1.0
 40
1.0
 40
1.0
 10
8.033
 20
-32.2668
 30
0.0
 10
8.033
 20
-32.2668
 30
0.0
 10
4.8939
 20
-32.7254
 30
0.0
 10
4.8939
 20
-32.7254
 30
0.0
 10
4.8939
 20
-32.7254
 30
0.0
 10
4.8939
 20
-32.7254
 30
0.0
 10
8.0243
 20
-33.3013
 30
0.0
 10
8.0243
 20
-33.3013
 30
0.0
 10
8.0243
 20
-33.3013
 30
0.0
 10
8.0243
 20
-33.3013
 30
0.0
 10
8.033
 20
-32.2668
 30
0.0
 10
8.033
 20
-32.2668
 30
0.0
  0
SPLINE
  5
CB
330
1F
100
AcDbEntity
  8
DEFAULT_3
 62
   250
100
AcDbSpline
210
0.0
220
0.0
230
1.0
 70
    11
 71
     3
 72
    16
 73
    12
 74
     0
 42
0.0000000001
 43
0.0000000001
 40
0.0
 40
0.0
 40
0.0
 40
0.0
 40
0.25
 40
0.25
 40
0.25
 40
0.25
 40
0.5
 40
0.5
 40
0.5
 40
0.5
 40
1.0
 40
1.0
 40
1.0
 40
1.0
 10
5.976
 20
30.446
 30
0.0
 10
5.976
 20
30.446
 30
0.0
 10
9.1151
 20
30.9047
 30
0.0
 10
9.1151
 20
30.9047
 30
0.0
 10
9.1151
 20
30.9047
 30
0.0
 10
9.1151
 20
30.9047
 30
0.0
 10
5.9847
 20
31.4805
 30
0.0
 10
5.9847
 20
31.4805
 30
0.0
 10
5.9847
 20
31.4805
 30
0.0
 10
5.9847
 20
31.4805
 30
0.0
 10
5.976
 20
30.446
 30
0.0
 10
5.976
 20
30.446
 30
0.0
  0
SPLINE
  5
CC
330
1F
100
AcDbEntity
  8
DEFAULT_3
 62
   250
100
AcDbSpline
210
0.0
220
0.0
230
1.0
 70
    11
 71
     3
 72
    16
 73
    12
 74
     0
 42
0.0000000001
 43
0.0000000001
 40
0.0
 40
0.0
 40
0.0
 40
0.0
 40
0.25
 40
0.25
 40
0.25
 40
0.25
 40
0.5
 40
0.5
 40
0.5
 40
0.5
 40
1.0
 40
1.0
 40
1.0
 40
1.0
 10
-14.2102
 20
31.3883
 30
0.0
 10
-14.2102
 20
31.3883
 30
0.0
 10
-17.3493
 20
30.9297
 30
0.0
 10
-17.3493
 20
30.9297
 30
0.0
 10
-17.3493
 20
30.9297
 30
0.0
 10
-17.3493
 20
30.9297
 30
0.0
 10
-14.219
 20
30.3539
 30
0.0
 10
-14.219
 20
30.3539
 30
0.0
 10
-14.219
 20
30.3539
 30
0.0
 10
-14.219
 20
30.3539
 30
0.0
 10
-14.2102
 20
31.3883
 30
0.0
 10
-14.2102
 20
31.3883
 30
0.0
  0
ENDSEC
  0
SECTION
  2
OBJECTS
  0
DICTIONARY
  5
C
330
0
100
AcDbDictionary
  3
ACAD_GROUP
350
D
  3
ACAD_LAYOUT
350
1A
  3
ACAD_MATERIAL
350
3B
  3
ACAD_MLEADERSTYLE
350
EF
  3
ACAD_MLINESTYLE
350
17
  3
ACAD_PLOTSETTINGS
350
19
  3
ACAD_VISUALSTYLE
350
2A
  3
ACDBHEADERROUNDTRIPXREC
350
CD
  3
ACDBVARIABLEDICTIONARY
350
ED
  0
DICTIONARY
  5
D
102
{ACAD_REACTORS
330
C
102
}
330
C
100
AcDbDictionary
  0
DICTIONARY
  5
1A
102
{ACAD_REACTORS
330
C
102
}
330
C
100
AcDbDictionary
  0
DICTIONARY
  5
3B
102
{ACAD_REACTORS
330
C
102
}
330
C
100
AcDbDictionary
  3
BYBLOCK
350
3D
  3
BYLAYER
350
3C
  3
GLOBAL
350
3E
  0
DICTIONARY
  5
EF
102
{ACAD_REACTORS
330
C
102
}
330
C
100
AcDbDictionary
  0
DICTIONARY
  5
17
102
{ACAD_REACTORS
330
C
102
}
330
C
100
AcDbDictionary
  3
STANDARD
350
18
  0
DICTIONARY
  5
19
102
{ACAD_REACTORS
330
C
102
}
330
C
100
AcDbDictionary
  0
DICTIONARY
  5
2A
102
{ACAD_REACTORS
330
C
102
}
330
C
100
AcDbDictionary
  3
2DWIREFRAME
350
2F
  3
3D_HIDDEN
350
31
  3
3DWIREFRAME
350
30
  3
BASIC
350
32
  3
BRIGHTEN
350
36
  3
COLORCHANGE
350
3A
  3
CONCEPTUAL
350
34
  3
DIM
350
35
  3
FACEPATTERN
350
39
  3
FLAT
350
2B
  3
FLATWITHEDGES
350
2C
  3
GOURAUD
350
2D
  3
GOURAUDWITHEDGES
350
2E
  3
LINEPATTERN
350
38
  3
REALISTIC
350
33
  3
THICKEN
350
37
  0
DICTIONARY
  5
CD
102
{ACAD_REACTORS
330
C
102
}
330
C
100
AcDbDictionary
  3
CEPSNTYPE
350
D6
  3
DIMSTYLEDATA
350
EC
  3
FINGERPRINTGUID
350
D7
  3
HYPERLINKBASE
350
D0
  3
INSUNITS
350
D5
  3
LAYOUTDICT
350
D2
  3
LWETCUNION
350
D4
  3
PLOTSETDICT
350
D3
  3
PSVPSCALE
350
D9
  3
PUCSBASE
350
DC
  3
PUCSORGBACK
350
E2
  3
PUCSORGBOTTOM
350
DE
  3
PUCSORGFRONT
350
E1
  3
PUCSORGLEFT
350
DF
  3
PUCSORGRIGHT
350
E0
  3
PUCSORGTOP
350
DD
  3
PUCSORTHOREF
350
DA
  3
PUCSORTHOVIEW
350
DB
  3
STYLESHEET
350
D1
  3
TSTACKALIGN
350
CE
  3
TSTACKSIZE
350
CF
  3
UCSBASE
350
E5
  3
UCSORGBACK
350
EB
  3
UCSORGBOTTOM
350
E7
  3
UCSORGFRONT
350
EA
  3
UCSORGLEFT
350
E8
  3
UCSORGRIGHT
350
E9
  3
UCSORGTOP
350
E6
  3
UCSORTHOREF
350
E3
  3
UCSORTHOVIEW
350
E4
  3
VERSIONGUID
350
D8
  0
DICTIONARY
  5
ED
102
{ACAD_REACTORS
330
C
102
}
330
C
100
AcDbDictionary
  3
DIMASSOC
350
F0
  3
HIDETEXT
350
F1
  0
MATERIAL
  5
3D
102
{ACAD_REACTORS
330
3B
102
}
102
{ACAD_XDICTIONARY
360
F4
102
}
330
3B
100
AcDbMaterial
  1
ByBlock
  0
MATERIAL
  5
3C
102
{ACAD_REACTORS
330
3B
102
}
102
{ACAD_XDICTIONARY
360
F2
102
}
330
3B
100
AcDbMaterial
  1
ByLayer
  0
MATERIAL
  5
3E
102
{ACAD_REACTORS
330
3B
102
}
102
{ACAD_XDICTIONARY
360
F6
102
}
330
3B
100
AcDbMaterial
  1
Global
  0
MLINESTYLE
  5
18
102
{ACAD_REACTORS
330
17
102
}
330
17
100
AcDbMlineStyle
  2
Standard
 70
     0
  3

 62
   256
 51
90.0
 52
90.0
 71
     2
 49
0.5
 62
   256
  6
BYLAYER
 49
-0.5
 62
   256
  6
BYLAYER
  0
ACAD_PROXY_OBJECT
  5
2F
102
{ACAD_REACTORS
330
2A
102
}
330
2A
100
AcDbProxyObject
 90
      499
 91
      501
 93
      436
310
42CC9915DA5C99599C985B595049028333333333333E3BF0000000000000FB0107901411070040501600405405064090741402480A0340
1001
ACAD
1000
AcDbSavedByObjectVersion
1070
     0
  0
ACAD_PROXY_OBJECT
  5
31
102
{ACAD_REACTORS
330
2A
102
}
330
2A
100
AcDbProxyObject
 90
      499
 91
      501
 93
      500
310
424CD108121A5919195B90640502408333333333333E3BF0000000000000FB01079024090700405020000000000001110200405405064090740C02480A0340
1001
ACAD
1000
AcDbSavedByObjectVersion
1070
     0
  0
ACAD_PROXY_OBJECT
  5
30
102
{ACAD_REACTORS
330
2A
102
}
330
2A
100
AcDbProxyObject
 90
      499
 91
      501
 93
      436
310
42CCD915DA5C99599C985B595059028333333333333E3BF0000000000000FB0107901411070040501600405405064090741402480A0340
1001
ACAD
1000
AcDbSavedByObjectVersion
1070
     0
  0
ACAD_PROXY_OBJECT
  5
32
102
{ACAD_REACTORS
330
2A
102
}
330
2A
100
AcDbProxyObject
 90
      499
 91
      501
 93
      388
310
4150985CDA58D07406404333333333333E3BF0000000000000FB0107A41107004050150841D405064090741402480A0350
1001
ACAD
1000
AcDbSavedByObjectVersion
1070
     0
  0
ACAD_PROXY_OBJECT
  5
36
102
{ACAD_REACTORS
330
2A
102
}
330
2A
100
AcDbProxyObject
 90
      499
 91
      501
 93
      428
310
42109C9A59DA1D195B90C409028333333333333E3BF0000000000000FB010790141107004050150841D405064090741402480A029950
1001
ACAD
1000
AcDbSavedByObjectVersion
1070
     0
  0
ACAD_PROXY_OBJECT
  5
3A
102
{ACAD_REACTORS
330
2A
102
}
330
2A
100
AcDbProxyObject
 90
      499
 91
      501
 93
      452
310
42D0DBDB1BDC90DA185B99D95104090240C333333333333E3BF0000000000000FB0108901411070040501508421405064090741402480A0350
1001
ACAD
1000
AcDbSavedByObjectVersion
1070
     0
  0
ACAD_PROXY_OBJECT
  5
34
102
{ACAD_REACTORS
330
2A
102
}
330
2A
100
AcDbProxyObject
 90
      499
 91
      501
 93
      500
310
4290DBDB98D95C1D1D585B10940D028333333333333E3BF0000000000000FB0107902409070040501000000000000111010841D405064090740C02480A0340
1001
ACAD
1000
AcDbSavedByObjectVersion
1070
     0
  0
ACAD_PROXY_OBJECT
  5
35
102
{ACAD_REACTORS
330
2A
102
}
330
2A
100
AcDbProxyObject
 90
      499
 91
      501
 93
      412
310
40D11A5B50B409028333333333333E3BF0000000000000FB010790141107004050150841D405064090741402480A02677FFFFFD0
1001
ACAD
1000
AcDbSavedByObjectVersion
1070
     0
  0
ACAD_PROXY_OBJECT
  5
39
102
{ACAD_REACTORS
330
2A
102
}
330
2A
100
AcDbProxyObject
 90
      499
 91
      501
 93
      444
310
42D19858D95C185D1D195C9B90F409028333333333333E3BF0000000000000FB010790141107004050150841D405064090741402480A0350
1001
ACAD
1000
AcDbSavedByObjectVersion
1070
     0
  0
ACAD_PROXY_OBJECT
  5
2B
102
{ACAD_REACTORS
330
2A
102
}
330
2A
100
AcDbProxyObject
 90
      499
 91
      501
 93
      388
310
41119B185D240901404333333333333E3BF0000000000000F9010740A41107004050150841D405064090741402480A1B50
1001
ACAD
1000
AcDbSavedByObjectVersion
1070
     0
  0
ACAD_PROXY_OBJECT
  5
2C
102
{ACAD_REACTORS
330
2A
102
}
330
2A
100
AcDbProxyObject
 90
      499
 91
      501
 93
      476
310
43519B185D15DA5D1A115919D95CD0140901404333333333333E3BF0000000000000F9010740901411070040501600405405064090741402480A1B50
1001
ACAD
1000
AcDbSavedByObjectVersion
1070
     0
  0
ACAD_PROXY_OBJECT
  5
2D
102
{ACAD_REACTORS
330
2A
102
}
330
2A
100
AcDbProxyObject
 90
      499
 91
      501
 93
      412
310
41D1DBDD5C985D5910240902404333333333333E3BF0000000000000F9010740A411070040501641D405064090741402480A1B50
1001
ACAD
1000
AcDbSavedByObjectVersion
1070
     0
  0
ACAD_PROXY_OBJECT
  5
2E
102
{ACAD_REACTORS
330
2A
102
}
330
2A
100
AcDbProxyObject
 90
      499
 91
      501
 93
      500
310
4411DBDD5C985D5915DA5D1A115919D95CD0340902404333333333333E3BF0000000000000F9010740901411070040501600405405064090741402480A1B50
1001
ACAD
1000
AcDbSavedByObjectVersion
1070
     0
  0
ACAD_PROXY_OBJECT
  5
38
102
{ACAD_REACTORS
330
2A
102
}
330
2A
100
AcDbProxyObject
 90
      499
 91
      501
 93
      444
310
42D31A5B995C185D1D195C9B90E409028333333333333E3BF0000000000000FB010790141107004050750841D405064090741402483A0350
1001
ACAD
1000
AcDbSavedByObjectVersion
1070
     0
  0
ACAD_PROXY_OBJECT
  5
33
102
{ACAD_REACTORS
330
2A
102
}
330
2A
100
AcDbProxyObject
 90
      499
 91
      501
 93
      420
310
425499585B1A5CDD1A58D08409028333333333333E3BF0000000000000FB01079019070040501508421405064090741402480A1B40
1001
ACAD
1000
AcDbSavedByObjectVersion
1070
     0
  0
ACAD_PROXY_OBJECT
  5
37
102
{ACAD_REACTORS
330
2A
102
}
330
2A
100
AcDbProxyObject
 90
      499
 91
      501
 93
      412
310
41D51A1A58DAD95B90D409028333333333333E3BF0000000000000FB010790141107004050150C41D405064090741402480A0350
1001
ACAD
1000
AcDbSavedByObjectVersion
1070
     0
  0
XRECORD
  5
D6
102
{ACAD_REACTORS
330
CD
102
}
330
CD
100
AcDbXrecord
 90
        0
  0
XRECORD
  5
EC
102
{ACAD_REACTORS
330
CD
102
}
330
CD
100
AcDbXrecord
1000
DSTYLE
1002
{
1070
   340
340
11
1002
}
  0
XRECORD
  5
D7
102
{ACAD_REACTORS
330
CD
102
}
330
CD
100
AcDbXrecord
  1
{DAE353AF-AC71-4B82-81FF-4BC6568B35B6}
  0
XRECORD
  5
D0
102
{ACAD_REACTORS
330
CD
102
}
330
CD
100
AcDbXrecord
  1

  0
XRECORD
  5
D5
102
{ACAD_REACTORS
330
CD
102
}
330
CD
100
AcDbXrecord
 90
        4
  0
XRECORD
  5
D2
102
{ACAD_REACTORS
330
CD
102
}
330
CD
100
AcDbXrecord
340
1A
  0
XRECORD
  5
D4
102
{ACAD_REACTORS
330
CD
102
}
330
CD
100
AcDbXrecord
 90
    10781
  0
XRECORD
  5
D3
102
{ACAD_REACTORS
330
CD
102
}
330
CD
100
AcDbXrecord
340
19
  0
XRECORD
  5
D9
102
{ACAD_REACTORS
330
CD
102
}
330
CD
100
AcDbXrecord
 40
0.0
  0
XRECORD
  5
DC
102
{ACAD_REACTORS
330
CD
102
}
330
CD
100
AcDbXrecord
340
0
  0
XRECORD
  5
E2
102
{ACAD_REACTORS
330
CD
102
}
330
CD
100
AcDbXrecord
 10
0.0
 20
0.0
 30
0.0
  0
XRECORD
  5
DE
102
{ACAD_REACTORS
330
CD
102
}
330
CD
100
AcDbXrecord
 10
0.0
 20
0.0
 30
0.0
  0
XRECORD
  5
E1
102
{ACAD_REACTORS
330
CD
102
}
330
CD
100
AcDbXrecord
 10
0.0
 20
0.0
 30
0.0
  0
XRECORD
  5
DF
102
{ACAD_REACTORS
330
CD
102
}
330
CD
100
AcDbXrecord
 10
0.0
 20
0.0
 30
0.0
  0
XRECORD
  5
E0
102
{ACAD_REACTORS
330
CD
102
}
330
CD
100
AcDbXrecord
 10
0.0
 20
0.0
 30
0.0
  0
XRECORD
  5
DD
102
{ACAD_REACTORS
330
CD
102
}
330
CD
100
AcDbXrecord
 10
0.0
 20
0.0
 30
0.0
  0
XRECORD
  5
DA
102
{ACAD_REACTORS
330
CD
102
}
330
CD
100
AcDbXrecord
340
0
  0
XRECORD
  5
DB
102
{ACAD_REACTORS
330
CD
102
}
330
CD
100
AcDbXrecord
 70
     0
  0
XRECORD
  5
D1
102
{ACAD_REACTORS
330
CD
102
}
330
CD
100
AcDbXrecord
  1

  0
XRECORD
  5
CE
102
{ACAD_REACTORS
330
CD
102
}
330
CD
100
AcDbXrecord
 90
        1
  0
XRECORD
  5
CF
102
{ACAD_REACTORS
330
CD
102
}
330
CD
100
AcDbXrecord
 90
       70
  0
XRECORD
  5
E5
102
{ACAD_REACTORS
330
CD
102
}
330
CD
100
AcDbXrecord
340
0
  0
XRECORD
  5
EB
102
{ACAD_REACTORS
330
CD
102
}
330
CD
100
AcDbXrecord
 10
0.0
 20
0.0
 30
0.0
  0
XRECORD
  5
E7
102
{ACAD_REACTORS
330
CD
102
}
330
CD
100
AcDbXrecord
 10
0.0
 20
0.0
 30
0.0
  0
XRECORD
  5
EA
102
{ACAD_REACTORS
330
CD
102
}
330
CD
100
AcDbXrecord
 10
0.0
 20
0.0
 30
0.0
  0
XRECORD
  5
E8
102
{ACAD_REACTORS
330
CD
102
}
330
CD
100
AcDbXrecord
 10
0.0
 20
0.0
 30
0.0
  0
XRECORD
  5
E9
102
{ACAD_REACTORS
330
CD
102
}
330
CD
100
AcDbXrecord
 10
0.0
 20
0.0
 30
0.0
  0
XRECORD
  5
E6
102
{ACAD_REACTORS
330
CD
102
}
330
CD
100
AcDbXrecord
 10
0.0
 20
0.0
 30
0.0
  0
XRECORD
  5
E3
102
{ACAD_REACTORS
330
CD
102
}
330
CD
100
AcDbXrecord
340
0
  0
XRECORD
  5
E4
102
{ACAD_REACTORS
330
CD
102
}
330
CD
100
AcDbXrecord
 70
     0
  0
XRECORD
  5
D8
102
{ACAD_REACTORS
330
CD
102
}
330
CD
100
AcDbXrecord
  1
{FAEB1C32-E019-11D5-929B-00C0DF256EC4}
  0
DICTIONARYVAR
  5
F0
102
{ACAD_REACTORS
330
ED
102
}
330
ED
100
DictionaryVariables
280
     0
  1
2
  0
DICTIONARYVAR
  5
F1
102
{ACAD_REACTORS
330
ED
102
}
330
ED
100
DictionaryVariables
280
     0
  1
1
  0
DICTIONARY
  5
F4
330
3D
100
AcDbDictionary
280
     1
  3
ACAD_XREC_ROUNDTRIP
360
F5
  0
DICTIONARY
  5
F2
330
3C
100
AcDbDictionary
280
     1
  3
ACAD_XREC_ROUNDTRIP
360
F3
  0
DICTIONARY
  5
F6
330
3E
100
AcDbDictionary
280
     1
  3
ACAD_XREC_ROUNDTRIP
360
F7
  0
XRECORD
  5
F5
102
{ACAD_REACTORS
330
F4
102
}
330
F4
100
AcDbXrecord
102
MATERIAL
148
0.0
149
0.0
149
0.0
 93
        0
 94
      127
282
     0
 72
     1
 77
     1
171
     1
175
     1
179
     1
273
     0
  0
XRECORD
  5
F3
102
{ACAD_REACTORS
330
F2
102
}
330
F2
100
AcDbXrecord
102
MATERIAL
148
0.0
149
0.0
149
0.0
 93
        0
 94
      127
282
     0
 72
     1
 77
     1
171
     1
175
     1
179
     1
273
     0
  0
XRECORD
  5
F7
102
{ACAD_REACTORS
330
F6
102
}
330
F6
100
AcDbXrecord
102
MATERIAL
148
0.0
149
0.0
149
0.0
 93
        0
 94
      127
282
     0
 72
     1
 77
     1
171
     1
175
     1
179
     1
273
     0
  0
ENDSEC
  0
EOF
